  0
SECTION
  2
HEADER
  9
$ACADVER
  1
AC1024
  9
$ACADMAINTVER
 70
   226
  9
$DWGCODEPAGE
  3
ANSI_1252
  9
$INSBASE
 10
0.0
 20
0.0
 30
0.0
  9
$EXTMIN
 10
1.000000000000000E+20
 20
1.000000000000000E+20
 30
1.000000000000000E+20
  9
$EXTMAX
 10
-1.000000000000000E+20
 20
-1.000000000000000E+20
 30
-1.000000000000000E+20
  9
$LIMMIN
 10
0.0
 20
0.0
  9
$LIMMAX
 10
12.0
 20
9.0
  9
$ORTHOMODE
 70
     0
  9
$REGENMODE
 70
     1
  9
$FILLMODE
 70
     1
  9
$QTEXTMODE
 70
     0
  9
$MIRRTEXT
 70
     0
  9
$LTSCALE
 40
1.0
  9
$ATTMODE
 70
     1
  9
$TEXTSIZE
 40
0.2
  9
$TRACEWID
 40
0.05
  9
$TEXTSTYLE
  7
Standard
  9
$CLAYER
  8
0
  9
$CELTYPE
  6
ByLayer
  9
$CECOLOR
 62
   256
  9
$CELTSCALE
 40
1.0
  9
$DISPSILH
 70
     0
  9
$DIMSCALE
 40
1.0
  9
$DIMASZ
 40
0.18
  9
$DIMEXO
 40
0.0625
  9
$DIMDLI
 40
0.38
  9
$DIMRND
 40
0.0
  9
$DIMDLE
 40
0.0
  9
$DIMEXE
 40
0.18
  9
$DIMTP
 40
0.0
  9
$DIMTM
 40
0.0
  9
$DIMTXT
 40
0.18
  9
$DIMCEN
 40
0.09
  9
$DIMTSZ
 40
0.0
  9
$DIMTOL
 70
     0
  9
$DIMLIM
 70
     0
  9
$DIMTIH
 70
     1
  9
$DIMTOH
 70
     1
  9
$DIMSE1
 70
     0
  9
$DIMSE2
 70
     0
  9
$DIMTAD
 70
     0
  9
$DIMZIN
 70
     0
  9
$DIMBLK
  1

  9
$DIMASO
 70
     1
  9
$DIMSHO
 70
     1
  9
$DIMPOST
  1

  9
$DIMAPOST
  1

  9
$DIMALT
 70
     0
  9
$DIMALTD
 70
     2
  9
$DIMALTF
 40
25.4
  9
$DIMLFAC
 40
1.0
  9
$DIMTOFL
 70
     0
  9
$DIMTVP
 40
0.0
  9
$DIMTIX
 70
     0
  9
$DIMSOXD
 70
     0
  9
$DIMSAH
 70
     0
  9
$DIMBLK1
  1

  9
$DIMBLK2
  1

  9
$DIMSTYLE
  2
Standard
  9
$DIMCLRD
 70
     0
  9
$DIMCLRE
 70
     0
  9
$DIMCLRT
 70
     0
  9
$DIMTFAC
 40
1.0
  9
$DIMGAP
 40
0.09
  9
$DIMJUST
 70
     0
  9
$DIMSD1
 70
     0
  9
$DIMSD2
 70
     0
  9
$DIMTOLJ
 70
     1
  9
$DIMTZIN
 70
     0
  9
$DIMALTZ
 70
     0
  9
$DIMALTTZ
 70
     0
  9
$DIMUPT
 70
     0
  9
$DIMDEC
 70
     4
  9
$DIMTDEC
 70
     4
  9
$DIMALTU
 70
     2
  9
$DIMALTTD
 70
     2
  9
$DIMTXSTY
  7
Standard
  9
$DIMAUNIT
 70
     0
  9
$DIMADEC
 70
     0
  9
$DIMALTRND
 40
0.0
  9
$DIMAZIN
 70
     0
  9
$DIMDSEP
 70
    46
  9
$DIMATFIT
 70
     3
  9
$DIMFRAC
 70
     0
  9
$DIMLDRBLK
  1

  9
$DIMLUNIT
 70
     2
  9
$DIMLWD
 70
    -2
  9
$DIMLWE
 70
    -2
  9
$DIMTMOVE
 70
     0
  9
$DIMFXL
 40
1.0
  9
$DIMFXLON
 70
     0
  9
$DIMJOGANG
 40
0.7853981633974483
  9
$DIMTFILL
 70
     0
  9
$DIMTFILLCLR
 70
     0
  9
$DIMARCSYM
 70
     0
  9
$DIMLTYPE
  6

  9
$DIMLTEX1
  6

  9
$DIMLTEX2
  6

  9
$DIMTXTDIRECTION
 70
     0
  9
$LUNITS
 70
     2
  9
$LUPREC
 70
     4
  9
$SKETCHINC
 40
0.1
  9
$FILLETRAD
 40
0.0
  9
$AUNITS
 70
     0
  9
$AUPREC
 70
     0
  9
$MENU
  1
.
  9
$ELEVATION
 40
0.0
  9
$PELEVATION
 40
0.0
  9
$THICKNESS
 40
0.0
  9
$LIMCHECK
 70
     0
  9
$CHAMFERA
 40
0.0
  9
$CHAMFERB
 40
0.0
  9
$CHAMFERC
 40
0.0
  9
$CHAMFERD
 40
0.0
  9
$SKPOLY
 70
     0
  9
$TDCREATE
 40
2459493.463229167
  9
$TDUCREATE
 40
2459493.379895834
  9
$TDUPDATE
 40
2459493.463229167
  9
$TDUUPDATE
 40
2459493.379895834
  9
$TDINDWG
 40
0.0000000000
  9
$TDUSRTIMER
 40
0.0000000000
  9
$USRTIMER
 70
     1
  9
$ANGBASE
 50
0.0
  9
$ANGDIR
 70
     0
  9
$PDMODE
 70
     0
  9
$PDSIZE
 40
0.0
  9
$PLINEWID
 40
0.0
  9
$SPLFRAME
 70
     0
  9
$SPLINETYPE
 70
     6
  9
$SPLINESEGS
 70
     8
  9
$HANDSEED
  5
1DB
  9
$SURFTAB1
 70
     6
  9
$SURFTAB2
 70
     6
  9
$SURFTYPE
 70
     6
  9
$SURFU
 70
     6
  9
$SURFV
 70
     6
  9
$UCSBASE
  2

  9
$UCSNAME
  2

  9
$UCSORG
 10
0.0
 20
0.0
 30
0.0
  9
$UCSXDIR
 10
1.0
 20
0.0
 30
0.0
  9
$UCSYDIR
 10
0.0
 20
1.0
 30
0.0
  9
$UCSORTHOREF
  2

  9
$UCSORTHOVIEW
 70
     0
  9
$UCSORGTOP
 10
0.0
 20
0.0
 30
0.0
  9
$UCSORGBOTTOM
 10
0.0
 20
0.0
 30
0.0
  9
$UCSORGLEFT
 10
0.0
 20
0.0
 30
0.0
  9
$UCSORGRIGHT
 10
0.0
 20
0.0
 30
0.0
  9
$UCSORGFRONT
 10
0.0
 20
0.0
 30
0.0
  9
$UCSORGBACK
 10
0.0
 20
0.0
 30
0.0
  9
$PUCSBASE
  2

  9
$PUCSNAME
  2

  9
$PUCSORG
 10
0.0
 20
0.0
 30
0.0
  9
$PUCSXDIR
 10
1.0
 20
0.0
 30
0.0
  9
$PUCSYDIR
 10
0.0
 20
1.0
 30
0.0
  9
$PUCSORTHOREF
  2

  9
$PUCSORTHOVIEW
 70
     0
  9
$PUCSORGTOP
 10
0.0
 20
0.0
 30
0.0
  9
$PUCSORGBOTTOM
 10
0.0
 20
0.0
 30
0.0
  9
$PUCSORGLEFT
 10
0.0
 20
0.0
 30
0.0
  9
$PUCSORGRIGHT
 10
0.0
 20
0.0
 30
0.0
  9
$PUCSORGFRONT
 10
0.0
 20
0.0
 30
0.0
  9
$PUCSORGBACK
 10
0.0
 20
0.0
 30
0.0
  9
$USERI1
 70
     0
  9
$USERI2
 70
     0
  9
$USERI3
 70
     0
  9
$USERI4
 70
     0
  9
$USERI5
 70
     0
  9
$USERR1
 40
0.0
  9
$USERR2
 40
0.0
  9
$USERR3
 40
0.0
  9
$USERR4
 40
0.0
  9
$USERR5
 40
0.0
  9
$WORLDVIEW
 70
     1
  9
$SHADEDGE
 70
     3
  9
$SHADEDIF
 70
    70
  9
$TILEMODE
 70
     1
  9
$MAXACTVP
 70
    64
  9
$PINSBASE
 10
0.0
 20
0.0
 30
0.0
  9
$PLIMCHECK
 70
     0
  9
$PEXTMIN
 10
1.000000000000000E+20
 20
1.000000000000000E+20
 30
1.000000000000000E+20
  9
$PEXTMAX
 10
-1.000000000000000E+20
 20
-1.000000000000000E+20
 30
-1.000000000000000E+20
  9
$PLIMMIN
 10
0.0
 20
0.0
  9
$PLIMMAX
 10
12.0
 20
9.0
  9
$UNITMODE
 70
     0
  9
$VISRETAIN
 70
     1
  9
$PLINEGEN
 70
     0
  9
$PSLTSCALE
 70
     1
  9
$TREEDEPTH
 70
  3020
  9
$CMLSTYLE
  2
Standard
  9
$CMLJUST
 70
     0
  9
$CMLSCALE
 40
1.0
  9
$PROXYGRAPHICS
 70
     1
  9
$MEASUREMENT
 70
     0
  9
$CELWEIGHT
370
    -1
  9
$ENDCAPS
280
     0
  9
$JOINSTYLE
280
     0
  9
$LWDISPLAY
290
     1
  9
$INSUNITS
 70
     4
  9
$HYPERLINKBASE
  1

  9
$STYLESHEET
  1

  9
$XEDIT
290
     1
  9
$CEPSNTYPE
380
     0
  9
$PSTYLEMODE
290
     1
  9
$FINGERPRINTGUID
  2
{3E248684-B5AA-CC4D-9563-2381E54C9D9E}
  9
$VERSIONGUID
  2
{28DD054D-62CF-E04A-A886-94BB779B824D}
  9
$EXTNAMES
290
     1
  9
$PSVPSCALE
 40
0.0
  9
$OLESTARTUP
290
     0
  9
$SORTENTS
280
   127
  9
$INDEXCTL
280
     0
  9
$HIDETEXT
280
     1
  9
$XCLIPFRAME
280
     2
  9
$HALOGAP
280
     0
  9
$OBSCOLOR
 70
   257
  9
$OBSLTYPE
280
     0
  9
$INTERSECTIONDISPLAY
280
     0
  9
$INTERSECTIONCOLOR
 70
   257
  9
$DIMASSOC
280
     2
  9
$PROJECTNAME
  1

  9
$CAMERADISPLAY
290
     0
  9
$LENSLENGTH
 40
50.0
  9
$CAMERAHEIGHT
 40
0.0
  9
$STEPSPERSEC
 40
2.0
  9
$STEPSIZE
 40
6.0
  9
$3DDWFPREC
 40
2.0
  9
$PSOLWIDTH
 40
0.25
  9
$PSOLHEIGHT
 40
4.0
  9
$LOFTANG1
 40
1.570796326794896
  9
$LOFTANG2
 40
1.570796326794896
  9
$LOFTMAG1
 40
0.0
  9
$LOFTMAG2
 40
0.0
  9
$LOFTPARAM
 70
     7
  9
$LOFTNORMALS
280
     1
  9
$LATITUDE
 40
37.795
  9
$LONGITUDE
 40
-122.394
  9
$NORTHDIRECTION
 40
0.0
  9
$TIMEZONE
 70
 -8000
  9
$LIGHTGLYPHDISPLAY
280
     1
  9
$TILEMODELIGHTSYNCH
280
     1
  9
$CMATERIAL
347
11
  9
$SOLIDHIST
280
     0
  9
$SHOWHIST
280
     1
  9
$DWFFRAME
280
     2
  9
$DGNFRAME
280
     0
  9
$REALWORLDSCALE
290
     1
  9
$INTERFERECOLOR
 62
     1
  9
$INTERFEREOBJVS
345
33
  9
$INTERFEREVPVS
346
30
  9
$CSHADOW
280
     0
  9
$SHADOWPLANELOCATION
 40
0.0
  0
ENDSEC
  0
SECTION
  2
CLASSES
  0
CLASS
  1
ACDBDICTIONARYWDFLT
  2
AcDbDictionaryWithDefault
  3
ObjectDBX Classes
 90
        0
 91
        1
280
     0
281
     0
  0
CLASS
  1
MATERIAL
  2
AcDbMaterial
  3
ObjectDBX Classes
 90
     1153
 91
        3
280
     0
281
     0
  0
CLASS
  1
VISUALSTYLE
  2
AcDbVisualStyle
  3
ObjectDBX Classes
 90
     4095
 91
       24
280
     0
281
     0
  0
CLASS
  1
SCALE
  2
AcDbScale
  3
ObjectDBX Classes
 90
     1153
 91
       17
280
     0
281
     0
  0
CLASS
  1
TABLESTYLE
  2
AcDbTableStyle
  3
ObjectDBX Classes
 90
     4095
 91
        1
280
     0
281
     0
  0
CLASS
  1
MLEADERSTYLE
  2
AcDbMLeaderStyle
  3
ACDB_MLEADERSTYLE_CLASS
 90
     4095
 91
        1
280
     0
281
     0
  0
CLASS
  1
ACDBSECTIONVIEWSTYLE
  2
AcDbSectionViewStyle
  3
ObjectDBX Classes
 90
     1025
 91
        1
280
     0
281
     0
  0
CLASS
  1
ACDBDETAILVIEWSTYLE
  2
AcDbDetailViewStyle
  3
ObjectDBX Classes
 90
     1025
 91
        1
280
     0
281
     0
  0
CLASS
  1
DICTIONARYVAR
  2
AcDbDictionaryVar
  3
ObjectDBX Classes
 90
        0
 91
        5
280
     0
281
     0
  0
CLASS
  1
CELLSTYLEMAP
  2
AcDbCellStyleMap
  3
ObjectDBX Classes
 90
     1152
 91
        1
280
     0
281
     0
  0
ENDSEC
  0
SECTION
  2
TABLES
  0
TABLE
  2
VPORT
  5
8
330
0
100
AcDbSymbolTable
 70
     1
  0
VPORT
  5
57
330
8
100
AcDbSymbolTableRecord
100
AcDbViewportTableRecord
  2
*Active
 70
     0
 10
0.0
 20
0.0
 11
1.0
 21
1.0
 12
0.0
 22
0.0
 13
0.0
 23
0.0
 14
1.0
 24
1.0
 15
0.0
 25
0.0
 16
0.0
 26
0.0
 36
1.0
 17
37.2180555462512
 27
52.36312593634498
 37
0.0
 40
206.4615786430461
 41
1.440794560590122
 42
50.0
 43
0.0
 44
0.0
 50
0.0
 51
0.0
 71
     0
 72
   100
 73
     1
 74
     0
 75
     1
 76
     0
 77
     0
 78
     0
281
     0
 65
     1
110
0.0
120
0.0
130
0.0
111
1.0
121
0.0
131
0.0
112
0.0
122
1.0
132
0.0
 79
     0
146
0.0
 60
     3
 61
     5
292
     1
282
     1
141
0.0
142
0.0
 63
   250
421
  3355443
  0
ENDTAB
  0
TABLE
  2
LTYPE
  5
5
330
0
100
AcDbSymbolTable
 70
     6
  0
LTYPE
  5
5B
330
5
100
AcDbSymbolTableRecord
100
AcDbLinetypeTableRecord
  2
ByBlock
 70
     0
  3

 72
    65
 73
     0
 40
0.0
  0
LTYPE
  5
5C
330
5
100
AcDbSymbolTableRecord
100
AcDbLinetypeTableRecord
  2
ByLayer
 70
     0
  3

 72
    65
 73
     0
 40
0.0
  0
LTYPE
  5
5D
330
5
100
AcDbSymbolTableRecord
100
AcDbLinetypeTableRecord
  2
Continuous
 70
     0
  3
Solid line
 72
    65
 73
     0
 40
0.0
  0
LTYPE
  5
9D
330
5
100
AcDbSymbolTableRecord
100
AcDbLinetypeTableRecord
  2
AI-Linetype-0
 70
     0
  3
Adobe Illustrator Linetype No. 0
 72
    65
 73
     6
 40
7.203527812157536
 49
2.000000055131001
 74
     0
 49
-1.0000000275655
 74
     0
 49
0.200000009718539
 74
     0
 49
-1.0000000275655
 74
     0
 49
2.999999914478949
 74
     0
 49
-0.0035277776980439
 74
     0
  0
LTYPE
  5
9F
330
5
100
AcDbSymbolTableRecord
100
AcDbLinetypeTableRecord
  2
AI-Linetype-1
 70
     0
  3
Adobe Illustrator Linetype No. 1
 72
    65
 73
     6
 40
7.203527812157536
 49
2.000000055131001
 74
     0
 49
-1.0000000275655
 74
     0
 49
0.200000009718539
 74
     0
 49
-1.0000000275655
 74
     0
 49
2.999999914478949
 74
     0
 49
-0.0035277776980439
 74
     0
  0
LTYPE
  5
A1
330
5
100
AcDbSymbolTableRecord
100
AcDbLinetypeTableRecord
  2
AI-Linetype-2
 70
     0
  3
Adobe Illustrator Linetype No. 2
 72
    65
 73
     6
 40
7.203527812157536
 49
2.000000055131001
 74
     0
 49
-1.0000000275655
 74
     0
 49
0.200000009718539
 74
     0
 49
-1.0000000275655
 74
     0
 49
2.999999914478949
 74
     0
 49
-0.0035277776980439
 74
     0
  0
LTYPE
  5
A3
330
5
100
AcDbSymbolTableRecord
100
AcDbLinetypeTableRecord
  2
AI-Linetype-3
 70
     0
  3
Adobe Illustrator Linetype No. 3
 72
    65
 73
     6
 40
7.203527812157536
 49
2.000000055131001
 74
     0
 49
-1.0000000275655
 74
     0
 49
0.200000009718539
 74
     0
 49
-1.0000000275655
 74
     0
 49
2.999999914478949
 74
     0
 49
-0.0035277776980439
 74
     0
  0
LTYPE
  5
A5
330
5
100
AcDbSymbolTableRecord
100
AcDbLinetypeTableRecord
  2
AI-Linetype-4
 70
     0
  3
Adobe Illustrator Linetype No. 4
 72
    65
 73
     6
 40
7.203527812157536
 49
2.000000055131001
 74
     0
 49
-1.0000000275655
 74
     0
 49
0.200000009718539
 74
     0
 49
-1.0000000275655
 74
     0
 49
2.999999914478949
 74
     0
 49
-0.0035277776980439
 74
     0
  0
ENDTAB
  0
TABLE
  2
LAYER
  5
2
330
0
100
AcDbSymbolTable
 70
     3
  0
LAYER
  5
54
330
2
100
AcDbSymbolTableRecord
100
AcDbLayerTableRecord
  2
0
 70
     0
 62
     7
  6
Continuous
370
     0
390
F
347
21
  0
LAYER
  5
78
330
2
100
AcDbSymbolTableRecord
100
AcDbLayerTableRecord
  2
ASHADE
 70
     0
 62
     7
  6
Continuous
370
     0
390
F
347
21
  0
LAYER
  5
197
330
2
100
AcDbSymbolTableRecord
100
AcDbLayerTableRecord
  2
4
 70
     0
 62
     7
  6
Continuous
370
     0
390
F
347
21
  0
ENDTAB
  0
TABLE
  2
STYLE
  5
3
330
0
100
AcDbSymbolTable
 70
     2
  0
STYLE
  5
55
330
3
100
AcDbSymbolTableRecord
100
AcDbTextStyleTableRecord
  2
Standard
 70
     0
 40
0.0
 41
1.0
 50
0.0
 71
     0
 42
0.2
  3
txt
  4

  0
STYLE
  5
5A
330
3
100
AcDbSymbolTableRecord
100
AcDbTextStyleTableRecord
  2
Annotative
 70
     0
 40
0.0
 41
1.0
 50
0.0
 71
     0
 42
0.2
  3
txt
  4

1001
AcadAnnotative
1000
AnnotativeData
1002
{
1070
     1
1070
     1
1002
}
  0
ENDTAB
  0
TABLE
  2
VIEW
  5
6
330
0
100
AcDbSymbolTable
 70
     0
  0
ENDTAB
  0
TABLE
  2
UCS
  5
7
330
0
100
AcDbSymbolTable
 70
     0
  0
ENDTAB
  0
TABLE
  2
APPID
  5
9
330
0
100
AcDbSymbolTable
 70
     2
  0
APPID
  5
56
330
9
100
AcDbSymbolTableRecord
100
AcDbRegAppTableRecord
  2
ACAD
 70
     0
  0
APPID
  5
5E
330
9
100
AcDbSymbolTableRecord
100
AcDbRegAppTableRecord
  2
AcadAnnotative
 70
     0
  0
ENDTAB
  0
TABLE
  2
DIMSTYLE
  5
A
330
0
100
AcDbSymbolTable
 70
     2
100
AcDbDimStyleTable
 71
     0
  0
DIMSTYLE
105
58
330
A
100
AcDbSymbolTableRecord
100
AcDbDimStyleTableRecord
  2
Standard
 70
     0
340
55
  0
DIMSTYLE
105
59
330
A
100
AcDbSymbolTableRecord
100
AcDbDimStyleTableRecord
  2
Annotative
 70
     0
340
55
1001
AcadAnnotative
1000
AnnotativeData
1002
{
1070
     1
1070
     1
1002
}
  0
ENDTAB
  0
TABLE
  2
BLOCK_RECORD
  5
1
330
0
100
AcDbSymbolTable
 70
     1
  0
BLOCK_RECORD
  5
70
330
1
100
AcDbSymbolTableRecord
100
AcDbBlockTableRecord
  2
*Model_Space
340
73
 70
     0
280
     1
281
     0
  0
BLOCK_RECORD
  5
6C
330
1
100
AcDbSymbolTableRecord
100
AcDbBlockTableRecord
  2
*Paper_Space
340
6F
 70
     0
280
     1
281
     0
  0
BLOCK_RECORD
  5
74
330
1
100
AcDbSymbolTableRecord
100
AcDbBlockTableRecord
  2
*Paper_Space0
340
77
 70
     0
280
     1
281
     0
  0
ENDTAB
  0
ENDSEC
  0
SECTION
  2
BLOCKS
  0
BLOCK
  5
71
330
70
100
AcDbEntity
  8
0
100
AcDbBlockBegin
  2
*Model_Space
 70
     0
 10
0.0
 20
0.0
 30
0.0
  3
*Model_Space
  1

  0
ENDBLK
  5
72
330
70
100
AcDbEntity
  8
0
100
AcDbBlockEnd
  0
BLOCK
  5
6D
330
6C
100
AcDbEntity
 67
     1
  8
0
100
AcDbBlockBegin
  2
*Paper_Space
 70
     0
 10
0.0
 20
0.0
 30
0.0
  3
*Paper_Space
  1

  0
ENDBLK
  5
6E
330
6C
100
AcDbEntity
 67
     1
  8
0
100
AcDbBlockEnd
  0
BLOCK
  5
75
330
74
100
AcDbEntity
 67
     1
  8
0
100
AcDbBlockBegin
  2
*Paper_Space0
 70
     0
 10
0.0
 20
0.0
 30
0.0
  3
*Paper_Space0
  1

  0
ENDBLK
  5
76
330
74
100
AcDbEntity
 67
     1
  8
0
100
AcDbBlockEnd
  0
ENDSEC
  0
SECTION
  2
ENTITIES
  0
LINE
  5
79
330
70
100
AcDbEntity
  8
ASHADE
 62
    18
420
        0
370
    18
100
AcDbLine
 10
-84.41105979454212
 20
83.46359505635655
 30
0.0
 11
-82.07443982392666
 21
85.80021502697201
 31
0.0
  0
LINE
  5
7A
330
70
100
AcDbEntity
  8
ASHADE
 62
    18
420
        0
370
    18
100
AcDbLine
 10
-84.41105979454212
 20
78.97346699582205
 30
0.0
 11
-77.58431176339216
 21
85.80021502697169
 31
0.0
  0
LINE
  5
7B
330
70
100
AcDbEntity
  8
ASHADE
 62
    18
420
        0
370
    18
100
AcDbLine
 10
-84.41105979454212
 20
74.48333893528756
 30
0.0
 11
-73.09418370285768
 21
85.80021502697169
 31
0.0
  0
LINE
  5
7C
330
70
100
AcDbEntity
  8
ASHADE
 62
    18
420
        0
370
    18
100
AcDbLine
 10
-84.41105979454212
 20
69.99321087475308
 30
0.0
 11
-68.60405564232317
 21
85.80021502697169
 31
0.0
  0
LINE
  5
7D
330
70
100
AcDbEntity
  8
ASHADE
 62
    18
420
        0
370
    18
100
AcDbLine
 10
-84.41105979454212
 20
65.50308281421826
 30
0.0
 11
-66.41105979454213
 21
83.50308281421824
 31
0.0
  0
LINE
  5
7E
330
70
100
AcDbEntity
  8
ASHADE
 62
    18
420
        0
370
    18
100
AcDbLine
 10
-84.41105979454212
 20
61.01295475368377
 30
0.0
 11
-66.41105979454213
 21
79.01295475368375
 31
0.0
  0
LINE
  5
7F
330
70
100
AcDbEntity
  8
ASHADE
 62
    18
420
        0
370
    18
100
AcDbLine
 10
-83.52236562763058
 20
57.41152086006048
 30
0.0
 11
-66.41105979454213
 21
74.52282669314925
 31
0.0
  0
LINE
  5
80
330
70
100
AcDbEntity
  8
ASHADE
 62
    18
420
        0
370
    18
100
AcDbLine
 10
-75.64354340018481
 20
60.80021502697177
 30
0.0
 11
-66.41105979454213
 21
70.03269863261445
 31
0.0
  0
LINE
  5
81
330
70
100
AcDbEntity
  8
ASHADE
 62
    18
420
        0
370
    18
100
AcDbLine
 10
-71.15341533965031
 20
60.80021502697177
 30
0.0
 11
-66.41105979454213
 21
65.54257057207995
 31
0.0
  0
LINE
  5
82
330
70
100
AcDbEntity
  8
ASHADE
 62
    18
420
        0
370
    18
100
AcDbLine
 10
-84.41105979454212
 20
43.05244251154547
 30
0.0
 11
-83.16328727911544
 21
44.3002150269715
 31
0.0
  0
LINE
  5
83
330
70
100
AcDbEntity
  8
ASHADE
 62
    18
420
        0
370
    18
100
AcDbLine
 10
-84.41105979454212
 20
38.56231445101098
 30
0.0
 11
-79.41105979454194
 21
43.56231445101115
 31
0.0
  0
LINE
  5
84
330
70
100
AcDbEntity
  8
ASHADE
 62
    18
420
        0
370
    18
100
AcDbLine
 10
-84.41105979454212
 20
34.07218639047648
 30
0.0
 11
-77.68303115804657
 21
40.8002150269717
 31
0.0
  0
LINE
  5
85
330
70
100
AcDbEntity
  8
ASHADE
 62
    18
420
        0
370
    18
100
AcDbLine
 10
-84.41105979454212
 20
29.58205832994199
 30
0.0
 11
-73.19290309751176
 21
40.8002150269717
 31
0.0
  0
LINE
  5
86
330
70
100
AcDbEntity
  8
ASHADE
 62
    18
420
        0
370
    18
100
AcDbLine
 10
-84.41105979454212
 20
25.09193026940686
 30
0.0
 11
-74.21425428256028
 21
35.2887357813887
 31
0.0
  0
LINE
  5
87
330
70
100
AcDbEntity
  8
ASHADE
 62
    18
420
        0
370
    18
100
AcDbLine
 10
-71.46963843830459
 20
38.03335162564439
 30
0.0
 11
-68.70277503697727
 21
40.8002150269717
 31
0.0
  0
LINE
  5
88
330
70
100
AcDbEntity
  8
ASHADE
 62
    18
420
        0
370
    18
100
AcDbLine
 10
-82.2126469764431
 20
22.80021502697171
 30
0.0
 11
-66.41105979454213
 21
38.60180220887236
 31
0.0
  0
LINE
  5
89
330
70
100
AcDbEntity
  8
ASHADE
 62
    18
420
        0
370
    18
100
AcDbLine
 10
-77.72251891590828
 20
22.80021502697171
 30
0.0
 11
-66.41105979454213
 21
34.11167414833786
 31
0.0
  0
LINE
  5
8A
330
70
100
AcDbEntity
  8
ASHADE
 62
    18
420
        0
370
    18
100
AcDbLine
 10
-73.23239085537378
 20
22.80021502697171
 30
0.0
 11
-66.41105979454213
 21
29.62154608780337
 31
0.0
  0
LINE
  5
8B
330
70
100
AcDbEntity
  8
ASHADE
 62
    18
420
        0
370
    18
100
AcDbLine
 10
-68.74226279483929
 20
22.80021502697171
 30
0.0
 11
-66.41105979454213
 21
25.13141802726888
 31
0.0
  0
LINE
  5
8C
330
70
100
AcDbEntity
  8
ASHADE
 62
    18
420
        0
370
    30
100
AcDbLine
 10
-83.41105979454209
 20
44.30021502697214
 30
0.0
 11
-84.41105979454212
 21
43.30021502697211
 31
0.0
  0
LINE
  5
8D
330
70
100
AcDbEntity
  8
ASHADE
 62
    18
420
        0
370
    30
100
AcDbLine
 10
-67.41105979454215
 20
40.8002150269717
 30
0.0
 11
-66.41105979454213
 21
39.80021502697167
 31
0.0
  0
LINE
  5
8E
330
70
100
AcDbEntity
  8
ASHADE
 62
    18
420
        0
370
    30
100
AcDbLine
 10
-52.98146256341038
 20
24.80021502697178
 30
0.0
 11
-52.98146256341038
 21
83.80021502697195
 31
0.0
  0
LINE
  5
8F
330
70
100
AcDbEntity
  8
ASHADE
 62
    18
420
        0
370
    30
100
AcDbLine
 10
-50.9814625634103
 20
22.80021502697171
 30
0.0
 11
-52.98146256341038
 21
24.80021502697178
 31
0.0
  0
LINE
  5
90
330
70
100
AcDbEntity
  8
ASHADE
 62
    18
420
        0
370
    30
100
AcDbLine
 10
-50.9814625634103
 20
85.80021502697169
 30
0.0
 11
145.0185374365899
 21
85.80021502697169
 31
0.0
  0
LINE
  5
91
330
70
100
AcDbEntity
  8
ASHADE
 62
    18
420
        0
370
    30
100
AcDbLine
 10
147.0185374365899
 20
83.80021502697195
 30
0.0
 11
145.0185374365899
 21
85.80021502697169
 31
0.0
  0
LINE
  5
92
330
70
100
AcDbEntity
  8
ASHADE
 62
    18
420
        0
370
    30
100
AcDbLine
 10
-52.98146256341038
 20
83.80021502697195
 30
0.0
 11
-50.9814625634103
 21
85.80021502697169
 31
0.0
  0
LINE
  5
93
330
70
100
AcDbEntity
  8
ASHADE
 62
    18
420
        0
370
    30
100
AcDbLine
 10
147.0185374365899
 20
83.80021502697195
 30
0.0
 11
147.0185374365899
 21
24.80021502697178
 31
0.0
  0
LINE
  5
94
330
70
100
AcDbEntity
  8
ASHADE
 62
    18
420
        0
370
    30
100
AcDbLine
 10
145.0185374365899
 20
22.80021502697171
 30
0.0
 11
147.0185374365899
 21
24.80021502697178
 31
0.0
  0
LINE
  5
95
330
70
100
AcDbEntity
  8
ASHADE
 62
    18
420
        0
370
    30
100
AcDbLine
 10
145.0185374365899
 20
22.80021502697171
 30
0.0
 11
-50.9814625634103
 21
22.80021502697171
 31
0.0
  0
CIRCLE
  5
96
330
70
100
AcDbEntity
  8
ASHADE
 62
    18
420
        0
370
    30
100
AcDbCircle
 10
-12.98146256341024
 20
50.80021502697205
 30
0.0
 40
6.499999999999907
  0
CIRCLE
  5
97
330
70
100
AcDbEntity
  8
ASHADE
 62
    18
420
        0
370
    30
100
AcDbCircle
 10
107.0185374365898
 20
50.80021502697205
 30
0.0
 40
6.499999999999907
  0
CIRCLE
  5
98
330
70
100
AcDbEntity
  8
ASHADE
 62
    18
420
        0
370
    30
100
AcDbCircle
 10
-12.98146256341024
 20
50.80021502697189
 30
0.0
 40
9.99999999999995
  0
CIRCLE
  5
99
330
70
100
AcDbEntity
  8
ASHADE
 62
    18
420
        0
370
    30
100
AcDbCircle
 10
-12.98146256341024
 20
50.80021502697197
 30
0.0
 40
11.49999999999996
  0
CIRCLE
  5
9A
330
70
100
AcDbEntity
  8
ASHADE
 62
    18
420
        0
370
    30
100
AcDbCircle
 10
107.0185374365896
 20
50.80021502697189
 30
0.0
 40
10.00000000000003
  0
CIRCLE
  5
9B
330
70
100
AcDbEntity
  8
ASHADE
 62
    18
420
        0
370
    30
100
AcDbCircle
 10
107.0185374365898
 20
50.80021502697197
 30
0.0
 40
11.49999999999996
  0
LINE
  5
9C
330
70
100
AcDbEntity
  8
ASHADE
  6
AI-Linetype-0
 62
    18
420
        0
370
    18
100
AcDbLine
 10
-25.98146256341038
 20
50.80021502697205
 30
0.0
 11
94.01853743659001
 21
50.80021502697205
 31
0.0
  0
LINE
  5
9E
330
70
100
AcDbEntity
  8
ASHADE
  6
AI-Linetype-1
 62
    18
420
        0
370
    18
100
AcDbLine
 10
-12.98146256341024
 20
37.8002150269716
 30
0.0
 11
-12.98146256341024
 21
71.20313051955443
 31
0.0
  0
LINE
  5
A0
330
70
100
AcDbEntity
  8
ASHADE
  6
AI-Linetype-2
 62
    18
420
        0
370
    18
100
AcDbLine
 10
94.01853743659001
 20
50.80021502697205
 30
0.0
 11
120.0185374365903
 21
50.80021502697205
 31
0.0
  0
LINE
  5
A2
330
70
100
AcDbEntity
  8
ASHADE
  6
AI-Linetype-3
 62
    18
420
        0
370
    18
100
AcDbLine
 10
107.0185374365898
 20
37.8002150269716
 30
0.0
 11
107.0185374365898
 21
71.12566152618128
 31
0.0
  0
LINE
  5
A4
330
70
100
AcDbEntity
  8
ASHADE
  6
AI-Linetype-4
 62
    18
420
        0
370
    18
100
AcDbLine
 10
-85.91105979454185
 20
50.80021502697205
 30
0.0
 11
-64.91105979454207
 21
50.80021502697205
 31
0.0
  0
LINE
  5
A6
330
70
100
AcDbEntity
  8
ASHADE
 62
    18
420
        0
370
    30
100
AcDbLine
 10
-67.41105979454215
 20
40.8002150269717
 30
0.0
 11
-79.41105979454194
 21
40.8002150269717
 31
0.0
  0
LINE
  5
A7
330
70
100
AcDbEntity
  8
ASHADE
 62
    18
420
        0
370
    30
100
AcDbLine
 10
-79.41105979454194
 20
40.8002150269717
 30
0.0
 11
-79.41105979454194
 21
44.30021502697214
 31
0.0
  0
LINE
  5
A8
330
70
100
AcDbEntity
  8
ASHADE
 62
    18
420
        0
370
    30
100
AcDbLine
 10
-79.41105979454194
 20
57.30021502697197
 30
0.0
 11
-79.41105979454194
 21
60.80021502697177
 31
0.0
  0
LINE
  5
A9
330
70
100
AcDbEntity
  8
ASHADE
 62
    18
420
        0
370
    30
100
AcDbLine
 10
-79.41105979454194
 20
60.80021502697177
 30
0.0
 11
-67.41105979454215
 21
60.80021502697177
 31
0.0
  0
LINE
  5
AA
330
70
100
AcDbEntity
  8
ASHADE
 62
    18
420
        0
370
    30
100
AcDbLine
 10
-79.41105979454194
 20
44.30021502697214
 30
0.0
 11
-83.41105979454209
 21
44.30021502697214
 31
0.0
  0
LINE
  5
AB
330
70
100
AcDbEntity
  8
ASHADE
 62
    18
420
        0
370
    30
100
AcDbLine
 10
-79.41105979454194
 20
57.30021502697197
 30
0.0
 11
-83.41105979454209
 21
57.30021502697197
 31
0.0
  0
LINE
  5
AC
330
70
100
AcDbEntity
  8
ASHADE
 62
    18
420
        0
370
    30
100
AcDbLine
 10
-83.41105979454209
 20
57.30021502697197
 30
0.0
 11
-84.41105979454212
 21
58.30021502697199
 31
0.0
  0
LINE
  5
AD
330
70
100
AcDbEntity
  8
ASHADE
 62
    18
420
        0
370
    30
100
AcDbLine
 10
-67.41105979454215
 20
60.80021502697177
 30
0.0
 11
-66.41105979454213
 21
61.8002150269718
 31
0.0
  0
LINE
  5
AE
330
70
100
AcDbEntity
  8
ASHADE
 62
    18
420
        0
370
    18
100
AcDbLine
 10
-83.41105979454209
 20
44.30021502697214
 30
0.0
 11
-83.41105979454209
 21
57.30021502697197
 31
0.0
  0
LINE
  5
AF
330
70
100
AcDbEntity
  8
ASHADE
 62
    18
420
        0
370
    18
100
AcDbLine
 10
-67.41105979454215
 20
40.8002150269717
 30
0.0
 11
-67.41105979454215
 21
60.80021502697177
 31
0.0
  0
LINE
  5
B0
330
70
100
AcDbEntity
  8
ASHADE
 62
    18
420
        0
370
    18
100
AcDbLine
 10
-66.41105979454213
 20
40.8002150269717
 30
0.0
 11
-55.76203340755213
 21
40.8002150269717
 31
0.0
  0
LINE
  5
B1
330
70
100
AcDbEntity
  8
ASHADE
 62
    18
420
        0
370
    18
100
AcDbLine
 10
-66.41105979454213
 20
60.80021502697177
 30
0.0
 11
-55.76203340755213
 21
60.80021502697177
 31
0.0
  0
LINE
  5
B2
330
70
100
AcDbEntity
  8
ASHADE
 62
    18
420
        0
370
    18
100
AcDbLine
 10
-57.76203340755221
 20
42.80021502697177
 30
0.0
 11
-57.76203340755221
 21
58.80021502697202
 31
0.0
  0
LWPOLYLINE
  5
B3
330
70
100
AcDbEntity
  8
ASHADE
100
AcDbPolyline
 90
        4
 70
     1
 43
0.0
 10
-58.09536674088555
 20
42.80021502697177
 10
-57.42870007421886
 20
42.80021502697177
 10
-57.76203340755221
 20
40.8002150269717
 10
-57.76203340755221
 20
40.8002150269717
  0
HATCH
  5
B4
330
70
100
AcDbEntity
  8
ASHADE
 62
    18
420
        0
440
 33554687
100
AcDbHatch
 10
0.0
 20
0.0
 30
0.0
210
0.0
220
0.0
230
1.0
  2
SOLID
 70
     1
 71
     1
 91
        1
 92
        1
 93
        3
 72
     1
 10
-58.09536674088555
 20
42.80021502697177
 11
-57.42870007421886
 21
42.80021502697177
 72
     1
 10
-57.42870007421886
 20
42.80021502697177
 11
-57.76203340755221
 21
40.8002150269717
 72
     1
 10
-57.76203340755221
 20
40.8002150269717
 11
-58.09536674088555
 21
42.80021502697177
 97
        1
330
B3
 75
     2
 76
     1
 98
        1
 10
0.0
 20
0.0
450
        0
451
        0
460
0.0
461
0.0
452
        0
462
0.0
453
        0
470

  0
LWPOLYLINE
  5
B5
330
70
100
AcDbEntity
  8
ASHADE
100
AcDbPolyline
 90
        4
 70
     1
 43
0.0
 10
-58.09536674088555
 20
58.80021502697202
 10
-57.42870007421886
 20
58.80021502697202
 10
-57.76203340755221
 20
60.80021502697177
 10
-57.76203340755221
 20
60.80021502697177
  0
HATCH
  5
B6
330
70
100
AcDbEntity
  8
ASHADE
 62
    18
420
        0
440
 33554687
100
AcDbHatch
 10
0.0
 20
0.0
 30
0.0
210
0.0
220
0.0
230
1.0
  2
SOLID
 70
     1
 71
     1
 91
        1
 92
        1
 93
        3
 72
     1
 10
-58.09536674088555
 20
58.80021502697202
 11
-57.42870007421886
 21
58.80021502697202
 72
     1
 10
-57.42870007421886
 20
58.80021502697202
 11
-57.76203340755221
 21
60.80021502697177
 72
     1
 10
-57.76203340755221
 20
60.80021502697177
 11
-58.09536674088555
 21
58.80021502697202
 97
        1
330
B5
 75
     2
 76
     1
 98
        1
 10
0.0
 20
0.0
450
        0
451
        0
460
0.0
461
0.0
452
        0
462
0.0
453
        0
470

  0
MTEXT
  5
B7
330
70
100
AcDbEntity
  8
ASHADE
100
AcDbMText
 10
-58.8288488452917
 20
48.19688583864522
 30
0.0
 40
0.2
 41
0.0
 46
0.0
 71
     7
 72
     1
  1
\C18;\c0;\FMyriad Pro|b0|i0|c1;\H2.500000;\W1.000000;21
 11
0.0000000000000001
 21
1.0
 31
0.0
 73
     1
 44
1.0
  0
LINE
  5
B8
330
70
100
AcDbEntity
  8
ASHADE
 62
    18
420
        0
370
    18
100
AcDbLine
 10
-84.41105979454212
 20
44.30021502697214
 30
0.0
 11
-92.55661240524467
 21
44.30021502697214
 31
0.0
  0
LINE
  5
B9
330
70
100
AcDbEntity
  8
ASHADE
 62
    18
420
        0
370
    18
100
AcDbLine
 10
-84.41105979454212
 20
57.30021502697197
 30
0.0
 11
-92.55661240524467
 21
57.30021502697197
 31
0.0
  0
LINE
  5
BA
330
70
100
AcDbEntity
  8
ASHADE
 62
    18
420
        0
370
    18
100
AcDbLine
 10
-90.55661240524493
 20
46.30021502697157
 30
0.0
 11
-90.55661240524493
 21
55.3002150269719
 31
0.0
  0
LWPOLYLINE
  5
BB
330
70
100
AcDbEntity
  8
ASHADE
100
AcDbPolyline
 90
        4
 70
     1
 43
0.0
 10
-90.88994573857828
 20
46.30021502697157
 10
-90.22327907191158
 20
46.30021502697157
 10
-90.55661240524493
 20
44.30021502697214
 10
-90.55661240524493
 20
44.30021502697214
  0
HATCH
  5
BC
330
70
100
AcDbEntity
  8
ASHADE
 62
    18
420
        0
440
 33554687
100
AcDbHatch
 10
0.0
 20
0.0
 30
0.0
210
0.0
220
0.0
230
1.0
  2
SOLID
 70
     1
 71
     1
 91
        1
 92
        1
 93
        3
 72
     1
 10
-90.88994573857828
 20
46.30021502697157
 11
-90.22327907191158
 21
46.30021502697157
 72
     1
 10
-90.22327907191158
 20
46.30021502697157
 11
-90.55661240524493
 21
44.30021502697214
 72
     1
 10
-90.55661240524493
 20
44.30021502697214
 11
-90.88994573857828
 21
46.30021502697157
 97
        1
330
BB
 75
     2
 76
     1
 98
        1
 10
0.0
 20
0.0
450
        0
451
        0
460
0.0
461
0.0
452
        0
462
0.0
453
        0
470

  0
LWPOLYLINE
  5
BD
330
70
100
AcDbEntity
  8
ASHADE
100
AcDbPolyline
 90
        4
 70
     1
 43
0.0
 10
-90.88994573857828
 20
55.3002150269719
 10
-90.22327907191158
 20
55.3002150269719
 10
-90.55661240524493
 20
57.30021502697197
 10
-90.55661240524493
 20
57.30021502697197
  0
HATCH
  5
BE
330
70
100
AcDbEntity
  8
ASHADE
 62
    18
420
        0
440
 33554687
100
AcDbHatch
 10
0.0
 20
0.0
 30
0.0
210
0.0
220
0.0
230
1.0
  2
SOLID
 70
     1
 71
     1
 91
        1
 92
        1
 93
        3
 72
     1
 10
-90.88994573857828
 20
55.3002150269719
 11
-90.22327907191158
 21
55.3002150269719
 72
     1
 10
-90.22327907191158
 20
55.3002150269719
 11
-90.55661240524493
 21
57.30021502697197
 72
     1
 10
-90.55661240524493
 20
57.30021502697197
 11
-90.88994573857828
 21
55.3002150269719
 97
        1
330
BD
 75
     2
 76
     1
 98
        1
 10
0.0
 20
0.0
450
        0
451
        0
460
0.0
461
0.0
452
        0
462
0.0
453
        0
470

  0
MTEXT
  5
BF
330
70
100
AcDbEntity
  8
ASHADE
100
AcDbMText
 10
-91.57160693104591
 20
47.97467717984661
 30
0.0
 40
0.2
 41
0.0
 46
0.0
 71
     7
 72
     1
  1
\C18;\c0;\FMyriad Pro|b0|i0|c1;\H2.500000;\W1.000000;14
 11
0.0000000000000001
 21
1.0
 31
0.0
 73
     1
 44
1.0
  0
LINE
  5
C0
330
70
100
AcDbEntity
  8
ASHADE
 62
    18
420
        0
370
    18
100
AcDbLine
 10
-79.41105979454194
 20
39.80021502697167
 30
0.0
 11
-79.41105979454194
 21
32.78873578138894
 31
0.0
  0
LINE
  5
C1
330
70
100
AcDbEntity
  8
ASHADE
 62
    18
420
        0
370
    18
100
AcDbLine
 10
-66.41105979454213
 20
38.80021502697164
 30
0.0
 11
-66.41105979454213
 21
32.78873578138894
 31
0.0
  0
LINE
  5
C2
330
70
100
AcDbEntity
  8
ASHADE
 62
    18
420
        0
370
    18
100
AcDbLine
 10
-77.41105979454187
 20
34.78873578138901
 30
0.0
 11
-68.41105979454219
 21
34.78873578138901
 31
0.0
  0
LWPOLYLINE
  5
C3
330
70
100
AcDbEntity
  8
ASHADE
100
AcDbPolyline
 90
        4
 70
     1
 43
0.0
 10
-77.41105979454187
 20
35.12206911472235
 10
-77.41105979454187
 20
34.45540244805567
 10
-79.41105979454194
 20
34.78873578138901
 10
-79.41105979454194
 20
34.78873578138901
  0
HATCH
  5
C4
330
70
100
AcDbEntity
  8
ASHADE
 62
    18
420
        0
440
 33554687
100
AcDbHatch
 10
0.0
 20
0.0
 30
0.0
210
0.0
220
0.0
230
1.0
  2
SOLID
 70
     1
 71
     1
 91
        1
 92
        1
 93
        3
 72
     1
 10
-77.41105979454187
 20
35.12206911472235
 11
-77.41105979454187
 21
34.45540244805567
 72
     1
 10
-77.41105979454187
 20
34.45540244805567
 11
-79.41105979454194
 21
34.78873578138901
 72
     1
 10
-79.41105979454194
 20
34.78873578138901
 11
-77.41105979454187
 21
35.12206911472235
 97
        1
330
C3
 75
     2
 76
     1
 98
        1
 10
0.0
 20
0.0
450
        0
451
        0
460
0.0
461
0.0
452
        0
462
0.0
453
        0
470

  0
LWPOLYLINE
  5
C5
330
70
100
AcDbEntity
  8
ASHADE
100
AcDbPolyline
 90
        4
 70
     1
 43
0.0
 10
-68.41105979454219
 20
35.12206911472235
 10
-68.41105979454219
 20
34.45540244805567
 10
-66.41105979454213
 20
34.78873578138901
 10
-66.41105979454213
 20
34.78873578138901
  0
HATCH
  5
C6
330
70
100
AcDbEntity
  8
ASHADE
 62
    18
420
        0
440
 33554687
100
AcDbHatch
 10
0.0
 20
0.0
 30
0.0
210
0.0
220
0.0
230
1.0
  2
SOLID
 70
     1
 71
     1
 91
        1
 92
        1
 93
        3
 72
     1
 10
-68.41105979454219
 20
35.12206911472235
 11
-68.41105979454219
 21
34.45540244805567
 72
     1
 10
-68.41105979454219
 20
34.45540244805567
 11
-66.41105979454213
 21
34.78873578138901
 72
     1
 10
-66.41105979454213
 20
34.78873578138901
 11
-68.41105979454219
 21
35.12206911472235
 97
        1
330
C5
 75
     2
 76
     1
 98
        1
 10
0.0
 20
0.0
450
        0
451
        0
460
0.0
461
0.0
452
        0
462
0.0
453
        0
470

  0
MTEXT
  5
C7
330
70
100
AcDbEntity
  8
ASHADE
100
AcDbMText
 10
-74.4686672448377
 20
35.89671070473026
 30
0.0
 40
0.2
 41
0.0
 46
0.0
 71
     7
 72
     1
  1
\C18;\c0;\FMyriad Pro|b0|i0|c1;\H2.500000;\W1.000000;13
 73
     1
 44
1.0
  0
LINE
  5
C8
330
70
100
AcDbEntity
  8
ASHADE
 62
    18
420
        0
370
    18
100
AcDbLine
 10
-52.98146256341038
 20
23.80021502697175
 30
0.0
 11
-52.98146256341038
 21
12.14929361633727
 31
0.0
  0
LINE
  5
C9
330
70
100
AcDbEntity
  8
ASHADE
 62
    18
420
        0
370
    18
100
AcDbLine
 10
147.0185374365899
 20
23.80021502697175
 30
0.0
 11
147.0185374365899
 21
12.14929361633727
 31
0.0
  0
LINE
  5
CA
330
70
100
AcDbEntity
  8
ASHADE
 62
    18
420
        0
370
    18
100
AcDbLine
 10
-50.9814625634103
 20
14.14929361633734
 30
0.0
 11
145.0185374365899
 21
14.14929361633734
 31
0.0
  0
LWPOLYLINE
  5
CB
330
70
100
AcDbEntity
  8
ASHADE
100
AcDbPolyline
 90
        4
 70
     1
 43
0.0
 10
-50.9814625634103
 20
14.48262694967068
 10
-50.9814625634103
 20
13.81596028300399
 10
-52.98146256341038
 20
14.14929361633734
 10
-52.98146256341038
 20
14.14929361633734
  0
HATCH
  5
CC
330
70
100
AcDbEntity
  8
ASHADE
 62
    18
420
        0
440
 33554687
100
AcDbHatch
 10
0.0
 20
0.0
 30
0.0
210
0.0
220
0.0
230
1.0
  2
SOLID
 70
     1
 71
     1
 91
        1
 92
        1
 93
        3
 72
     1
 10
-50.9814625634103
 20
14.48262694967068
 11
-50.9814625634103
 21
13.81596028300399
 72
     1
 10
-50.9814625634103
 20
13.81596028300399
 11
-52.98146256341038
 21
14.14929361633734
 72
     1
 10
-52.98146256341038
 20
14.14929361633734
 11
-50.9814625634103
 21
14.48262694967068
 97
        1
330
CB
 75
     2
 76
     1
 98
        1
 10
0.0
 20
0.0
450
        0
451
        0
460
0.0
461
0.0
452
        0
462
0.0
453
        0
470

  0
LWPOLYLINE
  5
CD
330
70
100
AcDbEntity
  8
ASHADE
100
AcDbPolyline
 90
        4
 70
     1
 43
0.0
 10
145.0185374365899
 20
14.48262694967068
 10
145.0185374365899
 20
13.81596028300399
 10
147.0185374365899
 20
14.14929361633734
 10
147.0185374365899
 20
14.14929361633734
  0
HATCH
  5
CE
330
70
100
AcDbEntity
  8
ASHADE
 62
    18
420
        0
440
 33554687
100
AcDbHatch
 10
0.0
 20
0.0
 30
0.0
210
0.0
220
0.0
230
1.0
  2
SOLID
 70
     1
 71
     1
 91
        1
 92
        1
 93
        3
 72
     1
 10
145.0185374365899
 20
14.48262694967068
 11
145.0185374365899
 21
13.81596028300399
 72
     1
 10
145.0185374365899
 20
13.81596028300399
 11
147.0185374365899
 21
14.14929361633734
 72
     1
 10
147.0185374365899
 20
14.14929361633734
 11
145.0185374365899
 21
14.48262694967068
 97
        1
330
CD
 75
     2
 76
     1
 98
        1
 10
0.0
 20
0.0
450
        0
451
        0
460
0.0
461
0.0
452
        0
462
0.0
453
        0
470

  0
MTEXT
  5
CF
330
70
100
AcDbEntity
  8
ASHADE
100
AcDbMText
 10
40.57259346689407
 20
15.15503559793311
 30
0.0
 40
0.2
 41
0.0
 46
0.0
 71
     7
 72
     1
  1
\C18;\c0;\FMyriad Pro|b0|i0|c1;\H2.500000;\W1.000000;200±0.05
 73
     1
 44
1.0
  0
LINE
  5
D0
330
70
100
AcDbEntity
  8
ASHADE
 62
    18
420
        0
370
    18
100
AcDbLine
 10
122.5858025475906
 20
50.80021502697205
 30
0.0
 11
157.359649450806
 21
50.80021502697205
 31
0.0
  0
LINE
  5
D1
330
70
100
AcDbEntity
  8
ASHADE
 62
    18
420
        0
370
    18
100
AcDbLine
 10
146.0185374365899
 20
22.80021502697171
 30
0.0
 11
157.359649450806
 21
22.80021502697171
 31
0.0
  0
LINE
  5
D2
330
70
100
AcDbEntity
  8
ASHADE
 62
    18
420
        0
370
    18
100
AcDbLine
 10
155.359649450806
 20
48.80021502697198
 30
0.0
 11
155.359649450806
 21
24.80021502697178
 31
0.0
  0
LWPOLYLINE
  5
D3
330
70
100
AcDbEntity
  8
ASHADE
100
AcDbPolyline
 90
        4
 70
     1
 43
0.0
 10
155.0263161174733
 20
48.80021502697198
 10
155.69298278414
 20
48.80021502697198
 10
155.359649450806
 20
50.80021502697205
 10
155.359649450806
 20
50.80021502697205
  0
HATCH
  5
D4
330
70
100
AcDbEntity
  8
ASHADE
 62
    18
420
        0
440
 33554687
100
AcDbHatch
 10
0.0
 20
0.0
 30
0.0
210
0.0
220
0.0
230
1.0
  2
SOLID
 70
     1
 71
     1
 91
        1
 92
        1
 93
        3
 72
     1
 10
155.0263161174733
 20
48.80021502697198
 11
155.69298278414
 21
48.80021502697198
 72
     1
 10
155.69298278414
 20
48.80021502697198
 11
155.359649450806
 21
50.80021502697205
 72
     1
 10
155.359649450806
 20
50.80021502697205
 11
155.0263161174733
 21
48.80021502697198
 97
        1
330
D3
 75
     2
 76
     1
 98
        1
 10
0.0
 20
0.0
450
        0
451
        0
460
0.0
461
0.0
452
        0
462
0.0
453
        0
470

  0
LWPOLYLINE
  5
D5
330
70
100
AcDbEntity
  8
ASHADE
100
AcDbPolyline
 90
        4
 70
     1
 43
0.0
 10
155.0263161174733
 20
24.80021502697178
 10
155.69298278414
 20
24.80021502697178
 10
155.359649450806
 20
22.80021502697171
 10
155.359649450806
 20
22.80021502697171
  0
HATCH
  5
D6
330
70
100
AcDbEntity
  8
ASHADE
 62
    18
420
        0
440
 33554687
100
AcDbHatch
 10
0.0
 20
0.0
 30
0.0
210
0.0
220
0.0
230
1.0
  2
SOLID
 70
     1
 71
     1
 91
        1
 92
        1
 93
        3
 72
     1
 10
155.0263161174733
 20
24.80021502697178
 11
155.69298278414
 21
24.80021502697178
 72
     1
 10
155.69298278414
 20
24.80021502697178
 11
155.359649450806
 21
22.80021502697171
 72
     1
 10
155.359649450806
 20
22.80021502697171
 11
155.0263161174733
 21
24.80021502697178
 97
        1
330
D5
 75
     2
 76
     1
 98
        1
 10
0.0
 20
0.0
450
        0
451
        0
460
0.0
461
0.0
452
        0
462
0.0
453
        0
470

  0
MTEXT
  5
D7
330
70
100
AcDbEntity
  8
ASHADE
100
AcDbMText
 10
154.4160698398682
 20
35.32221950071806
 30
0.0
 40
0.2
 41
0.0
 46
0.0
 71
     7
 72
     1
  1
\C18;\c0;\FMyriad Pro|b0|i0|c1;\H2.500000;\W1.000000;28
 11
0.0000000000000001
 21
1.0
 31
0.0
 73
     1
 44
1.0
  0
LINE
  5
D8
330
70
100
AcDbEntity
  8
ASHADE
 62
    18
420
        0
370
    18
100
AcDbLine
 10
-12.98146256341024
 20
72.82123579986914
 30
0.0
 11
-12.98146256341024
 21
97.12202413672114
 31
0.0
  0
LINE
  5
D9
330
70
100
AcDbEntity
  8
ASHADE
 62
    18
420
        0
370
    18
100
AcDbLine
 10
107.0185374365898
 20
72.21975903127833
 30
0.0
 11
107.0185374365898
 21
97.12202413672114
 31
0.0
  0
LINE
  5
DA
330
70
100
AcDbEntity
  8
ASHADE
 62
    18
420
        0
370
    18
100
AcDbLine
 10
-10.98146256341049
 20
95.1220241367214
 30
0.0
 11
105.0185374365897
 21
95.1220241367214
 31
0.0
  0
LWPOLYLINE
  5
DB
330
70
100
AcDbEntity
  8
ASHADE
100
AcDbPolyline
 90
        4
 70
     1
 43
0.0
 10
-10.98146256341049
 20
95.45535747005473
 10
-10.98146256341049
 20
94.78869080338805
 10
-12.98146256341024
 20
95.1220241367214
 10
-12.98146256341024
 20
95.1220241367214
  0
HATCH
  5
DC
330
70
100
AcDbEntity
  8
ASHADE
 62
    18
420
        0
440
 33554687
100
AcDbHatch
 10
0.0
 20
0.0
 30
0.0
210
0.0
220
0.0
230
1.0
  2
SOLID
 70
     1
 71
     1
 91
        1
 92
        1
 93
        3
 72
     1
 10
-10.98146256341049
 20
95.45535747005473
 11
-10.98146256341049
 21
94.78869080338805
 72
     1
 10
-10.98146256341049
 20
94.78869080338805
 11
-12.98146256341024
 21
95.1220241367214
 72
     1
 10
-12.98146256341024
 20
95.1220241367214
 11
-10.98146256341049
 21
95.45535747005473
 97
        1
330
DB
 75
     2
 76
     1
 98
        1
 10
0.0
 20
0.0
450
        0
451
        0
460
0.0
461
0.0
452
        0
462
0.0
453
        0
470

  0
LWPOLYLINE
  5
DD
330
70
100
AcDbEntity
  8
ASHADE
100
AcDbPolyline
 90
        4
 70
     1
 43
0.0
 10
105.0185374365897
 20
95.45535747005473
 10
105.0185374365897
 20
94.78869080338805
 10
107.0185374365898
 20
95.1220241367214
 10
107.0185374365898
 20
95.1220241367214
  0
HATCH
  5
DE
330
70
100
AcDbEntity
  8
ASHADE
 62
    18
420
        0
440
 33554687
100
AcDbHatch
 10
0.0
 20
0.0
 30
0.0
210
0.0
220
0.0
230
1.0
  2
SOLID
 70
     1
 71
     1
 91
        1
 92
        1
 93
        3
 72
     1
 10
105.0185374365897
 20
95.45535747005473
 11
105.0185374365897
 21
94.78869080338805
 72
     1
 10
105.0185374365897
 20
94.78869080338805
 11
107.0185374365898
 21
95.1220241367214
 72
     1
 10
107.0185374365898
 20
95.1220241367214
 11
105.0185374365897
 21
95.45535747005473
 97
        1
330
DD
 75
     2
 76
     1
 98
        1
 10
0.0
 20
0.0
450
        0
451
        0
460
0.0
461
0.0
452
        0
462
0.0
453
        0
470

  0
MTEXT
  5
DF
330
70
100
AcDbEntity
  8
ASHADE
100
AcDbMText
 10
40.92812193801015
 20
96.1231271291539
 30
0.0
 40
0.2
 41
0.0
 46
0.0
 71
     7
 72
     1
  1
\C18;\c0;\FMyriad Pro|b0|i0|c1;\H2.500000;\W1.000000;120
 73
     1
 44
1.0
  0
LINE
  5
E0
330
70
100
AcDbEntity
  8
ASHADE
 62
    18
420
        0
370
    18
100
AcDbLine
 10
-66.41105979454213
 20
23.32612121567125
 30
0.0
 11
-66.41105979454213
 21
8.394553426804588
 31
0.0
  0
LINE
  5
E1
330
70
100
AcDbEntity
  8
ASHADE
 62
    18
420
        0
370
    18
100
AcDbLine
 10
-84.41105979454212
 20
23.46871760460904
 30
0.0
 11
-84.41105979454212
 21
8.394553426804588
 31
0.0
  0
LINE
  5
E2
330
70
100
AcDbEntity
  8
ASHADE
 62
    18
420
        0
370
    18
100
AcDbLine
 10
-68.41105979454219
 20
10.39455342680466
 30
0.0
 11
-82.41105979454205
 21
10.39455342680466
 31
0.0
  0
LWPOLYLINE
  5
E3
330
70
100
AcDbEntity
  8
ASHADE
100
AcDbPolyline
 90
        4
 70
     1
 43
0.0
 10
-68.41105979454219
 20
10.727886760138
 10
-68.41105979454219
 20
10.06122009347131
 10
-66.41105979454213
 20
10.39455342680466
 10
-66.41105979454213
 20
10.39455342680466
  0
HATCH
  5
E4
330
70
100
AcDbEntity
  8
ASHADE
 62
    18
420
        0
440
 33554687
100
AcDbHatch
 10
0.0
 20
0.0
 30
0.0
210
0.0
220
0.0
230
1.0
  2
SOLID
 70
     1
 71
     1
 91
        1
 92
        1
 93
        3
 72
     1
 10
-68.41105979454219
 20
10.727886760138
 11
-68.41105979454219
 21
10.06122009347131
 72
     1
 10
-68.41105979454219
 20
10.06122009347131
 11
-66.41105979454213
 21
10.39455342680466
 72
     1
 10
-66.41105979454213
 20
10.39455342680466
 11
-68.41105979454219
 21
10.727886760138
 97
        1
330
E3
 75
     2
 76
     1
 98
        1
 10
0.0
 20
0.0
450
        0
451
        0
460
0.0
461
0.0
452
        0
462
0.0
453
        0
470

  0
LWPOLYLINE
  5
E5
330
70
100
AcDbEntity
  8
ASHADE
100
AcDbPolyline
 90
        4
 70
     1
 43
0.0
 10
-82.41105979454205
 20
10.727886760138
 10
-82.41105979454205
 20
10.06122009347131
 10
-84.41105979454212
 20
10.39455342680466
 10
-84.41105979454212
 20
10.39455342680466
  0
HATCH
  5
E6
330
70
100
AcDbEntity
  8
ASHADE
 62
    18
420
        0
440
 33554687
100
AcDbHatch
 10
0.0
 20
0.0
 30
0.0
210
0.0
220
0.0
230
1.0
  2
SOLID
 70
     1
 71
     1
 91
        1
 92
        1
 93
        3
 72
     1
 10
-82.41105979454205
 20
10.727886760138
 11
-82.41105979454205
 21
10.06122009347131
 72
     1
 10
-82.41105979454205
 20
10.06122009347131
 11
-84.41105979454212
 21
10.39455342680466
 72
     1
 10
-84.41105979454212
 20
10.39455342680466
 11
-82.41105979454205
 21
10.727886760138
 97
        1
330
E5
 75
     2
 76
     1
 98
        1
 10
0.0
 20
0.0
450
        0
451
        0
460
0.0
461
0.0
452
        0
462
0.0
453
        0
470

  0
MTEXT
  5
E7
330
70
100
AcDbEntity
  8
ASHADE
100
AcDbMText
 10
-80.49865555340236
 20
11.38728000568115
 30
0.0
 40
0.2
 41
0.0
 46
0.0
 71
     7
 72
     1
  1
\C18;\c0;\FMyriad Pro|b0|i0|c1;\H2.500000;\W1.000000;18  0.01
 73
     1
 44
1.0
  0
LINE
  5
E8
330
70
100
AcDbEntity
  8
ASHADE
 62
    18
420
        0
370
    18
100
AcDbLine
 10
146.0185374365899
 20
22.80021502697171
 30
0.0
 11
165.1124299230787
 21
22.80021502697171
 31
0.0
  0
LINE
  5
E9
330
70
100
AcDbEntity
  8
ASHADE
 62
    18
420
        0
370
    18
100
AcDbLine
 10
146.0185374365899
 20
85.80021502697169
 30
0.0
 11
165.1124299230787
 21
85.80021502697169
 31
0.0
  0
LINE
  5
EA
330
70
100
AcDbEntity
  8
ASHADE
 62
    18
420
        0
370
    18
100
AcDbLine
 10
163.1124299230787
 20
24.80021502697178
 30
0.0
 11
163.1124299230787
 21
83.80021502697195
 31
0.0
  0
LWPOLYLINE
  5
EB
330
70
100
AcDbEntity
  8
ASHADE
100
AcDbPolyline
 90
        4
 70
     1
 43
0.0
 10
162.7790965897459
 20
24.80021502697178
 10
163.4457632564126
 20
24.80021502697178
 10
163.1124299230787
 20
22.80021502697171
 10
163.1124299230787
 20
22.80021502697171
  0
HATCH
  5
EC
330
70
100
AcDbEntity
  8
ASHADE
 62
    18
420
        0
440
 33554687
100
AcDbHatch
 10
0.0
 20
0.0
 30
0.0
210
0.0
220
0.0
230
1.0
  2
SOLID
 70
     1
 71
     1
 91
        1
 92
        1
 93
        3
 72
     1
 10
162.7790965897459
 20
24.80021502697178
 11
163.4457632564126
 21
24.80021502697178
 72
     1
 10
163.4457632564126
 20
24.80021502697178
 11
163.1124299230787
 21
22.80021502697171
 72
     1
 10
163.1124299230787
 20
22.80021502697171
 11
162.7790965897459
 21
24.80021502697178
 97
        1
330
EB
 75
     2
 76
     1
 98
        1
 10
0.0
 20
0.0
450
        0
451
        0
460
0.0
461
0.0
452
        0
462
0.0
453
        0
470

  0
LWPOLYLINE
  5
ED
330
70
100
AcDbEntity
  8
ASHADE
100
AcDbPolyline
 90
        4
 70
     1
 43
0.0
 10
162.7790965897459
 20
83.80021502697195
 10
163.4457632564126
 20
83.80021502697195
 10
163.1124299230787
 20
85.80021502697169
 10
163.1124299230787
 20
85.80021502697169
  0
HATCH
  5
EE
330
70
100
AcDbEntity
  8
ASHADE
 62
    18
420
        0
440
 33554687
100
AcDbHatch
 10
0.0
 20
0.0
 30
0.0
210
0.0
220
0.0
230
1.0
  2
SOLID
 70
     1
 71
     1
 91
        1
 92
        1
 93
        3
 72
     1
 10
162.7790965897459
 20
83.80021502697195
 11
163.4457632564126
 21
83.80021502697195
 72
     1
 10
163.4457632564126
 20
83.80021502697195
 11
163.1124299230787
 21
85.80021502697169
 72
     1
 10
163.1124299230787
 20
85.80021502697169
 11
162.7790965897459
 21
83.80021502697195
 97
        1
330
ED
 75
     2
 76
     1
 98
        1
 10
0.0
 20
0.0
450
        0
451
        0
460
0.0
461
0.0
452
        0
462
0.0
453
        0
470

  0
MTEXT
  5
EF
330
70
100
AcDbEntity
  8
ASHADE
100
AcDbMText
 10
162.0328099163603
 20
52.78782008228883
 30
0.0
 40
0.2
 41
0.0
 46
0.0
 71
     7
 72
     1
  1
\C18;\c0;\FMyriad Pro|b0|i0|c1;\H2.500000;\W1.000000;60
 11
0.0000000000000001
 21
1.0
 31
0.0
 73
     1
 44
1.0
  0
MTEXT
  5
F0
330
70
100
AcDbEntity
  8
ASHADE
100
AcDbMText
 10
-77.30130011427386
 20
12.35272091450758
 30
0.0
 40
0.2
 41
0.0
 46
0.0
 71
     7
 72
     1
  1
\C18;\c0;\FMyriad Pro|b0|i0|c1;\H2.500000;\W1.000000;+
 73
     1
 44
1.0
  0
MTEXT
  5
F1
330
70
100
AcDbEntity
  8
ASHADE
100
AcDbMText
 10
-77.30130011427386
 20
11.18530455415625
 30
0.0
 40
0.2
 41
0.0
 46
0.0
 71
     7
 72
     1
  1
\C18;\c0;\FMyriad Pro|b0|i0|c1;\H2.500000;\W1.000000;-
 73
     1
 44
1.0
  0
LINE
  5
F2
330
70
100
AcDbEntity
  8
ASHADE
 62
    18
420
        0
370
    18
100
AcDbLine
 10
-12.98146256341024
 20
96.12202413672111
 30
0.0
 11
-12.98146256341024
 21
97.12202413672114
 31
0.0
  0
LINE
  5
F3
330
70
100
AcDbEntity
  8
ASHADE
 62
    18
420
        0
370
    30
100
AcDbLine
 10
-66.41105979454213
 20
85.80021502697169
 30
0.0
 11
-82.91105979454206
 21
85.80021502697169
 31
0.0
  0
LINE
  5
F4
330
70
100
AcDbEntity
  8
ASHADE
 62
    18
420
        0
370
    30
100
AcDbLine
 10
-84.41105979454212
 20
84.30021502697195
 30
0.0
 11
-84.41105979454212
 21
24.80021502697178
 31
0.0
  0
LINE
  5
F5
330
70
100
AcDbEntity
  8
ASHADE
 62
    18
420
        0
370
    30
100
AcDbLine
 10
-82.41105979454205
 20
22.80021502697171
 30
0.0
 11
-84.41105979454212
 21
24.80021502697178
 31
0.0
  0
LINE
  5
F6
330
70
100
AcDbEntity
  8
ASHADE
 62
    18
420
        0
370
    30
100
AcDbLine
 10
-82.91105979454206
 20
85.80021502697169
 30
0.0
 11
-84.41105979454212
 21
84.30021502697195
 31
0.0
  0
LINE
  5
F7
330
70
100
AcDbEntity
  8
ASHADE
 62
    18
420
        0
370
    30
100
AcDbLine
 10
-82.41105979454205
 20
22.80021502697171
 30
0.0
 11
-67.91105979454219
 21
22.80021502697171
 31
0.0
  0
LINE
  5
F8
330
70
100
AcDbEntity
  8
ASHADE
 62
    18
420
        0
370
    30
100
AcDbLine
 10
-66.41105979454213
 20
24.30021502697208
 30
0.0
 11
-66.41105979454213
 21
85.80021502697169
 31
0.0
  0
LINE
  5
F9
330
70
100
AcDbEntity
  8
ASHADE
 62
    18
420
        0
370
    30
100
AcDbLine
 10
-67.91105979454219
 20
22.80021502697171
 30
0.0
 11
-66.41105979454213
 21
24.30021502697208
 31
0.0
  0
LINE
  5
FA
330
70
100
AcDbEntity
  8
ASHADE
 62
    18
420
        0
370
    18
100
AcDbLine
 10
-108.5099441987245
 20
-48.26811094779634
 30
0.0
 11
182.9460552912266
 21
-48.26811094779634
 31
0.0
  0
LINE
  5
FB
330
70
100
AcDbEntity
  8
ASHADE
 62
    18
420
        0
370
    18
100
AcDbLine
 10
-103.3579442077409
 20
-43.11611095681205
 30
0.0
 11
177.7940553002436
 21
-43.11611095681205
 31
0.0
  0
LINE
  5
FC
330
70
100
AcDbEntity
  8
ASHADE
 62
    18
420
        0
370
    18
100
AcDbLine
 10
-108.5099441987245
 20
153.3958886992918
 30
0.0
 11
-108.5099441987245
 21
-48.26811094779634
 31
0.0
  0
LINE
  5
FD
330
70
100
AcDbEntity
  8
ASHADE
 62
    18
420
        0
370
    18
100
AcDbLine
 10
182.9460552912266
 20
-48.26811094779634
 30
0.0
 11
182.9460552912266
 21
153.3958886992918
 31
0.0
  0
LINE
  5
FE
330
70
100
AcDbEntity
  8
ASHADE
 62
    18
420
        0
370
    18
100
AcDbLine
 10
-103.3579442077409
 20
-43.11611095681205
 30
0.0
 11
-15.77394436101258
 21
-43.11611095681205
 31
0.0
  0
LINE
  5
FF
330
70
100
AcDbEntity
  8
ASHADE
 62
    18
420
        0
370
    18
100
AcDbLine
 10
-103.3579442077409
 20
-16.62011100318023
 30
0.0
 11
-103.3579442077409
 21
-43.11611095681205
 31
0.0
  0
LINE
  5
100
330
70
100
AcDbEntity
  8
ASHADE
 62
    18
420
        0
370
    18
100
AcDbLine
 10
177.7940553002436
 20
-43.11611095681205
 30
0.0
 11
177.7940553002436
 21
148.2438887083079
 31
0.0
  0
LINE
  5
101
330
70
100
AcDbEntity
  8
ASHADE
 62
    18
420
        0
370
    18
100
AcDbLine
 10
-103.3579442077409
 20
148.2438887083079
 30
0.0
 11
-103.3579442077409
 21
-43.11611095681205
 31
0.0
  0
LINE
  5
102
330
70
100
AcDbEntity
  8
ASHADE
 62
    18
420
        0
370
    18
100
AcDbLine
 10
-108.5099441987245
 20
153.3958886992918
 30
0.0
 11
182.9460552912266
 21
153.3958886992918
 31
0.0
  0
LINE
  5
103
330
70
100
AcDbEntity
  8
ASHADE
 62
    18
420
        0
370
    18
100
AcDbLine
 10
-103.3579442077409
 20
148.2438887083079
 30
0.0
 11
177.7940553002436
 21
148.2438887083079
 31
0.0
  0
MTEXT
  5
104
330
70
100
AcDbEntity
  8
ASHADE
100
AcDbMText
 10
-107.2219436377453
 20
-20.85211060320576
 30
0.0
 40
0.2
 41
0.0
 46
0.0
 71
     7
 72
     1
  1
\C18;\c0;\FMyriad Pro|b0|i0|c1;\H3.312000;\W1.000000;A
 73
     1
 44
1.0
  0
LWPOLYLINE
  5
105
330
70
100
AcDbEntity
  8
ASHADE
100
AcDbPolyline
 90
        4
 70
     1
 43
0.0
 10
-105.9339442032327
 20
4.907888959146013
 10
-105.9339442032327
 20
4.539888959789855
 10
-103.7259442070967
 20
4.539888959789855
 10
-103.7259442070967
 20
4.907888959146013
  0
HATCH
  5
106
330
70
100
AcDbEntity
  8
ASHADE
 62
    18
420
        0
440
 33554687
100
AcDbHatch
 10
0.0
 20
0.0
 30
0.0
210
0.0
220
0.0
230
1.0
  2
SOLID
 70
     1
 71
     1
 91
        1
 92
        1
 93
        4
 72
     1
 10
-105.9339442032327
 20
4.907888959146013
 11
-105.9339442032327
 21
4.539888959789855
 72
     1
 10
-105.9339442032327
 20
4.539888959789855
 11
-103.7259442070967
 21
4.539888959789855
 72
     1
 10
-103.7259442070967
 20
4.539888959789855
 11
-103.7259442070967
 21
4.907888959146013
 72
     1
 10
-103.7259442070967
 20
4.907888959146013
 11
-105.9339442032327
 21
4.907888959146013
 97
        1
330
105
 75
     2
 76
     1
 98
        1
 10
0.0
 20
0.0
450
        0
451
        0
460
0.0
461
0.0
452
        0
462
0.0
453
        0
470

  0
LINE
  5
107
330
70
100
AcDbEntity
  8
ASHADE
 62
    18
420
        0
370
    18
100
AcDbLine
 10
-103.7259442070967
 20
4.539888959789855
 30
0.0
 11
-105.9339442032327
 21
4.539888959789855
 31
0.0
  0
LINE
  5
108
330
70
100
AcDbEntity
  8
ASHADE
 62
    18
420
        0
370
    18
100
AcDbLine
 10
-103.7259442070967
 20
4.907888959146013
 30
0.0
 11
-105.9339442032327
 21
4.907888959146013
 31
0.0
  0
MTEXT
  5
109
330
70
100
AcDbEntity
  8
ASHADE
100
AcDbMText
 10
-107.0747411672146
 20
26.98789025797607
 30
0.0
 40
0.2
 41
0.0
 46
0.0
 71
     7
 72
     1
  1
\C18;\c0;\FMyriad Pro|b0|i0|c1;\H3.312000;\W1.000000;B
 73
     1
 44
1.0
  0
LWPOLYLINE
  5
10A
330
70
100
AcDbEntity
  8
ASHADE
100
AcDbPolyline
 90
        4
 70
     1
 43
0.0
 10
-105.9339442032327
 20
52.747888875426
 10
-105.9339442032327
 20
52.37988887606984
 10
-103.7259442070967
 20
52.37988887606984
 10
-103.7259442070967
 20
52.747888875426
  0
HATCH
  5
10B
330
70
100
AcDbEntity
  8
ASHADE
 62
    18
420
        0
440
 33554687
100
AcDbHatch
 10
0.0
 20
0.0
 30
0.0
210
0.0
220
0.0
230
1.0
  2
SOLID
 70
     1
 71
     1
 91
        1
 92
        1
 93
        4
 72
     1
 10
-105.9339442032327
 20
52.747888875426
 11
-105.9339442032327
 21
52.37988887606984
 72
     1
 10
-105.9339442032327
 20
52.37988887606984
 11
-103.7259442070967
 21
52.37988887606984
 72
     1
 10
-103.7259442070967
 20
52.37988887606984
 11
-103.7259442070967
 21
52.747888875426
 72
     1
 10
-103.7259442070967
 20
52.747888875426
 11
-105.9339442032327
 21
52.747888875426
 97
        1
330
10A
 75
     2
 76
     1
 98
        1
 10
0.0
 20
0.0
450
        0
451
        0
460
0.0
461
0.0
452
        0
462
0.0
453
        0
470

  0
LINE
  5
10C
330
70
100
AcDbEntity
  8
ASHADE
 62
    18
420
        0
370
    18
100
AcDbLine
 10
-103.7259442070967
 20
52.37988887606984
 30
0.0
 11
-105.9339442032327
 21
52.37988887606984
 31
0.0
  0
LINE
  5
10D
330
70
100
AcDbEntity
  8
ASHADE
 62
    18
420
        0
370
    18
100
AcDbLine
 10
-103.7259442070967
 20
52.747888875426
 30
0.0
 11
-105.9339442032327
 21
52.747888875426
 31
0.0
  0
MTEXT
  5
10E
330
70
100
AcDbEntity
  8
ASHADE
100
AcDbMText
 10
-107.1790629648773
 20
74.82788842767703
 30
0.0
 40
0.2
 41
0.0
 46
0.0
 71
     7
 72
     1
  1
\C18;\c0;\FMyriad Pro|b0|i0|c1;\H3.312000;\W1.000000;C
 73
     1
 44
1.0
  0
LWPOLYLINE
  5
10F
330
70
100
AcDbEntity
  8
ASHADE
100
AcDbPolyline
 90
        4
 70
     1
 43
0.0
 10
-105.9339442032327
 20
100.5878887917059
 10
-105.9339442032327
 20
100.2198887923498
 10
-103.7259442070967
 20
100.2198887923498
 10
-103.7259442070967
 20
100.5878887917059
  0
HATCH
  5
110
330
70
100
AcDbEntity
  8
ASHADE
 62
    18
420
        0
440
 33554687
100
AcDbHatch
 10
0.0
 20
0.0
 30
0.0
210
0.0
220
0.0
230
1.0
  2
SOLID
 70
     1
 71
     1
 91
        1
 92
        1
 93
        4
 72
     1
 10
-105.9339442032327
 20
100.5878887917059
 11
-105.9339442032327
 21
100.2198887923498
 72
     1
 10
-105.9339442032327
 20
100.2198887923498
 11
-103.7259442070967
 21
100.2198887923498
 72
     1
 10
-103.7259442070967
 20
100.2198887923498
 11
-103.7259442070967
 21
100.5878887917059
 72
     1
 10
-103.7259442070967
 20
100.5878887917059
 11
-105.9339442032327
 21
100.5878887917059
 97
        1
330
10F
 75
     2
 76
     1
 98
        1
 10
0.0
 20
0.0
450
        0
451
        0
460
0.0
461
0.0
452
        0
462
0.0
453
        0
470

  0
LINE
  5
111
330
70
100
AcDbEntity
  8
ASHADE
 62
    18
420
        0
370
    18
100
AcDbLine
 10
-103.7259442070967
 20
100.2198887923498
 30
0.0
 11
-105.9339442032327
 21
100.2198887923498
 31
0.0
  0
LINE
  5
112
330
70
100
AcDbEntity
  8
ASHADE
 62
    18
420
        0
370
    18
100
AcDbLine
 10
-103.7259442070967
 20
100.5878887917059
 30
0.0
 11
-105.9339442032327
 21
100.5878887917059
 31
0.0
  0
MTEXT
  5
113
330
70
100
AcDbEntity
  8
ASHADE
100
AcDbMText
 10
-107.0747411672146
 20
122.6678892888588
 30
0.0
 40
0.2
 41
0.0
 46
0.0
 71
     7
 72
     1
  1
\C18;\c0;\FMyriad Pro|b0|i0|c1;\H3.312000;\W1.000000;D
 73
     1
 44
1.0
  0
LINE
  5
114
330
70
100
AcDbEntity
  8
ASHADE
 62
    18
420
        0
370
    18
100
AcDbLine
 10
178.1620552995985
 20
-43.4841109561682
 30
0.0
 11
178.1620552995985
 21
148.611888707664
 31
0.0
  0
LINE
  5
115
330
70
100
AcDbEntity
  8
ASHADE
 62
    18
420
        0
370
    18
100
AcDbLine
 10
-103.7259442070967
 20
-43.4841109561682
 30
0.0
 11
178.1620552995985
 21
-43.4841109561682
 31
0.0
  0
LINE
  5
116
330
70
100
AcDbEntity
  8
ASHADE
 62
    18
420
        0
370
    18
100
AcDbLine
 10
-103.7259442070967
 20
148.611888707664
 30
0.0
 11
178.1620552995985
 21
148.611888707664
 31
0.0
  0
LINE
  5
117
330
70
100
AcDbEntity
  8
ASHADE
 62
    18
420
        0
370
    18
100
AcDbLine
 10
-103.7259442070967
 20
148.611888707664
 30
0.0
 11
-103.7259442070967
 21
-43.4841109561682
 31
0.0
  0
LINE
  5
118
330
70
100
AcDbEntity
  8
ASHADE
 62
    18
420
        0
370
    18
100
AcDbLine
 10
37.0340555465736
 20
-45.69211095230387
 30
0.0
 11
37.0340555465736
 21
-43.4841109561682
 31
0.0
  0
LINE
  5
119
330
70
100
AcDbEntity
  8
ASHADE
 62
    18
420
        0
370
    18
100
AcDbLine
 10
37.40205554592912
 20
-45.69211095230387
 30
0.0
 11
37.40205554592912
 21
-43.4841109561682
 31
0.0
  0
LWPOLYLINE
  5
11A
330
70
100
AcDbEntity
  8
ASHADE
100
AcDbPolyline
 90
        4
 70
     1
 43
0.0
 10
37.40205554592912
 20
-43.4841109561682
 10
37.0340555465736
 20
-43.4841109561682
 10
37.0340555465736
 20
-45.69211095230387
 10
37.40205554592912
 20
-45.69211095230387
  0
HATCH
  5
11B
330
70
100
AcDbEntity
  8
ASHADE
 62
    18
420
        0
440
 33554687
100
AcDbHatch
 10
0.0
 20
0.0
 30
0.0
210
0.0
220
0.0
230
1.0
  2
SOLID
 70
     1
 71
     1
 91
        1
 92
        1
 93
        4
 72
     1
 10
37.40205554592912
 20
-43.4841109561682
 11
37.0340555465736
 21
-43.4841109561682
 72
     1
 10
37.0340555465736
 20
-43.4841109561682
 11
37.0340555465736
 21
-45.69211095230387
 72
     1
 10
37.0340555465736
 20
-45.69211095230387
 11
37.40205554592912
 21
-45.69211095230387
 72
     1
 10
37.40205554592912
 20
-45.69211095230387
 11
37.40205554592912
 21
-43.4841109561682
 97
        1
330
11A
 75
     2
 76
     1
 98
        1
 10
0.0
 20
0.0
450
        0
451
        0
460
0.0
461
0.0
452
        0
462
0.0
453
        0
470

  0
LINE
  5
11C
330
70
100
AcDbEntity
  8
ASHADE
 62
    18
420
        0
370
    18
100
AcDbLine
 10
37.0340555465736
 20
-45.69211095230387
 30
0.0
 11
37.40205554592912
 21
-45.69211095230387
 31
0.0
  0
LINE
  5
11D
330
70
100
AcDbEntity
  8
ASHADE
 62
    18
420
        0
370
    18
100
AcDbLine
 10
72.17805548507128
 20
-45.69211095230387
 30
0.0
 11
72.17805548507128
 21
-43.4841109561682
 31
0.0
  0
LINE
  5
11E
330
70
100
AcDbEntity
  8
ASHADE
 62
    18
420
        0
370
    18
100
AcDbLine
 10
72.54605548442744
 20
-45.69211095230387
 30
0.0
 11
72.54605548442744
 21
-43.4841109561682
 31
0.0
  0
LWPOLYLINE
  5
11F
330
70
100
AcDbEntity
  8
ASHADE
100
AcDbPolyline
 90
        4
 70
     1
 43
0.0
 10
72.54605548442744
 20
-43.4841109561682
 10
72.17805548507128
 20
-43.4841109561682
 10
72.17805548507128
 20
-45.69211095230387
 10
72.54605548442744
 20
-45.69211095230387
  0
HATCH
  5
120
330
70
100
AcDbEntity
  8
ASHADE
 62
    18
420
        0
440
 33554687
100
AcDbHatch
 10
0.0
 20
0.0
 30
0.0
210
0.0
220
0.0
230
1.0
  2
SOLID
 70
     1
 71
     1
 91
        1
 92
        1
 93
        4
 72
     1
 10
72.54605548442744
 20
-43.4841109561682
 11
72.17805548507128
 21
-43.4841109561682
 72
     1
 10
72.17805548507128
 20
-43.4841109561682
 11
72.17805548507128
 21
-45.69211095230387
 72
     1
 10
72.17805548507128
 20
-45.69211095230387
 11
72.54605548442744
 21
-45.69211095230387
 72
     1
 10
72.54605548442744
 20
-45.69211095230387
 11
72.54605548442744
 21
-43.4841109561682
 97
        1
330
11F
 75
     2
 76
     1
 98
        1
 10
0.0
 20
0.0
450
        0
451
        0
460
0.0
461
0.0
452
        0
462
0.0
453
        0
470

  0
LINE
  5
121
330
70
100
AcDbEntity
  8
ASHADE
 62
    18
420
        0
370
    18
100
AcDbLine
 10
72.17805548507128
 20
-45.69211095230387
 30
0.0
 11
72.54605548442744
 21
-45.69211095230387
 31
0.0
  0
LINE
  5
122
330
70
100
AcDbEntity
  8
ASHADE
 62
    18
420
        0
370
    18
100
AcDbLine
 10
107.3220554235689
 20
-45.8340152367382
 30
0.0
 11
107.6900554229251
 21
-45.8340152367382
 31
0.0
  0
LWPOLYLINE
  5
123
330
70
100
AcDbEntity
  8
ASHADE
100
AcDbPolyline
 90
        4
 70
     1
 43
0.0
 10
107.6900554229251
 20
-43.62601524060253
 10
107.3220554235689
 20
-43.62601524060253
 10
107.3220554235689
 20
-45.8340152367382
 10
107.6900554229251
 20
-45.8340152367382
  0
HATCH
  5
124
330
70
100
AcDbEntity
  8
ASHADE
 62
    18
420
        0
440
 33554687
100
AcDbHatch
 10
0.0
 20
0.0
 30
0.0
210
0.0
220
0.0
230
1.0
  2
SOLID
 70
     1
 71
     1
 91
        1
 92
        1
 93
        4
 72
     1
 10
107.6900554229251
 20
-43.62601524060253
 11
107.3220554235689
 21
-43.62601524060253
 72
     1
 10
107.3220554235689
 20
-43.62601524060253
 11
107.3220554235689
 21
-45.8340152367382
 72
     1
 10
107.3220554235689
 20
-45.8340152367382
 11
107.6900554229251
 21
-45.8340152367382
 72
     1
 10
107.6900554229251
 20
-45.8340152367382
 11
107.6900554229251
 21
-43.62601524060253
 97
        1
330
123
 75
     2
 76
     1
 98
        1
 10
0.0
 20
0.0
450
        0
451
        0
460
0.0
461
0.0
452
        0
462
0.0
453
        0
470

  0
LINE
  5
125
330
70
100
AcDbEntity
  8
ASHADE
 62
    18
420
        0
370
    18
100
AcDbLine
 10
107.6900554229251
 20
-45.8340152367382
 30
0.0
 11
107.6900554229251
 21
-43.62601524060253
 31
0.0
  0
LINE
  5
126
330
70
100
AcDbEntity
  8
ASHADE
 62
    18
420
        0
370
    18
100
AcDbLine
 10
107.3220554235689
 20
-45.8340152367382
 30
0.0
 11
107.3220554235689
 21
-43.62601524060253
 31
0.0
  0
LINE
  5
127
330
70
100
AcDbEntity
  8
ASHADE
 62
    18
420
        0
370
    18
100
AcDbLine
 10
142.4660553620672
 20
-45.69211095230387
 30
0.0
 11
142.4660553620672
 21
-43.4841109561682
 31
0.0
  0
LINE
  5
128
330
70
100
AcDbEntity
  8
ASHADE
 62
    18
420
        0
370
    18
100
AcDbLine
 10
142.8340553614227
 20
-45.69211095230387
 30
0.0
 11
142.8340553614227
 21
-43.4841109561682
 31
0.0
  0
LWPOLYLINE
  5
129
330
70
100
AcDbEntity
  8
ASHADE
100
AcDbPolyline
 90
        4
 70
     1
 43
0.0
 10
142.8340553614227
 20
-43.4841109561682
 10
142.4660553620672
 20
-43.4841109561682
 10
142.4660553620672
 20
-45.69211095230387
 10
142.8340553614227
 20
-45.69211095230387
  0
HATCH
  5
12A
330
70
100
AcDbEntity
  8
ASHADE
 62
    18
420
        0
440
 33554687
100
AcDbHatch
 10
0.0
 20
0.0
 30
0.0
210
0.0
220
0.0
230
1.0
  2
SOLID
 70
     1
 71
     1
 91
        1
 92
        1
 93
        4
 72
     1
 10
142.8340553614227
 20
-43.4841109561682
 11
142.4660553620672
 21
-43.4841109561682
 72
     1
 10
142.4660553620672
 20
-43.4841109561682
 11
142.4660553620672
 21
-45.69211095230387
 72
     1
 10
142.4660553620672
 20
-45.69211095230387
 11
142.8340553614227
 21
-45.69211095230387
 72
     1
 10
142.8340553614227
 20
-45.69211095230387
 11
142.8340553614227
 21
-43.4841109561682
 97
        1
330
129
 75
     2
 76
     1
 98
        1
 10
0.0
 20
0.0
450
        0
451
        0
460
0.0
461
0.0
452
        0
462
0.0
453
        0
470

  0
LINE
  5
12B
330
70
100
AcDbEntity
  8
ASHADE
 62
    18
420
        0
370
    18
100
AcDbLine
 10
142.4660553620672
 20
-45.69211095230387
 30
0.0
 11
142.8340553614227
 21
-45.69211095230387
 31
0.0
  0
MTEXT
  5
12C
330
70
100
AcDbEntity
  8
ASHADE
100
AcDbMText
 10
53.68605336860431
 20
-47.5321116010727
 30
0.0
 40
0.2
 41
0.0
 46
0.0
 71
     7
 72
     1
  1
\C18;\c0;\FMyriad Pro|b0|i0|c1;\H3.312000;\W1.000000;4
 73
     1
 44
1.0
  0
MTEXT
  5
12D
330
70
100
AcDbEntity
  8
ASHADE
100
AcDbMText
 10
88.83005377350103
 20
-47.5321116010727
 30
0.0
 40
0.2
 41
0.0
 46
0.0
 71
     7
 72
     1
  1
\C18;\c0;\FMyriad Pro|b0|i0|c1;\H3.312000;\W1.000000;3
 73
     1
 44
1.0
  0
MTEXT
  5
12E
330
70
100
AcDbEntity
  8
ASHADE
100
AcDbMText
 10
159.670055773342
 20
-47.67401723729482
 30
0.0
 40
0.2
 41
0.0
 46
0.0
 71
     7
 72
     1
  1
\C18;\c0;\FMyriad Pro|b0|i0|c1;\H3.312000;\W1.000000;1
 73
     1
 44
1.0
  0
MTEXT
  5
12F
330
70
100
AcDbEntity
  8
ASHADE
100
AcDbMText
 10
123.9740541783977
 20
-47.67401723729482
 30
0.0
 40
0.2
 41
0.0
 46
0.0
 71
     7
 72
     1
  1
\C18;\c0;\FMyriad Pro|b0|i0|c1;\H3.312000;\W1.000000;2
 73
     1
 44
1.0
  0
LINE
  5
130
330
70
100
AcDbEntity
  8
ASHADE
 62
    18
420
        0
370
    18
100
AcDbLine
 10
-68.39794426892069
 20
-45.69211095230387
 30
0.0
 11
-68.39794426892069
 21
-43.4841109561682
 31
0.0
  0
LINE
  5
131
330
70
100
AcDbEntity
  8
ASHADE
 62
    18
420
        0
370
    18
100
AcDbLine
 10
-68.02994426956454
 20
-45.69211095230387
 30
0.0
 11
-68.02994426956454
 21
-43.4841109561682
 31
0.0
  0
LWPOLYLINE
  5
132
330
70
100
AcDbEntity
  8
ASHADE
100
AcDbPolyline
 90
        4
 70
     1
 43
0.0
 10
-68.02994426956454
 20
-43.4841109561682
 10
-68.39794426892069
 20
-43.4841109561682
 10
-68.39794426892069
 20
-45.69211095230387
 10
-68.02994426956454
 20
-45.69211095230387
  0
HATCH
  5
133
330
70
100
AcDbEntity
  8
ASHADE
 62
    18
420
        0
440
 33554687
100
AcDbHatch
 10
0.0
 20
0.0
 30
0.0
210
0.0
220
0.0
230
1.0
  2
SOLID
 70
     1
 71
     1
 91
        1
 92
        1
 93
        4
 72
     1
 10
-68.02994426956454
 20
-43.4841109561682
 11
-68.39794426892069
 21
-43.4841109561682
 72
     1
 10
-68.39794426892069
 20
-43.4841109561682
 11
-68.39794426892069
 21
-45.69211095230387
 72
     1
 10
-68.39794426892069
 20
-45.69211095230387
 11
-68.02994426956454
 21
-45.69211095230387
 72
     1
 10
-68.02994426956454
 20
-45.69211095230387
 11
-68.02994426956454
 21
-43.4841109561682
 97
        1
330
132
 75
     2
 76
     1
 98
        1
 10
0.0
 20
0.0
450
        0
451
        0
460
0.0
461
0.0
452
        0
462
0.0
453
        0
470

  0
LINE
  5
134
330
70
100
AcDbEntity
  8
ASHADE
 62
    18
420
        0
370
    18
100
AcDbLine
 10
-68.39794426892069
 20
-45.69211095230387
 30
0.0
 11
-68.02994426956454
 21
-45.69211095230387
 31
0.0
  0
MTEXT
  5
135
330
70
100
AcDbEntity
  8
ASHADE
100
AcDbMText
 10
-51.74594246312417
 20
-47.5321116010727
 30
0.0
 40
0.2
 41
0.0
 46
0.0
 71
     7
 72
     1
  1
\C18;\c0;\FMyriad Pro|b0|i0|c1;\H3.312000;\W1.000000;7
 73
     1
 44
1.0
  0
LINE
  5
136
330
70
100
AcDbEntity
  8
ASHADE
 62
    18
420
        0
370
    18
100
AcDbLine
 10
-33.25394433042239
 20
-45.69211095230387
 30
0.0
 11
-32.88594433106687
 21
-45.69211095230387
 31
0.0
  0
LWPOLYLINE
  5
137
330
70
100
AcDbEntity
  8
ASHADE
100
AcDbPolyline
 90
        4
 70
     1
 43
0.0
 10
-32.88594433106687
 20
-43.4841109561682
 10
-33.25394433042239
 20
-43.4841109561682
 10
-33.25394433042239
 20
-45.69211095230387
 10
-32.88594433106687
 20
-45.69211095230387
  0
HATCH
  5
138
330
70
100
AcDbEntity
  8
ASHADE
 62
    18
420
        0
440
 33554687
100
AcDbHatch
 10
0.0
 20
0.0
 30
0.0
210
0.0
220
0.0
230
1.0
  2
SOLID
 70
     1
 71
     1
 91
        1
 92
        1
 93
        4
 72
     1
 10
-32.88594433106687
 20
-43.4841109561682
 11
-33.25394433042239
 21
-43.4841109561682
 72
     1
 10
-33.25394433042239
 20
-43.4841109561682
 11
-33.25394433042239
 21
-45.69211095230387
 72
     1
 10
-33.25394433042239
 20
-45.69211095230387
 11
-32.88594433106687
 21
-45.69211095230387
 72
     1
 10
-32.88594433106687
 20
-45.69211095230387
 11
-32.88594433106687
 21
-43.4841109561682
 97
        1
330
137
 75
     2
 76
     1
 98
        1
 10
0.0
 20
0.0
450
        0
451
        0
460
0.0
461
0.0
452
        0
462
0.0
453
        0
470

  0
LINE
  5
139
330
70
100
AcDbEntity
  8
ASHADE
 62
    18
420
        0
370
    18
100
AcDbLine
 10
-32.88594433106687
 20
-45.69211095230387
 30
0.0
 11
-32.88594433106687
 21
-43.4841109561682
 31
0.0
  0
LINE
  5
13A
330
70
100
AcDbEntity
  8
ASHADE
 62
    18
420
        0
370
    18
100
AcDbLine
 10
-33.25394433042239
 20
-45.69211095230387
 30
0.0
 11
-33.25394433042239
 21
-43.4841109561682
 31
0.0
  0
MTEXT
  5
13B
330
70
100
AcDbEntity
  8
ASHADE
100
AcDbMText
 10
-16.60194474970829
 20
-47.5321116010727
 30
0.0
 40
0.2
 41
0.0
 46
0.0
 71
     7
 72
     1
  1
\C18;\c0;\FMyriad Pro|b0|i0|c1;\H3.312000;\W1.000000;6
 73
     1
 44
1.0
  0
LINE
  5
13C
330
70
100
AcDbEntity
  8
ASHADE
 62
    18
420
        0
370
    18
100
AcDbLine
 10
1.890055608075291
 20
-45.8340152367382
 30
0.0
 11
1.890055608075291
 21
-43.62601524060253
 31
0.0
  0
LINE
  5
13D
330
70
100
AcDbEntity
  8
ASHADE
 62
    18
420
        0
370
    18
100
AcDbLine
 10
2.258055607431449
 20
-45.8340152367382
 30
0.0
 11
2.258055607431449
 21
-43.62601524060253
 31
0.0
  0
LWPOLYLINE
  5
13E
330
70
100
AcDbEntity
  8
ASHADE
100
AcDbPolyline
 90
        4
 70
     1
 43
0.0
 10
2.258055607431449
 20
-43.62601524060253
 10
1.890055608075291
 20
-43.62601524060253
 10
1.890055608075291
 20
-45.8340152367382
 10
2.258055607431449
 20
-45.8340152367382
  0
HATCH
  5
13F
330
70
100
AcDbEntity
  8
ASHADE
 62
    18
420
        0
440
 33554687
100
AcDbHatch
 10
0.0
 20
0.0
 30
0.0
210
0.0
220
0.0
230
1.0
  2
SOLID
 70
     1
 71
     1
 91
        1
 92
        1
 93
        4
 72
     1
 10
2.258055607431449
 20
-43.62601524060253
 11
1.890055608075291
 21
-43.62601524060253
 72
     1
 10
1.890055608075291
 20
-43.62601524060253
 11
1.890055608075291
 21
-45.8340152367382
 72
     1
 10
1.890055608075291
 20
-45.8340152367382
 11
2.258055607431449
 21
-45.8340152367382
 72
     1
 10
2.258055607431449
 20
-45.8340152367382
 11
2.258055607431449
 21
-43.62601524060253
 97
        1
330
13E
 75
     2
 76
     1
 98
        1
 10
0.0
 20
0.0
450
        0
451
        0
460
0.0
461
0.0
452
        0
462
0.0
453
        0
470

  0
LINE
  5
140
330
70
100
AcDbEntity
  8
ASHADE
 62
    18
420
        0
370
    18
100
AcDbLine
 10
1.890055608075291
 20
-45.8340152367382
 30
0.0
 11
2.258055607431449
 21
-45.8340152367382
 31
0.0
  0
MTEXT
  5
141
330
70
100
AcDbEntity
  8
ASHADE
100
AcDbMText
 10
18.54205565518843
 20
-47.67401723729482
 30
0.0
 40
0.2
 41
0.0
 46
0.0
 71
     7
 72
     1
  1
\C18;\c0;\FMyriad Pro|b0|i0|c1;\H3.312000;\W1.000000;5
 73
     1
 44
1.0
  0
MTEXT
  5
142
330
70
100
AcDbEntity
  8
ASHADE
100
AcDbMText
 10
-86.8899428680209
 20
-47.5321116010727
 30
0.0
 40
0.2
 41
0.0
 46
0.0
 71
     7
 72
     1
  1
\C18;\c0;\FMyriad Pro|b0|i0|c1;\H3.312000;\W1.000000;8
 73
     1
 44
1.0
  0
LWPOLYLINE
  5
143
330
70
100
AcDbEntity
  8
ASHADE
100
AcDbPolyline
 90
        4
 70
     1
 43
0.0
 10
-103.3579442077409
 20
148.2438887083079
 10
-103.7259442070967
 20
148.611888707664
 10
178.1620552995985
 20
148.611888707664
 10
177.7940553002436
 20
148.2438887083079
  0
HATCH
  5
144
330
70
100
AcDbEntity
  8
ASHADE
 62
    18
420
        0
440
 33554687
100
AcDbHatch
 10
0.0
 20
0.0
 30
0.0
210
0.0
220
0.0
230
1.0
  2
SOLID
 70
     1
 71
     1
 91
        1
 92
        1
 93
        4
 72
     1
 10
-103.3579442077409
 20
148.2438887083079
 11
-103.7259442070967
 21
148.611888707664
 72
     1
 10
-103.7259442070967
 20
148.611888707664
 11
178.1620552995985
 21
148.611888707664
 72
     1
 10
178.1620552995985
 20
148.611888707664
 11
177.7940553002436
 21
148.2438887083079
 72
     1
 10
177.7940553002436
 20
148.2438887083079
 11
-103.3579442077409
 21
148.2438887083079
 97
        1
330
143
 75
     2
 76
     1
 98
        1
 10
0.0
 20
0.0
450
        0
451
        0
460
0.0
461
0.0
452
        0
462
0.0
453
        0
470

  0
LWPOLYLINE
  5
145
330
70
100
AcDbEntity
  8
ASHADE
100
AcDbPolyline
 90
        4
 70
     1
 43
0.0
 10
177.7940553002436
 20
148.2438887083079
 10
178.1620552995985
 20
148.611888707664
 10
178.1620552995985
 20
-43.4841109561682
 10
177.7940553002436
 20
-43.11611095681205
  0
HATCH
  5
146
330
70
100
AcDbEntity
  8
ASHADE
 62
    18
420
        0
440
 33554687
100
AcDbHatch
 10
0.0
 20
0.0
 30
0.0
210
0.0
220
0.0
230
1.0
  2
SOLID
 70
     1
 71
     1
 91
        1
 92
        1
 93
        4
 72
     1
 10
177.7940553002436
 20
148.2438887083079
 11
178.1620552995985
 21
148.611888707664
 72
     1
 10
178.1620552995985
 20
148.611888707664
 11
178.1620552995985
 21
-43.48411095616819
 72
     1
 10
178.1620552995985
 20
-43.4841109561682
 11
177.7940553002436
 21
-43.11611095681205
 72
     1
 10
177.7940553002436
 20
-43.11611095681205
 11
177.7940553002436
 21
148.2438887083078
 97
        1
330
145
 75
     2
 76
     1
 98
        1
 10
0.0
 20
0.0
450
        0
451
        0
460
0.0
461
0.0
452
        0
462
0.0
453
        0
470

  0
LWPOLYLINE
  5
147
330
70
100
AcDbEntity
  8
ASHADE
100
AcDbPolyline
 90
        4
 70
     1
 43
0.0
 10
177.7940553002436
 20
-43.11611095681205
 10
178.1620552995985
 20
-43.4841109561682
 10
-103.7259442070967
 20
-43.4841109561682
 10
-103.3579442077409
 20
-43.11611095681205
  0
HATCH
  5
148
330
70
100
AcDbEntity
  8
ASHADE
 62
    18
420
        0
440
 33554687
100
AcDbHatch
 10
0.0
 20
0.0
 30
0.0
210
0.0
220
0.0
230
1.0
  2
SOLID
 70
     1
 71
     1
 91
        1
 92
        1
 93
        4
 72
     1
 10
177.7940553002436
 20
-43.11611095681205
 11
178.1620552995985
 21
-43.4841109561682
 72
     1
 10
178.1620552995985
 20
-43.4841109561682
 11
-103.7259442070968
 21
-43.4841109561682
 72
     1
 10
-103.7259442070967
 20
-43.4841109561682
 11
-103.3579442077409
 21
-43.11611095681205
 72
     1
 10
-103.3579442077409
 20
-43.11611095681205
 11
177.7940553002436
 21
-43.11611095681205
 97
        1
330
147
 75
     2
 76
     1
 98
        1
 10
0.0
 20
0.0
450
        0
451
        0
460
0.0
461
0.0
452
        0
462
0.0
453
        0
470

  0
LWPOLYLINE
  5
149
330
70
100
AcDbEntity
  8
ASHADE
100
AcDbPolyline
 90
        4
 70
     1
 43
0.0
 10
-103.7259442070967
 20
-43.4841109561682
 10
-103.3579442077409
 20
-43.11611095681205
 10
-103.3579442077409
 20
148.2438887083079
 10
-103.7259442070967
 20
148.611888707664
  0
HATCH
  5
14A
330
70
100
AcDbEntity
  8
ASHADE
 62
    18
420
        0
440
 33554687
100
AcDbHatch
 10
0.0
 20
0.0
 30
0.0
210
0.0
220
0.0
230
1.0
  2
SOLID
 70
     1
 71
     1
 91
        1
 92
        1
 93
        4
 72
     1
 10
-103.7259442070967
 20
-43.4841109561682
 11
-103.3579442077409
 21
-43.11611095681205
 72
     1
 10
-103.3579442077409
 20
-43.11611095681205
 11
-103.3579442077409
 21
148.2438887083078
 72
     1
 10
-103.3579442077409
 20
148.2438887083079
 11
-103.7259442070967
 21
148.611888707664
 72
     1
 10
-103.7259442070967
 20
148.611888707664
 11
-103.7259442070967
 21
-43.48411095616819
 97
        1
330
149
 75
     2
 76
     1
 98
        1
 10
0.0
 20
0.0
450
        0
451
        0
460
0.0
461
0.0
452
        0
462
0.0
453
        0
470

  0
LINE
  5
14B
330
70
100
AcDbEntity
  8
ASHADE
 62
    18
420
        0
370
    18
100
AcDbLine
 10
177.7940553002436
 20
-16.62011100318023
 30
0.0
 11
177.7940553002436
 21
-43.11611095681205
 31
0.0
  0
MTEXT
  5
14C
330
70
100
AcDbEntity
  8
ASHADE
100
AcDbMText
 10
179.4500499700572
 20
-20.85211060320576
 30
0.0
 40
0.2
 41
0.0
 46
0.0
 71
     7
 72
     1
  1
\C18;\c0;\FMyriad Pro|b0|i0|c1;\H3.312000;\W1.000000;A
 73
     1
 44
1.0
  0
LINE
  5
14D
330
70
100
AcDbEntity
  8
ASHADE
 62
    18
420
        0
370
    18
100
AcDbLine
 10
178.1620552995985
 20
4.907888959146013
 30
0.0
 11
180.3700552957355
 21
4.907888959146013
 31
0.0
  0
LINE
  5
14E
330
70
100
AcDbEntity
  8
ASHADE
 62
    18
420
        0
370
    18
100
AcDbLine
 10
178.1620552995985
 20
4.539888959789855
 30
0.0
 11
180.3700552957355
 21
4.539888959789855
 31
0.0
  0
LWPOLYLINE
  5
14F
330
70
100
AcDbEntity
  8
ASHADE
100
AcDbPolyline
 90
        4
 70
     1
 43
0.0
 10
180.3700552957355
 20
4.907888959146013
 10
180.3700552957355
 20
4.539888959789855
 10
178.1620552995985
 20
4.539888959789855
 10
178.1620552995985
 20
4.907888959146013
  0
HATCH
  5
150
330
70
100
AcDbEntity
  8
ASHADE
 62
    18
420
        0
440
 33554687
100
AcDbHatch
 10
0.0
 20
0.0
 30
0.0
210
0.0
220
0.0
230
1.0
  2
SOLID
 70
     1
 71
     1
 91
        1
 92
        1
 93
        4
 72
     1
 10
180.3700552957355
 20
4.907888959146013
 11
180.3700552957355
 21
4.539888959789855
 72
     1
 10
180.3700552957355
 20
4.539888959789855
 11
178.1620552995985
 21
4.539888959789855
 72
     1
 10
178.1620552995985
 20
4.539888959789855
 11
178.1620552995985
 21
4.907888959146013
 72
     1
 10
178.1620552995985
 20
4.907888959146013
 11
180.3700552957355
 21
4.907888959146013
 97
        1
330
14F
 75
     2
 76
     1
 98
        1
 10
0.0
 20
0.0
450
        0
451
        0
460
0.0
461
0.0
452
        0
462
0.0
453
        0
470

  0
MTEXT
  5
151
330
70
100
AcDbEntity
  8
ASHADE
100
AcDbMText
 10
179.4500499700572
 20
26.98789025797607
 30
0.0
 40
0.2
 41
0.0
 46
0.0
 71
     7
 72
     1
  1
\C18;\c0;\FMyriad Pro|b0|i0|c1;\H3.312000;\W1.000000;B
 73
     1
 44
1.0
  0
LWPOLYLINE
  5
152
330
70
100
AcDbEntity
  8
ASHADE
100
AcDbPolyline
 90
        4
 70
     1
 43
0.0
 10
180.3700552957355
 20
52.747888875426
 10
180.3700552957355
 20
52.37988887606984
 10
178.1620552995985
 20
52.37988887606984
 10
178.1620552995985
 20
52.747888875426
  0
HATCH
  5
153
330
70
100
AcDbEntity
  8
ASHADE
 62
    18
420
        0
440
 33554687
100
AcDbHatch
 10
0.0
 20
0.0
 30
0.0
210
0.0
220
0.0
230
1.0
  2
SOLID
 70
     1
 71
     1
 91
        1
 92
        1
 93
        4
 72
     1
 10
180.3700552957355
 20
52.747888875426
 11
180.3700552957355
 21
52.37988887606984
 72
     1
 10
180.3700552957355
 20
52.37988887606984
 11
178.1620552995985
 21
52.37988887606984
 72
     1
 10
178.1620552995985
 20
52.37988887606984
 11
178.1620552995985
 21
52.747888875426
 72
     1
 10
178.1620552995985
 20
52.747888875426
 11
180.3700552957355
 21
52.747888875426
 97
        1
330
152
 75
     2
 76
     1
 98
        1
 10
0.0
 20
0.0
450
        0
451
        0
460
0.0
461
0.0
452
        0
462
0.0
453
        0
470

  0
LINE
  5
154
330
70
100
AcDbEntity
  8
ASHADE
 62
    18
420
        0
370
    18
100
AcDbLine
 10
178.1620552995985
 20
52.37988887606984
 30
0.0
 11
180.3700552957355
 21
52.37988887606984
 31
0.0
  0
LINE
  5
155
330
70
100
AcDbEntity
  8
ASHADE
 62
    18
420
        0
370
    18
100
AcDbLine
 10
178.1620552995985
 20
52.747888875426
 30
0.0
 11
180.3700552957355
 21
52.747888875426
 31
0.0
  0
MTEXT
  5
156
330
70
100
AcDbEntity
  8
ASHADE
100
AcDbMText
 10
179.4500499700572
 20
74.82788842767703
 30
0.0
 40
0.2
 41
0.0
 46
0.0
 71
     7
 72
     1
  1
\C18;\c0;\FMyriad Pro|b0|i0|c1;\H3.312000;\W1.000000;C
 73
     1
 44
1.0
  0
LINE
  5
157
330
70
100
AcDbEntity
  8
ASHADE
 62
    18
420
        0
370
    18
100
AcDbLine
 10
178.1620552995985
 20
100.5878887917059
 30
0.0
 11
180.3700552957355
 21
100.5878887917059
 31
0.0
  0
LINE
  5
158
330
70
100
AcDbEntity
  8
ASHADE
 62
    18
420
        0
370
    18
100
AcDbLine
 10
178.1620552995985
 20
100.2198887923498
 30
0.0
 11
180.3700552957355
 21
100.2198887923498
 31
0.0
  0
LWPOLYLINE
  5
159
330
70
100
AcDbEntity
  8
ASHADE
100
AcDbPolyline
 90
        4
 70
     1
 43
0.0
 10
180.3700552957355
 20
100.5878887917059
 10
180.3700552957355
 20
100.2198887923498
 10
178.1620552995985
 20
100.2198887923498
 10
178.1620552995985
 20
100.5878887917059
  0
HATCH
  5
15A
330
70
100
AcDbEntity
  8
ASHADE
 62
    18
420
        0
440
 33554687
100
AcDbHatch
 10
0.0
 20
0.0
 30
0.0
210
0.0
220
0.0
230
1.0
  2
SOLID
 70
     1
 71
     1
 91
        1
 92
        1
 93
        4
 72
     1
 10
180.3700552957355
 20
100.5878887917059
 11
180.3700552957355
 21
100.2198887923498
 72
     1
 10
180.3700552957355
 20
100.2198887923498
 11
178.1620552995985
 21
100.2198887923498
 72
     1
 10
178.1620552995985
 20
100.2198887923498
 11
178.1620552995985
 21
100.5878887917059
 72
     1
 10
178.1620552995985
 20
100.5878887917059
 11
180.3700552957355
 21
100.5878887917059
 97
        1
330
159
 75
     2
 76
     1
 98
        1
 10
0.0
 20
0.0
450
        0
451
        0
460
0.0
461
0.0
452
        0
462
0.0
453
        0
470

  0
MTEXT
  5
15B
330
70
100
AcDbEntity
  8
ASHADE
100
AcDbMText
 10
179.4500499700572
 20
122.6678892888588
 30
0.0
 40
0.2
 41
0.0
 46
0.0
 71
     7
 72
     1
  1
\C18;\c0;\FMyriad Pro|b0|i0|c1;\H3.312000;\W1.000000;D
 73
     1
 44
1.0
  0
MTEXT
  5
15C
330
70
100
AcDbEntity
  8
ASHADE
100
AcDbMText
 10
-51.74594246312417
 20
149.3478929782066
 30
0.0
 40
0.2
 41
0.0
 46
0.0
 71
     7
 72
     1
  1
\C18;\c0;\FMyriad Pro|b0|i0|c1;\H3.312000;\W1.000000;7
 73
     1
 44
1.0
  0
MTEXT
  5
15D
330
70
100
AcDbEntity
  8
ASHADE
100
AcDbMText
 10
-86.8899428680209
 20
149.4666949428308
 30
0.0
 40
0.2
 41
0.0
 46
0.0
 71
     7
 72
     1
  1
\C18;\c0;\FMyriad Pro|b0|i0|c1;\H3.312000;\W1.000000;8
 73
     1
 44
1.0
  0
LINE
  5
15E
330
70
100
AcDbEntity
  8
ASHADE
 62
    18
420
        0
370
    18
100
AcDbLine
 10
-68.39794426892069
 20
150.8198887038
 30
0.0
 11
-68.02994426956454
 21
150.8198887038
 31
0.0
  0
LWPOLYLINE
  5
15F
330
70
100
AcDbEntity
  8
ASHADE
100
AcDbPolyline
 90
        4
 70
     1
 43
0.0
 10
-68.02994426956454
 20
148.611888707664
 10
-68.39794426892069
 20
148.611888707664
 10
-68.39794426892069
 20
150.8198887038
 10
-68.02994426956454
 20
150.8198887038
  0
HATCH
  5
160
330
70
100
AcDbEntity
  8
ASHADE
 62
    18
420
        0
440
 33554687
100
AcDbHatch
 10
0.0
 20
0.0
 30
0.0
210
0.0
220
0.0
230
1.0
  2
SOLID
 70
     1
 71
     1
 91
        1
 92
        1
 93
        4
 72
     1
 10
-68.02994426956454
 20
148.611888707664
 11
-68.39794426892069
 21
148.611888707664
 72
     1
 10
-68.39794426892069
 20
148.611888707664
 11
-68.39794426892069
 21
150.8198887038
 72
     1
 10
-68.39794426892069
 20
150.8198887038
 11
-68.02994426956454
 21
150.8198887038
 72
     1
 10
-68.02994426956454
 20
150.8198887038
 11
-68.02994426956454
 21
148.611888707664
 97
        1
330
15F
 75
     2
 76
     1
 98
        1
 10
0.0
 20
0.0
450
        0
451
        0
460
0.0
461
0.0
452
        0
462
0.0
453
        0
470

  0
LINE
  5
161
330
70
100
AcDbEntity
  8
ASHADE
 62
    18
420
        0
370
    18
100
AcDbLine
 10
-68.02994426956454
 20
150.8198887038
 30
0.0
 11
-68.02994426956454
 21
148.611888707664
 31
0.0
  0
LINE
  5
162
330
70
100
AcDbEntity
  8
ASHADE
 62
    18
420
        0
370
    18
100
AcDbLine
 10
-68.39794426892069
 20
150.8198887038
 30
0.0
 11
-68.39794426892069
 21
148.611888707664
 31
0.0
  0
LINE
  5
163
330
70
100
AcDbEntity
  8
ASHADE
 62
    18
420
        0
370
    18
100
AcDbLine
 10
-33.25394433042239
 20
150.8198887038
 30
0.0
 11
-33.25394433042239
 21
148.611888707664
 31
0.0
  0
LINE
  5
164
330
70
100
AcDbEntity
  8
ASHADE
 62
    18
420
        0
370
    18
100
AcDbLine
 10
-32.88594433106687
 20
150.8198887038
 30
0.0
 11
-32.88594433106687
 21
148.611888707664
 31
0.0
  0
LWPOLYLINE
  5
165
330
70
100
AcDbEntity
  8
ASHADE
100
AcDbPolyline
 90
        4
 70
     1
 43
0.0
 10
-32.88594433106687
 20
148.611888707664
 10
-33.25394433042239
 20
148.611888707664
 10
-33.25394433042239
 20
150.8198887038
 10
-32.88594433106687
 20
150.8198887038
  0
HATCH
  5
166
330
70
100
AcDbEntity
  8
ASHADE
 62
    18
420
        0
440
 33554687
100
AcDbHatch
 10
0.0
 20
0.0
 30
0.0
210
0.0
220
0.0
230
1.0
  2
SOLID
 70
     1
 71
     1
 91
        1
 92
        1
 93
        4
 72
     1
 10
-32.88594433106687
 20
148.611888707664
 11
-33.25394433042239
 21
148.611888707664
 72
     1
 10
-33.25394433042239
 20
148.611888707664
 11
-33.25394433042239
 21
150.8198887038
 72
     1
 10
-33.25394433042239
 20
150.8198887038
 11
-32.88594433106687
 21
150.8198887038
 72
     1
 10
-32.88594433106687
 20
150.8198887038
 11
-32.88594433106687
 21
148.611888707664
 97
        1
330
165
 75
     2
 76
     1
 98
        1
 10
0.0
 20
0.0
450
        0
451
        0
460
0.0
461
0.0
452
        0
462
0.0
453
        0
470

  0
LINE
  5
167
330
70
100
AcDbEntity
  8
ASHADE
 62
    18
420
        0
370
    18
100
AcDbLine
 10
-33.25394433042239
 20
150.8198887038
 30
0.0
 11
-32.88594433106687
 21
150.8198887038
 31
0.0
  0
MTEXT
  5
168
330
70
100
AcDbEntity
  8
ASHADE
100
AcDbMText
 10
-16.60194474970829
 20
149.242419226741
 30
0.0
 40
0.2
 41
0.0
 46
0.0
 71
     7
 72
     1
  1
\C18;\c0;\FMyriad Pro|b0|i0|c1;\H3.312000;\W1.000000;6
 73
     1
 44
1.0
  0
LWPOLYLINE
  5
169
330
70
100
AcDbEntity
  8
ASHADE
100
AcDbPolyline
 90
        4
 70
     1
 43
0.0
 10
2.258055607431449
 20
148.753792992098
 10
1.890055608075291
 20
148.753792992098
 10
1.890055608075291
 20
150.961792988234
 10
2.258055607431449
 20
150.961792988234
  0
HATCH
  5
16A
330
70
100
AcDbEntity
  8
ASHADE
 62
    18
420
        0
440
 33554687
100
AcDbHatch
 10
0.0
 20
0.0
 30
0.0
210
0.0
220
0.0
230
1.0
  2
SOLID
 70
     1
 71
     1
 91
        1
 92
        1
 93
        4
 72
     1
 10
2.258055607431449
 20
148.753792992098
 11
1.890055608075291
 21
148.753792992098
 72
     1
 10
1.890055608075291
 20
148.753792992098
 11
1.890055608075291
 21
150.961792988234
 72
     1
 10
1.890055608075291
 20
150.961792988234
 11
2.258055607431449
 21
150.961792988234
 72
     1
 10
2.258055607431449
 20
150.961792988234
 11
2.258055607431449
 21
148.753792992098
 97
        1
330
169
 75
     2
 76
     1
 98
        1
 10
0.0
 20
0.0
450
        0
451
        0
460
0.0
461
0.0
452
        0
462
0.0
453
        0
470

  0
LINE
  5
16B
330
70
100
AcDbEntity
  8
ASHADE
 62
    18
420
        0
370
    18
100
AcDbLine
 10
2.258055607431449
 20
150.961792988234
 30
0.0
 11
2.258055607431449
 21
148.753792992098
 31
0.0
  0
LINE
  5
16C
330
70
100
AcDbEntity
  8
ASHADE
 62
    18
420
        0
370
    18
100
AcDbLine
 10
1.890055608075291
 20
150.961792988234
 30
0.0
 11
1.890055608075291
 21
148.753792992098
 31
0.0
  0
LINE
  5
16D
330
70
100
AcDbEntity
  8
ASHADE
 62
    18
420
        0
370
    18
100
AcDbLine
 10
1.890055608075291
 20
150.961792988234
 30
0.0
 11
2.258055607431449
 21
150.961792988234
 31
0.0
  0
MTEXT
  5
16E
330
70
100
AcDbEntity
  8
ASHADE
100
AcDbMText
 10
18.54205565518843
 20
149.6543772853132
 30
0.0
 40
0.2
 41
0.0
 46
0.0
 71
     7
 72
     1
  1
\C18;\c0;\FMyriad Pro|b0|i0|c1;\H3.312000;\W1.000000;5
 73
     1
 44
1.0
  0
LINE
  5
16F
330
70
100
AcDbEntity
  8
ASHADE
 62
    18
420
        0
370
    18
100
AcDbLine
 10
37.0340555465736
 20
150.8198887038
 30
0.0
 11
37.0340555465736
 21
148.611888707664
 31
0.0
  0
LINE
  5
170
330
70
100
AcDbEntity
  8
ASHADE
 62
    18
420
        0
370
    18
100
AcDbLine
 10
37.40205554592912
 20
150.8198887038
 30
0.0
 11
37.40205554592912
 21
148.611888707664
 31
0.0
  0
LWPOLYLINE
  5
171
330
70
100
AcDbEntity
  8
ASHADE
100
AcDbPolyline
 90
        4
 70
     1
 43
0.0
 10
37.40205554592912
 20
148.611888707664
 10
37.0340555465736
 20
148.611888707664
 10
37.0340555465736
 20
150.8198887038
 10
37.40205554592912
 20
150.8198887038
  0
HATCH
  5
172
330
70
100
AcDbEntity
  8
ASHADE
 62
    18
420
        0
440
 33554687
100
AcDbHatch
 10
0.0
 20
0.0
 30
0.0
210
0.0
220
0.0
230
1.0
  2
SOLID
 70
     1
 71
     1
 91
        1
 92
        1
 93
        4
 72
     1
 10
37.40205554592912
 20
148.611888707664
 11
37.0340555465736
 21
148.611888707664
 72
     1
 10
37.0340555465736
 20
148.611888707664
 11
37.0340555465736
 21
150.8198887038
 72
     1
 10
37.0340555465736
 20
150.8198887038
 11
37.40205554592912
 21
150.8198887038
 72
     1
 10
37.40205554592912
 20
150.8198887038
 11
37.40205554592912
 21
148.611888707664
 97
        1
330
171
 75
     2
 76
     1
 98
        1
 10
0.0
 20
0.0
450
        0
451
        0
460
0.0
461
0.0
452
        0
462
0.0
453
        0
470

  0
LINE
  5
173
330
70
100
AcDbEntity
  8
ASHADE
 62
    18
420
        0
370
    18
100
AcDbLine
 10
37.0340555465736
 20
150.8198887038
 30
0.0
 11
37.40205554592912
 21
150.8198887038
 31
0.0
  0
LWPOLYLINE
  5
174
330
70
100
AcDbEntity
  8
ASHADE
100
AcDbPolyline
 90
        4
 70
     1
 43
0.0
 10
142.8340553614227
 20
148.611888707664
 10
142.4660553620672
 20
148.611888707664
 10
142.4660553620672
 20
150.8198887038
 10
142.8340553614227
 20
150.8198887038
  0
HATCH
  5
175
330
70
100
AcDbEntity
  8
ASHADE
 62
    18
420
        0
440
 33554687
100
AcDbHatch
 10
0.0
 20
0.0
 30
0.0
210
0.0
220
0.0
230
1.0
  2
SOLID
 70
     1
 71
     1
 91
        1
 92
        1
 93
        4
 72
     1
 10
142.8340553614227
 20
148.611888707664
 11
142.4660553620672
 21
148.611888707664
 72
     1
 10
142.4660553620672
 20
148.611888707664
 11
142.4660553620672
 21
150.8198887038
 72
     1
 10
142.4660553620672
 20
150.8198887038
 11
142.8340553614227
 21
150.8198887038
 72
     1
 10
142.8340553614227
 20
150.8198887038
 11
142.8340553614227
 21
148.611888707664
 97
        1
330
174
 75
     2
 76
     1
 98
        1
 10
0.0
 20
0.0
450
        0
451
        0
460
0.0
461
0.0
452
        0
462
0.0
453
        0
470

  0
LINE
  5
176
330
70
100
AcDbEntity
  8
ASHADE
 62
    18
420
        0
370
    18
100
AcDbLine
 10
142.4660553620672
 20
150.8198887038
 30
0.0
 11
142.8340553614227
 21
150.8198887038
 31
0.0
  0
MTEXT
  5
177
330
70
100
AcDbEntity
  8
ASHADE
100
AcDbMText
 10
53.68605336860431
 20
149.3478929782066
 30
0.0
 40
0.2
 41
0.0
 46
0.0
 71
     7
 72
     1
  1
\C18;\c0;\FMyriad Pro|b0|i0|c1;\H3.312000;\W1.000000;4
 73
     1
 44
1.0
  0
LINE
  5
178
330
70
100
AcDbEntity
  8
ASHADE
 62
    18
420
        0
370
    18
100
AcDbLine
 10
72.17805548507128
 20
150.8198887038
 30
0.0
 11
72.54605548442744
 21
150.8198887038
 31
0.0
  0
LWPOLYLINE
  5
179
330
70
100
AcDbEntity
  8
ASHADE
100
AcDbPolyline
 90
        4
 70
     1
 43
0.0
 10
72.54605548442744
 20
148.611888707664
 10
72.17805548507128
 20
148.611888707664
 10
72.17805548507128
 20
150.8198887038
 10
72.54605548442744
 20
150.8198887038
  0
HATCH
  5
17A
330
70
100
AcDbEntity
  8
ASHADE
 62
    18
420
        0
440
 33554687
100
AcDbHatch
 10
0.0
 20
0.0
 30
0.0
210
0.0
220
0.0
230
1.0
  2
SOLID
 70
     1
 71
     1
 91
        1
 92
        1
 93
        4
 72
     1
 10
72.54605548442744
 20
148.611888707664
 11
72.17805548507128
 21
148.611888707664
 72
     1
 10
72.17805548507128
 20
148.611888707664
 11
72.17805548507128
 21
150.8198887038
 72
     1
 10
72.17805548507128
 20
150.8198887038
 11
72.54605548442744
 21
150.8198887038
 72
     1
 10
72.54605548442744
 20
150.8198887038
 11
72.54605548442744
 21
148.611888707664
 97
        1
330
179
 75
     2
 76
     1
 98
        1
 10
0.0
 20
0.0
450
        0
451
        0
460
0.0
461
0.0
452
        0
462
0.0
453
        0
470

  0
LINE
  5
17B
330
70
100
AcDbEntity
  8
ASHADE
 62
    18
420
        0
370
    18
100
AcDbLine
 10
72.54605548442744
 20
150.8198887038
 30
0.0
 11
72.54605548442744
 21
148.611888707664
 31
0.0
  0
LINE
  5
17C
330
70
100
AcDbEntity
  8
ASHADE
 62
    18
420
        0
370
    18
100
AcDbLine
 10
72.17805548507128
 20
150.8198887038
 30
0.0
 11
72.17805548507128
 21
148.611888707664
 31
0.0
  0
MTEXT
  5
17D
330
70
100
AcDbEntity
  8
ASHADE
100
AcDbMText
 10
88.83005377350103
 20
149.3391941121064
 30
0.0
 40
0.2
 41
0.0
 46
0.0
 71
     7
 72
     1
  1
\C18;\c0;\FMyriad Pro|b0|i0|c1;\H3.312000;\W1.000000;3
 73
     1
 44
1.0
  0
LINE
  5
17E
330
70
100
AcDbEntity
  8
ASHADE
 62
    18
420
        0
370
    18
100
AcDbLine
 10
107.3220554235689
 20
150.961792988234
 30
0.0
 11
107.3220554235689
 21
148.753792992098
 31
0.0
  0
LINE
  5
17F
330
70
100
AcDbEntity
  8
ASHADE
 62
    18
420
        0
370
    18
100
AcDbLine
 10
107.6900554229251
 20
150.961792988234
 30
0.0
 11
107.6900554229251
 21
148.753792992098
 31
0.0
  0
LWPOLYLINE
  5
180
330
70
100
AcDbEntity
  8
ASHADE
100
AcDbPolyline
 90
        4
 70
     1
 43
0.0
 10
107.6900554229251
 20
148.753792992098
 10
107.3220554235689
 20
148.753792992098
 10
107.3220554235689
 20
150.961792988234
 10
107.6900554229251
 20
150.961792988234
  0
HATCH
  5
181
330
70
100
AcDbEntity
  8
ASHADE
 62
    18
420
        0
440
 33554687
100
AcDbHatch
 10
0.0
 20
0.0
 30
0.0
210
0.0
220
0.0
230
1.0
  2
SOLID
 70
     1
 71
     1
 91
        1
 92
        1
 93
        4
 72
     1
 10
107.6900554229251
 20
148.753792992098
 11
107.3220554235689
 21
148.753792992098
 72
     1
 10
107.3220554235689
 20
148.753792992098
 11
107.3220554235689
 21
150.961792988234
 72
     1
 10
107.3220554235689
 20
150.961792988234
 11
107.6900554229251
 21
150.961792988234
 72
     1
 10
107.6900554229251
 20
150.961792988234
 11
107.6900554229251
 21
148.753792992098
 97
        1
330
180
 75
     2
 76
     1
 98
        1
 10
0.0
 20
0.0
450
        0
451
        0
460
0.0
461
0.0
452
        0
462
0.0
453
        0
470

  0
LINE
  5
182
330
70
100
AcDbEntity
  8
ASHADE
 62
    18
420
        0
370
    18
100
AcDbLine
 10
107.3220554235689
 20
150.961792988234
 30
0.0
 11
107.6900554229251
 21
150.961792988234
 31
0.0
  0
MTEXT
  5
183
330
70
100
AcDbEntity
  8
ASHADE
100
AcDbMText
 10
123.9740541783977
 20
149.3420147840349
 30
0.0
 40
0.2
 41
0.0
 46
0.0
 71
     7
 72
     1
  1
\C18;\c0;\FMyriad Pro|b0|i0|c1;\H3.312000;\W1.000000;2
 73
     1
 44
1.0
  0
LINE
  5
184
330
70
100
AcDbEntity
  8
ASHADE
 62
    18
420
        0
370
    18
100
AcDbLine
 10
142.4660553620672
 20
150.8198887038
 30
0.0
 11
142.4660553620672
 21
148.611888707664
 31
0.0
  0
LINE
  5
185
330
70
100
AcDbEntity
  8
ASHADE
 62
    18
420
        0
370
    18
100
AcDbLine
 10
142.8340553614227
 20
150.8198887038
 30
0.0
 11
142.8340553614227
 21
148.611888707664
 31
0.0
  0
MTEXT
  5
186
330
70
100
AcDbEntity
  8
ASHADE
100
AcDbMText
 10
159.670055773342
 20
149.4897878485054
 30
0.0
 40
0.2
 41
0.0
 46
0.0
 71
     7
 72
     1
  1
\C18;\c0;\FMyriad Pro|b0|i0|c1;\H3.312000;\W1.000000;1
 73
     1
 44
1.0
  0
LINE
  5
187
330
70
100
AcDbEntity
  8
ASHADE
 62
    18
420
        0
370
    18
100
AcDbLine
 10
-103.3579442077409
 20
-43.11611095681205
 30
0.0
 11
-15.77394436101258
 21
-43.11611095681205
 31
0.0
  0
LINE
  5
188
330
70
100
AcDbEntity
  8
ASHADE
 62
    18
420
        0
370
    18
100
AcDbLine
 10
-103.3579442077409
 20
-21.0361109954522
 30
0.0
 11
-103.3579442077409
 21
-43.11611095681205
 31
0.0
  0
LINE
  5
189
330
70
100
AcDbEntity
  8
ASHADE
 62
    18
420
        0
370
    30
100
AcDbLine
 10
-79.41105979454194
 20
57.30021502697197
 30
0.0
 11
-79.41105979454194
 21
44.30021502697214
 31
0.0
  0
LINE
  5
18A
330
70
100
AcDbEntity
  8
ASHADE
 62
    18
420
        0
370
    18
100
AcDbLine
 10
-84.41105979454212
 20
31.81237686637299
 30
0.0
 11
-84.41105979454212
 21
33.81237686637306
 31
0.0
  0
LINE
  5
18B
330
70
100
AcDbEntity
  8
ASHADE
 62
    18
420
        0
370
    18
100
AcDbLine
 10
-84.41105979454212
 20
31.81237686637299
 30
0.0
 11
-84.41105979454212
 21
29.81237686637292
 31
0.0
  0
LINE
  5
18C
330
70
100
AcDbEntity
  8
ASHADE
 62
    18
420
        0
370
    18
100
AcDbLine
 10
-84.41105979454212
 20
23.46871760460904
 30
0.0
 11
-84.41105979454212
 21
14.60292076388791
 31
0.0
  0
LINE
  5
18D
330
70
100
AcDbEntity
  8
ASHADE
 62
    18
420
        0
370
    18
100
AcDbLine
 10
-82.41105979454205
 20
21.89005335936685
 30
0.0
 11
-82.41105979454205
 21
17.21152202530943
 31
0.0
  0
LINE
  5
18E
330
70
100
AcDbEntity
  8
ASHADE
 62
    18
420
        0
370
    18
100
AcDbLine
 10
-86.4110597945422
 20
18.35737001415983
 30
0.0
 11
-95.55378319547619
 21
18.35737001415983
 31
0.0
  0
LINE
  5
18F
330
70
100
AcDbEntity
  8
ASHADE
 62
    18
420
        0
370
    18
100
AcDbLine
 10
-80.41105979454199
 20
18.35737001415983
 30
0.0
 11
-79.15848024394894
 21
18.35737001415983
 31
0.0
  0
LINE
  5
190
330
70
100
AcDbEntity
  8
ASHADE
 62
    18
420
        0
370
    18
100
AcDbLine
 10
-84.41105979454212
 20
18.35737001415983
 30
0.0
 11
-80.44399338436013
 21
18.35737001415983
 31
0.0
  0
LWPOLYLINE
  5
191
330
70
100
AcDbEntity
  8
ASHADE
100
AcDbPolyline
 90
        4
 70
     1
 43
0.0
 10
-86.4110597945422
 20
18.69070334749318
 10
-86.4110597945422
 20
18.02403668082648
 10
-84.41105979454212
 20
18.35737001415983
 10
-84.41105979454212
 20
18.35737001415983
  0
HATCH
  5
192
330
70
100
AcDbEntity
  8
ASHADE
 62
    18
420
        0
440
 33554687
100
AcDbHatch
 10
0.0
 20
0.0
 30
0.0
210
0.0
220
0.0
230
1.0
  2
SOLID
 70
     1
 71
     1
 91
        1
 92
        1
 93
        3
 72
     1
 10
-86.4110597945422
 20
18.69070334749318
 11
-86.4110597945422
 21
18.02403668082648
 72
     1
 10
-86.4110597945422
 20
18.02403668082648
 11
-84.41105979454212
 21
18.35737001415983
 72
     1
 10
-84.41105979454212
 20
18.35737001415983
 11
-86.4110597945422
 21
18.69070334749318
 97
        1
330
191
 75
     2
 76
     1
 98
        1
 10
0.0
 20
0.0
450
        0
451
        0
460
0.0
461
0.0
452
        0
462
0.0
453
        0
470

  0
LWPOLYLINE
  5
193
330
70
100
AcDbEntity
  8
ASHADE
100
AcDbPolyline
 90
        4
 70
     1
 43
0.0
 10
-80.41105979454199
 20
18.69070334749318
 10
-80.41105979454199
 20
18.02403668082648
 10
-82.41105979454205
 20
18.35737001415983
 10
-82.41105979454205
 20
18.35737001415983
  0
HATCH
  5
194
330
70
100
AcDbEntity
  8
ASHADE
 62
    18
420
        0
440
 33554687
100
AcDbHatch
 10
0.0
 20
0.0
 30
0.0
210
0.0
220
0.0
230
1.0
  2
SOLID
 70
     1
 71
     1
 91
        1
 92
        1
 93
        3
 72
     1
 10
-80.41105979454199
 20
18.69070334749318
 11
-80.41105979454199
 21
18.02403668082648
 72
     1
 10
-80.41105979454199
 20
18.02403668082648
 11
-82.41105979454205
 21
18.35737001415983
 72
     1
 10
-82.41105979454205
 20
18.35737001415983
 11
-80.41105979454199
 21
18.69070334749318
 97
        1
330
193
 75
     2
 76
     1
 98
        1
 10
0.0
 20
0.0
450
        0
451
        0
460
0.0
461
0.0
452
        0
462
0.0
453
        0
470

  0
MTEXT
  5
195
330
70
100
AcDbEntity
  8
ASHADE
100
AcDbMText
 10
-95.22675634758547
 20
19.42963202308652
 30
0.0
 40
0.2
 41
0.0
 46
0.0
 71
     7
 72
     1
  1
\C18;\c0;\FMyriad Pro|b0|i0|c1;\H2.500000;\W1.000000;2x45°
 73
     1
 44
1.0
  0
MTEXT
  5
196
330
70
100
AcDbEntity
  8
ASHADE
100
AcDbMText
 10
117.0047444368946
 20
134.9962388442891
 30
0.0
 40
0.2
 41
0.0
 46
0.0
 71
     7
 72
     1
  1
\C18;\c0;\FMyriad Pro|b0|i0|c1;\H2.997200;\W1.000000;Z.KS.SA.AMP8401
 73
     1
 44
1.0
  0
MTEXT
  5
198
330
70
100
AcDbEntity
  8
4
100
AcDbMText
 10
162.401548175477
 20
56.57742511606462
 30
0.0
 40
0.2
 41
0.0
 46
0.0
 71
     7
 72
     1
  1
\C18;\c0;\FMyriad Pro|b0|i0|c1;\H1.500000;\W1.000000;+0.03
 11
-0.0000000000000002
 21
1.0
 31
0.0
 73
     1
 44
1.0
  0
MTEXT
  5
199
330
70
100
AcDbEntity
  8
4
100
AcDbMText
 10
160.5167041377266
 20
56.57742511606462
 30
0.0
 40
0.2
 41
0.0
 46
0.0
 71
     7
 72
     1
  1
\C18;\c0;\FMyriad Pro|b0|i0|c1;\H1.500000;\W1.000000;+0.01
 11
-0.0000000000000002
 21
1.0
 31
0.0
 73
     1
 44
1.0
  0
ENDSEC
  0
SECTION
  2
OBJECTS
  0
DICTIONARY
  5
C
330
0
100
AcDbDictionary
281
     1
  3
ACAD_COLOR
350
63
  3
ACAD_DETAILVIEWSTYLE
350
6A
  3
ACAD_GROUP
350
D
  3
ACAD_LAYOUT
350
62
  3
ACAD_MATERIAL
350
10
  3
ACAD_MLEADERSTYLE
350
66
  3
ACAD_MLINESTYLE
350
5F
  3
ACAD_PLOTSETTINGS
350
61
  3
ACAD_PLOTSTYLENAME
350
E
  3
ACAD_SCALELIST
350
42
  3
ACAD_SECTIONVIEWSTYLE
350
68
  3
ACAD_TABLESTYLE
350
64
  3
ACAD_VISUALSTYLE
350
29
  3
ACDB_RECOMPOSE_DATA
350
1A4
  3
AcDbVariableDictionary
350
19A
  0
DICTIONARY
  5
63
102
{ACAD_REACTORS
330
C
102
}
330
C
100
AcDbDictionary
281
     1
  0
DICTIONARY
  5
6A
102
{ACAD_REACTORS
330
C
102
}
330
C
100
AcDbDictionary
281
     1
  3
Imperial24
350
6B
  0
DICTIONARY
  5
D
102
{ACAD_REACTORS
330
C
102
}
330
C
100
AcDbDictionary
281
     1
  0
DICTIONARY
  5
62
102
{ACAD_REACTORS
330
C
102
}
330
C
100
AcDbDictionary
281
     1
  3
Layout1
350
6F
  3
Layout2
350
77
  3
Model
350
73
  0
DICTIONARY
  5
10
102
{ACAD_REACTORS
330
C
102
}
330
C
100
AcDbDictionary
281
     1
  3
ByBlock
350
19
  3
ByLayer
350
11
  3
Global
350
21
  0
DICTIONARY
  5
66
102
{ACAD_REACTORS
330
C
102
}
330
C
100
AcDbDictionary
281
     1
  3
Standard
350
67
  0
DICTIONARY
  5
5F
102
{ACAD_REACTORS
330
C
102
}
330
C
100
AcDbDictionary
281
     1
  3
Standard
350
60
  0
DICTIONARY
  5
61
102
{ACAD_REACTORS
330
C
102
}
330
C
100
AcDbDictionary
281
     1
  0
ACDBDICTIONARYWDFLT
  5
E
102
{ACAD_REACTORS
330
C
102
}
330
C
100
AcDbDictionary
281
     1
  3
Normal
350
F
100
AcDbDictionaryWithDefault
340
F
  0
DICTIONARY
  5
42
102
{ACAD_REACTORS
330
C
102
}
330
C
100
AcDbDictionary
281
     1
  3
A0
350
43
  3
A1
350
44
  3
A2
350
45
  3
A3
350
46
  3
A4
350
47
  3
A5
350
48
  3
A6
350
49
  3
A7
350
4A
  3
A8
350
4B
  3
A9
350
4C
  3
B0
350
4D
  3
B1
350
4E
  3
B2
350
4F
  3
B3
350
50
  3
B4
350
51
  3
B5
350
52
  3
B6
350
53
  0
DICTIONARY
  5
68
102
{ACAD_REACTORS
330
C
102
}
330
C
100
AcDbDictionary
281
     1
  3
Imperial24
350
69
  0
DICTIONARY
  5
64
102
{ACAD_REACTORS
330
C
102
}
330
C
100
AcDbDictionary
281
     1
  3
Standard
350
65
  0
DICTIONARY
  5
29
102
{ACAD_REACTORS
330
C
102
}
330
C
100
AcDbDictionary
281
     1
  3
2dWireframe
350
2F
  3
Basic
350
2E
  3
Brighten
350
35
  3
ColorChange
350
39
  3
Conceptual
350
32
  3
Dim
350
34
  3
EdgeColorOff
350
41
  3
Facepattern
350
38
  3
Flat
350
2A
  3
FlatWithEdges
350
2B
  3
Gouraud
350
2C
  3
GouraudWithEdges
350
2D
  3
Hidden
350
31
  3
JitterOff
350
3F
  3
Linepattern
350
37
  3
OverhangOff
350
40
  3
Realistic
350
33
  3
Shaded
350
3E
  3
Shaded with edges
350
3D
  3
Shades of Gray
350
3A
  3
Sketchy
350
3B
  3
Thicken
350
36
  3
Wireframe
350
30
  3
X-Ray
350
3C
  0
XRECORD
  5
1A4
102
{ACAD_REACTORS
330
C
102
}
330
C
100
AcDbXrecord
280
     1
 90
        1
330
65
  0
DICTIONARY
  5
19A
102
{ACAD_REACTORS
330
C
102
}
330
C
100
AcDbDictionary
281
     1
  3
CANNOSCALE
350
19F
  3
CMLEADERSTYLE
350
19C
  3
CTABLESTYLE
350
19B
  3
CVIEWDETAILSTYLE
350
19D
  3
CVIEWSECTIONSTYLE
350
19E
  0
ACDBDETAILVIEWSTYLE
  5
6B
102
{ACAD_XDICTIONARY
360
1D9
102
}
102
{ACAD_REACTORS
330
6A
102
}
330
6A
100
AcDbModelDocViewStyle
 70
     0
  3
Imperial24
290
     0
100
AcDbDetailViewStyle
 70
     0
 71
     0
 90
        3
 71
     1
340
55
 62
   256
 40
0.24
340
0
 62
   256
 40
0.24
300

 40
0.36
280
     3
 71
     2
340
5D
 90
       25
 62
   256
 71
     3
340
55
 62
   256
 40
0.24
 90
        1
 40
0.75
 90
        1
300
%<\AcVar ViewType \f "%tc1">% %<\AcVar ViewDetailId>%\PSCALE %<\AcVar ViewScale \f "%sn">%
 71
     4
340
5D
 90
       25
 62
   256
340
5D
 90
       25
 62
   256
280
     0
  0
LAYOUT
  5
6F
102
{ACAD_REACTORS
330
62
102
}
330
62
100
AcDbPlotSettings
  1

  2

  4

  6

 40
0.0
 41
0.0
 42
0.0
 43
0.0
 44
0.0
 45
0.0
 46
0.0
 47
0.0
 48
0.0
 49
0.0
140
0.0
141
0.0
142
1.0
143
1.0
 70
   688
 72
     0
 73
     0
 74
     5
  7

 75
    16
147
1.0
 76
     0
 77
     2
 78
   300
148
0.0
149
0.0
100
AcDbLayout
  1
Layout1
 70
     1
 71
     1
 10
0.0
 20
0.0
 11
12.0
 21
9.0
 12
0.0
 22
0.0
 32
0.0
 14
0.0
 24
0.0
 34
0.0
 15
0.0
 25
0.0
 35
0.0
146
0.0
 13
0.0
 23
0.0
 33
0.0
 16
1.0
 26
0.0
 36
0.0
 17
0.0
 27
1.0
 37
0.0
 76
     0
330
6C
  0
LAYOUT
  5
77
102
{ACAD_REACTORS
330
62
102
}
330
62
100
AcDbPlotSettings
  1

  2

  4

  6

 40
0.0
 41
0.0
 42
0.0
 43
0.0
 44
0.0
 45
0.0
 46
0.0
 47
0.0
 48
0.0
 49
0.0
140
0.0
141
0.0
142
1.0
143
1.0
 70
   688
 72
     0
 73
     0
 74
     5
  7

 75
    16
147
1.0
 76
     0
 77
     2
 78
   300
148
0.0
149
0.0
100
AcDbLayout
  1
Layout2
 70
     1
 71
     2
 10
0.0
 20
0.0
 11
12.0
 21
9.0
 12
0.0
 22
0.0
 32
0.0
 14
0.0
 24
0.0
 34
0.0
 15
0.0
 25
0.0
 35
0.0
146
0.0
 13
0.0
 23
0.0
 33
0.0
 16
1.0
 26
0.0
 36
0.0
 17
0.0
 27
1.0
 37
0.0
 76
     0
330
74
  0
LAYOUT
  5
73
102
{ACAD_REACTORS
330
62
102
}
330
62
100
AcDbPlotSettings
  1

  2

  4

  6

 40
0.0
 41
0.0
 42
0.0
 43
0.0
 44
0.0
 45
0.0
 46
0.0
 47
0.0
 48
0.0
 49
0.0
140
0.0
141
0.0
142
1.0
143
1.0
 70
  1712
 72
     0
 73
     0
 74
     0
  7

 75
     0
147
1.0
 76
     0
 77
     2
 78
   300
148
0.0
149
0.0
100
AcDbLayout
  1
Model
 70
     1
 71
     0
 10
0.0
 20
0.0
 11
12.0
 21
9.0
 12
0.0
 22
0.0
 32
0.0
 14
0.0
 24
0.0
 34
0.0
 15
0.0
 25
0.0
 35
0.0
146
0.0
 13
0.0
 23
0.0
 33
0.0
 16
1.0
 26
0.0
 36
0.0
 17
0.0
 27
1.0
 37
0.0
 76
     0
330
70
  0
MATERIAL
  5
19
102
{ACAD_XDICTIONARY
360
1A
102
}
102
{ACAD_REACTORS
330
10
102
}
330
10
100
AcDbMaterial
  1
ByBlock
 72
     0
 43
0.0208333333333333
 43
0.0
 43
0.0
 43
0.0
 43
0.0
 43
0.0208333333333333
 43
0.0
 43
0.0
 43
0.0
 43
0.0
 43
1.0
 43
0.0
 43
0.0
 43
0.0
 43
0.0
 43
1.0
 77
     0
 47
0.0208333333333333
 47
0.0
 47
0.0
 47
0.0
 47
0.0
 47
0.0208333333333333
 47
0.0
 47
0.0
 47
0.0
 47
0.0
 47
1.0
 47
0.0
 47
0.0
 47
0.0
 47
0.0
 47
1.0
171
     0
 49
0.0208333333333333
 49
0.0
 49
0.0
 49
0.0
 49
0.0
 49
0.0208333333333333
 49
0.0
 49
0.0
 49
0.0
 49
0.0
 49
1.0
 49
0.0
 49
0.0
 49
0.0
 49
0.0
 49
1.0
175
     0
142
0.0208333333333333
142
0.0
142
0.0
142
0.0
142
0.0
142
0.0208333333333333
142
0.0
142
0.0
142
0.0
142
0.0
142
1.0
142
0.0
142
0.0
142
0.0
142
0.0
142
1.0
179
     0
144
0.0208333333333333
144
0.0
144
0.0
144
0.0
144
0.0
144
0.0208333333333333
144
0.0
144
0.0
144
0.0
144
0.0
144
1.0
144
0.0
144
0.0
144
0.0
144
0.0
144
1.0
147
0.0208333333333333
147
0.0
147
0.0
147
0.0
147
0.0
147
0.0208333333333333
147
0.0
147
0.0
147
0.0
147
0.0
147
1.0
147
0.0
147
0.0
147
0.0
147
0.0
147
1.0
  0
MATERIAL
  5
11
102
{ACAD_XDICTIONARY
360
12
102
}
102
{ACAD_REACTORS
330
10
102
}
330
10
100
AcDbMaterial
  1
ByLayer
 72
     0
 43
0.0208333333333333
 43
0.0
 43
0.0
 43
0.0
 43
0.0
 43
0.0208333333333333
 43
0.0
 43
0.0
 43
0.0
 43
0.0
 43
1.0
 43
0.0
 43
0.0
 43
0.0
 43
0.0
 43
1.0
 77
     0
 47
0.0208333333333333
 47
0.0
 47
0.0
 47
0.0
 47
0.0
 47
0.0208333333333333
 47
0.0
 47
0.0
 47
0.0
 47
0.0
 47
1.0
 47
0.0
 47
0.0
 47
0.0
 47
0.0
 47
1.0
171
     0
 49
0.0208333333333333
 49
0.0
 49
0.0
 49
0.0
 49
0.0
 49
0.0208333333333333
 49
0.0
 49
0.0
 49
0.0
 49
0.0
 49
1.0
 49
0.0
 49
0.0
 49
0.0
 49
0.0
 49
1.0
175
     0
142
0.0208333333333333
142
0.0
142
0.0
142
0.0
142
0.0
142
0.0208333333333333
142
0.0
142
0.0
142
0.0
142
0.0
142
1.0
142
0.0
142
0.0
142
0.0
142
0.0
142
1.0
179
     0
144
0.0208333333333333
144
0.0
144
0.0
144
0.0
144
0.0
144
0.0208333333333333
144
0.0
144
0.0
144
0.0
144
0.0
144
1.0
144
0.0
144
0.0
144
0.0
144
0.0
144
1.0
147
0.0208333333333333
147
0.0
147
0.0
147
0.0
147
0.0
147
0.0208333333333333
147
0.0
147
0.0
147
0.0
147
0.0
147
1.0
147
0.0
147
0.0
147
0.0
147
0.0
147
1.0
  0
MATERIAL
  5
21
102
{ACAD_XDICTIONARY
360
22
102
}
102
{ACAD_REACTORS
330
10
102
}
330
10
100
AcDbMaterial
  1
Global
 72
     0
 43
0.0208333333333333
 43
0.0
 43
0.0
 43
0.0
 43
0.0
 43
0.0208333333333333
 43
0.0
 43
0.0
 43
0.0
 43
0.0
 43
1.0
 43
0.0
 43
0.0
 43
0.0
 43
0.0
 43
1.0
 77
     0
 47
0.0208333333333333
 47
0.0
 47
0.0
 47
0.0
 47
0.0
 47
0.0208333333333333
 47
0.0
 47
0.0
 47
0.0
 47
0.0
 47
1.0
 47
0.0
 47
0.0
 47
0.0
 47
0.0
 47
1.0
171
     0
 49
0.0208333333333333
 49
0.0
 49
0.0
 49
0.0
 49
0.0
 49
0.0208333333333333
 49
0.0
 49
0.0
 49
0.0
 49
0.0
 49
1.0
 49
0.0
 49
0.0
 49
0.0
 49
0.0
 49
1.0
175
     0
142
0.0208333333333333
142
0.0
142
0.0
142
0.0
142
0.0
142
0.0208333333333333
142
0.0
142
0.0
142
0.0
142
0.0
142
1.0
142
0.0
142
0.0
142
0.0
142
0.0
142
1.0
179
     0
144
0.0208333333333333
144
0.0
144
0.0
144
0.0
144
0.0
144
0.0208333333333333
144
0.0
144
0.0
144
0.0
144
0.0
144
1.0
144
0.0
144
0.0
144
0.0
144
0.0
144
1.0
147
0.0208333333333333
147
0.0
147
0.0
147
0.0
147
0.0
147
0.0208333333333333
147
0.0
147
0.0
147
0.0
147
0.0
147
1.0
147
0.0
147
0.0
147
0.0
147
0.0
147
1.0
  0
MLEADERSTYLE
  5
67
102
{ACAD_XDICTIONARY
360
1D5
102
}
102
{ACAD_REACTORS
330
66
102
}
330
66
100
AcDbMLeaderStyle
179
     2
170
     2
171
     1
172
     0
 90
        2
 40
0.0
 41
0.0
173
     1
 91
-1056964608
340
5B
 92
       -2
290
     1
 42
0.09
291
     1
 43
0.36
  3
Standard
 44
0.18
300

342
55
174
     1
178
     6
175
     1
176
     0
 93
-1056964608
 45
0.18
292
     0
297
     0
 46
0.18
 94
-1056964608
 47
1.0
 49
1.0
140
1.0
293
     1
141
0.0
294
     1
177
     0
142
1.0
295
     0
296
     0
143
0.125
271
     0
272
     9
273
     9
  0
MLINESTYLE
  5
60
102
{ACAD_REACTORS
330
5F
102
}
330
5F
100
AcDbMlineStyle
  2
STANDARD
 70
     0
  3

 62
   256
 51
90.0
 52
90.0
 71
     2
 49
0.5
 62
   256
  6
BYLAYER
 49
-0.5
 62
   256
  6
BYLAYER
  0
ACDBPLACEHOLDER
  5
F
102
{ACAD_REACTORS
330
E
102
}
330
E
  0
SCALE
  5
43
102
{ACAD_REACTORS
330
42
102
}
330
42
100
AcDbScale
 70
     0
300
1:1
140
1.0
141
1.0
290
     1
  0
SCALE
  5
44
102
{ACAD_REACTORS
330
42
102
}
330
42
100
AcDbScale
 70
     0
300
1/128" = 1'-0"
140
0.0078125
141
12.0
290
     0
  0
SCALE
  5
45
102
{ACAD_REACTORS
330
42
102
}
330
42
100
AcDbScale
 70
     0
300
1/64" = 1'-0"
140
0.015625
141
12.0
290
     0
  0
SCALE
  5
46
102
{ACAD_REACTORS
330
42
102
}
330
42
100
AcDbScale
 70
     0
300
1/32" = 1'-0"
140
0.03125
141
12.0
290
     0
  0
SCALE
  5
47
102
{ACAD_REACTORS
330
42
102
}
330
42
100
AcDbScale
 70
     0
300
1/16" = 1'-0"
140
0.0625
141
12.0
290
     0
  0
SCALE
  5
48
102
{ACAD_REACTORS
330
42
102
}
330
42
100
AcDbScale
 70
     0
300
3/32" = 1'-0"
140
0.09375
141
12.0
290
     0
  0
SCALE
  5
49
102
{ACAD_REACTORS
330
42
102
}
330
42
100
AcDbScale
 70
     0
300
1/8" = 1'-0"
140
0.125
141
12.0
290
     0
  0
SCALE
  5
4A
102
{ACAD_REACTORS
330
42
102
}
330
42
100
AcDbScale
 70
     0
300
3/16" = 1'-0"
140
0.1875
141
12.0
290
     0
  0
SCALE
  5
4B
102
{ACAD_REACTORS
330
42
102
}
330
42
100
AcDbScale
 70
     0
300
1/4" = 1'-0"
140
0.25
141
12.0
290
     0
  0
SCALE
  5
4C
102
{ACAD_REACTORS
330
42
102
}
330
42
100
AcDbScale
 70
     0
300
3/8" = 1'-0"
140
0.375
141
12.0
290
     0
  0
SCALE
  5
4D
102
{ACAD_REACTORS
330
42
102
}
330
42
100
AcDbScale
 70
     0
300
1/2" = 1'-0"
140
0.5
141
12.0
290
     0
  0
SCALE
  5
4E
102
{ACAD_REACTORS
330
42
102
}
330
42
100
AcDbScale
 70
     0
300
3/4" = 1'-0"
140
0.75
141
12.0
290
     0
  0
SCALE
  5
4F
102
{ACAD_REACTORS
330
42
102
}
330
42
100
AcDbScale
 70
     0
300
1" = 1'-0"
140
1.0
141
12.0
290
     0
  0
SCALE
  5
50
102
{ACAD_REACTORS
330
42
102
}
330
42
100
AcDbScale
 70
     0
300
1-1/2" = 1'-0"
140
1.5
141
12.0
290
     0
  0
SCALE
  5
51
102
{ACAD_REACTORS
330
42
102
}
330
42
100
AcDbScale
 70
     0
300
3" = 1'-0"
140
3.0
141
12.0
290
     0
  0
SCALE
  5
52
102
{ACAD_REACTORS
330
42
102
}
330
42
100
AcDbScale
 70
     0
300
6" = 1'-0"
140
6.0
141
12.0
290
     0
  0
SCALE
  5
53
102
{ACAD_REACTORS
330
42
102
}
330
42
100
AcDbScale
 70
     0
300
1'-0" = 1'-0"
140
12.0
141
12.0
290
     0
  0
ACDBSECTIONVIEWSTYLE
  5
69
102
{ACAD_XDICTIONARY
360
1D7
102
}
102
{ACAD_REACTORS
330
68
102
}
330
68
100
AcDbModelDocViewStyle
 70
     0
  3
Imperial24
290
     0
100
AcDbSectionViewStyle
 70
     0
 71
     0
 90
       78
 71
     1
340
55
 62
   256
 40
0.24
340
0
340
0
 62
   256
 40
0.24
300
I, O, Q, S, X, Z
 40
0.48
 90
        3
 40
0.18
 90
        1
 71
     2
340
5D
 90
       25
 62
   256
340
5D
 90
       50
 62
   256
 40
0.24
 40
0.0
 40
0.24
 71
     3
340
55
 62
   256
 40
0.24
 90
        1
 40
0.75
 90
        1
300
%<\AcVar ViewType \f "%tc1">% %<\AcVar ViewSectionStartId>%-%<\AcVar ViewSectionEndId>%\PSCALE %<\AcVar ViewScale \f "%sn">%
 71
     4
 62
   256
 62
   257
300
ANSI31
 40
1.0
 90
        0
290
     0
290
     0
 90
        6
 40
0.0
 40
1.570796326794896
 40
0.2617993877991494
 40
1.308996938995747
 40
-0.2617993877991494
 40
1.832595714594046
  0
TABLESTYLE
  5
65
102
{ACAD_XDICTIONARY
360
1A0
102
}
102
{ACAD_REACTORS
330
64
102
}
330
64
100
AcDbTableStyle
280
     0
  3
Standard
 70
     0
 71
     0
 40
0.06
 41
0.06
280
     0
281
     0
  7
Standard
140
0.18
170
     2
 62
     0
 63
     7
283
     0
 90
      512
 91
        0
  1

274
    -2
284
     1
 64
     0
275
    -2
285
     1
 65
     0
276
    -2
286
     1
 66
     0
277
    -2
287
     1
 67
     0
278
    -2
288
     1
 68
     0
279
    -2
289
     1
 69
     0
  7
Standard
140
0.25
170
     5
 62
     0
 63
     7
283
     0
 90
      512
 91
        0
  1

274
    -2
284
     1
 64
     0
275
    -2
285
     1
 65
     0
276
    -2
286
     1
 66
     0
277
    -2
287
     1
 67
     0
278
    -2
288
     1
 68
     0
279
    -2
289
     1
 69
     0
  7
Standard
140
0.18
170
     5
 62
     0
 63
     7
283
     0
 90
      512
 91
        0
  1

274
    -2
284
     1
 64
     0
275
    -2
285
     1
 65
     0
276
    -2
286
     1
 66
     0
277
    -2
287
     1
 67
     0
278
    -2
288
     1
 68
     0
279
    -2
289
     1
 69
     0
  0
VISUALSTYLE
  5
2F
102
{ACAD_XDICTIONARY
360
1AF
102
}
102
{ACAD_REACTORS
330
29
102
}
330
29
100
AcDbVisualStyle
  2
2dWireframe
 70
     4
177
     2
291
     0
 71
     0
176
     1
 72
     2
176
     1
 73
     0
176
     1
 90
        0
176
     1
 40
0.6
176
     1
 41
30.0
176
     1
 63
     7
421
 16777215
176
     1
 74
     1
176
     1
 91
        4
176
     1
 64
     7
176
     1
 65
   257
176
     1
 75
     1
176
     1
175
     1
176
     1
 42
1.0
176
     1
 92
        0
176
     1
 66
   257
176
     1
 43
1.0
176
     1
 76
     1
176
     1
 77
     6
176
     1
 78
     2
176
     1
 67
     7
176
     1
 79
     5
176
     1
170
     0
176
     1
171
     0
176
     1
290
     0
176
     1
 93
        1
176
     1
 44
0.0
176
     1
173
     0
176
     1
1001
ACAD
1000
AcDbSavedByObjectVersion
1070
     0
  0
VISUALSTYLE
  5
2E
102
{ACAD_XDICTIONARY
360
1AD
102
}
102
{ACAD_REACTORS
330
29
102
}
330
29
100
AcDbVisualStyle
  2
Basic
 70
     7
177
     2
291
     1
 71
     1
176
     1
 72
     0
176
     1
 73
     1
176
     1
 90
        0
176
     1
 40
0.6
176
     1
 41
30.0
176
     1
 63
     7
421
 16777215
176
     1
 74
     0
176
     1
 91
        4
176
     1
 64
     7
176
     1
 65
   257
176
     1
 75
     1
176
     1
175
     1
176
     1
 42
1.0
176
     1
 92
        8
176
     1
 66
     7
176
     1
 43
1.0
176
     1
 76
     1
176
     1
 77
     6
176
     1
 78
     2
176
     1
 67
     7
176
     1
 79
     5
176
     1
170
     0
176
     1
171
     0
176
     1
290
     0
176
     1
 93
        1
176
     1
 44
0.0
176
     1
173
     0
176
     1
1001
ACAD
1000
AcDbSavedByObjectVersion
1070
     0
  0
VISUALSTYLE
  5
35
102
{ACAD_XDICTIONARY
360
1BB
102
}
102
{ACAD_REACTORS
330
29
102
}
330
29
100
AcDbVisualStyle
  2
Brighten
 70
    12
177
     2
291
     1
 71
     2
176
     1
 72
     2
176
     1
 73
     0
176
     1
 90
        0
176
     1
 40
0.6
176
     1
 41
30.0
176
     1
 63
     7
421
 16777215
176
     1
 74
     1
176
     1
 91
        4
176
     1
 64
     7
176
     1
 65
   257
176
     1
 75
     1
176
     1
175
     1
176
     1
 42
1.0
176
     1
 92
        8
176
     1
 66
     7
176
     1
 43
1.0
176
     1
 76
     1
176
     1
 77
     6
176
     1
 78
     2
176
     1
 67
     7
176
     1
 79
     5
176
     1
170
     0
176
     1
171
     0
176
     1
290
     0
176
     1
 93
        1
176
     1
 44
50.0
176
     1
173
     0
176
     1
1001
ACAD
1000
AcDbSavedByObjectVersion
1070
     0
  0
VISUALSTYLE
  5
39
102
{ACAD_XDICTIONARY
360
1C3
102
}
102
{ACAD_REACTORS
330
29
102
}
330
29
100
AcDbVisualStyle
  2
ColorChange
 70
    16
177
     2
291
     1
 71
     2
176
     1
 72
     2
176
     1
 73
     3
176
     1
 90
        0
176
     1
 40
0.6
176
     1
 41
30.0
176
     1
 63
     8
421
  8421504
176
     1
 74
     1
176
     1
 91
        4
176
     1
 64
     7
176
     1
 65
   257
176
     1
 75
     1
176
     1
175
     1
176
     1
 42
1.0
176
     1
 92
        8
176
     1
 66
     8
424
  8421504
176
     1
 43
1.0
176
     1
 76
     1
176
     1
 77
     6
176
     1
 78
     2
176
     1
 67
     7
176
     1
 79
     5
176
     1
170
     0
176
     1
171
     0
176
     1
290
     0
176
     1
 93
        1
176
     1
 44
0.0
176
     1
173
     0
176
     1
1001
ACAD
1000
AcDbSavedByObjectVersion
1070
     0
  0
VISUALSTYLE
  5
32
102
{ACAD_XDICTIONARY
360
1B5
102
}
102
{ACAD_REACTORS
330
29
102
}
330
29
100
AcDbVisualStyle
  2
Conceptual
 70
     9
177
     2
291
     0
 71
     3
176
     1
 72
     2
176
     1
 73
     0
176
     1
 90
        0
176
     1
 40
0.6
176
     1
 41
30.0
176
     1
 63
     7
421
 16777215
176
     1
 74
     2
176
     1
 91
        2
176
     1
 64
     7
176
     1
 65
   257
176
     1
 75
     1
176
     1
175
     1
176
     1
 42
179.0
176
     1
 92
        8
176
     1
 66
     7
176
     1
 43
1.0
176
     1
 76
     1
176
     1
 77
     6
176
     1
 78
     2
176
     1
 67
     7
176
     1
 79
     3
176
     1
170
     0
176
     1
171
     0
176
     1
290
     0
176
     1
 93
        1
176
     1
 44
0.0
176
     1
173
     0
176
     1
1001
ACAD
1000
AcDbSavedByObjectVersion
1070
     0
  0
VISUALSTYLE
  5
34
102
{ACAD_XDICTIONARY
360
1B9
102
}
102
{ACAD_REACTORS
330
29
102
}
330
29
100
AcDbVisualStyle
  2
Dim
 70
    11
177
     2
291
     1
 71
     2
176
     1
 72
     2
176
     1
 73
     0
176
     1
 90
        0
176
     1
 40
0.6
176
     1
 41
30.0
176
     1
 63
     7
421
 16777215
176
     1
 74
     1
176
     1
 91
        4
176
     1
 64
     7
176
     1
 65
   257
176
     1
 75
     1
176
     1
175
     1
176
     1
 42
1.0
176
     1
 92
        8
176
     1
 66
     7
176
     1
 43
1.0
176
     1
 76
     1
176
     1
 77
     6
176
     1
 78
     2
176
     1
 67
     7
176
     1
 79
     5
176
     1
170
     0
176
     1
171
     0
176
     1
290
     0
176
     1
 93
        1
176
     1
 44
-50.0
176
     1
173
     0
176
     1
1001
ACAD
1000
AcDbSavedByObjectVersion
1070
     0
  0
VISUALSTYLE
  5
41
102
{ACAD_XDICTIONARY
360
1D3
102
}
102
{ACAD_REACTORS
330
29
102
}
330
29
100
AcDbVisualStyle
  2
EdgeColorOff
 70
    22
177
     2
291
     1
 71
     2
176
     0
 72
     2
176
     0
 73
     0
176
     0
 90
        0
176
     0
 40
0.6
176
     0
 41
30.0
176
     0
 63
     7
421
 16777215
176
     0
 74
     1
176
     0
 91
        4
176
     0
 64
     7
176
     0
 65
   257
176
     0
 75
     1
176
     0
175
     1
176
     0
 42
1.0
176
     0
 92
        8
176
     2
 66
     7
176
     0
 43
1.0
176
     0
 76
     1
176
     0
 77
     6
176
     0
 78
     2
176
     0
 67
     7
176
     0
 79
     5
176
     0
170
     0
176
     0
171
     0
176
     0
290
     0
176
     0
 93
        1
176
     0
 44
0.0
176
     0
173
     0
176
     0
1001
ACAD
1000
AcDbSavedByObjectVersion
1070
     0
  0
VISUALSTYLE
  5
38
102
{ACAD_XDICTIONARY
360
1C1
102
}
102
{ACAD_REACTORS
330
29
102
}
330
29
100
AcDbVisualStyle
  2
Facepattern
 70
    15
177
     2
291
     1
 71
     2
176
     1
 72
     2
176
     1
 73
     0
176
     1
 90
        0
176
     1
 40
0.6
176
     1
 41
30.0
176
     1
 63
     7
421
 16777215
176
     1
 74
     1
176
     1
 91
        4
176
     1
 64
     7
176
     1
 65
   257
176
     1
 75
     1
176
     1
175
     1
176
     1
 42
1.0
176
     1
 92
        8
176
     1
 66
     7
176
     1
 43
1.0
176
     1
 76
     1
176
     1
 77
     6
176
     1
 78
     2
176
     1
 67
     7
176
     1
 79
     5
176
     1
170
     0
176
     1
171
     0
176
     1
290
     0
176
     1
 93
        1
176
     1
 44
0.0
176
     1
173
     0
176
     1
1001
ACAD
1000
AcDbSavedByObjectVersion
1070
     0
  0
VISUALSTYLE
  5
2A
102
{ACAD_XDICTIONARY
360
1A5
102
}
102
{ACAD_REACTORS
330
29
102
}
330
29
100
AcDbVisualStyle
  2
Flat
 70
     0
177
     2
291
     1
 71
     2
176
     1
 72
     1
176
     1
 73
     1
176
     1
 90
        2
176
     1
 40
0.6
176
     1
 41
30.0
176
     1
 63
     7
421
 16777215
176
     1
 74
     0
176
     1
 91
        0
176
     1
 64
     7
176
     1
 65
   257
176
     1
 75
     1
176
     1
175
     1
176
     1
 42
1.0
176
     1
 92
        8
176
     1
 66
     7
176
     1
 43
1.0
176
     1
 76
     1
176
     1
 77
     6
176
     1
 78
     2
176
     1
 67
     7
176
     1
 79
     5
176
     1
170
     0
176
     1
171
     0
176
     1
290
     0
176
     1
 93
       13
176
     1
 44
0.0
176
     1
173
     0
176
     1
1001
ACAD
1000
AcDbSavedByObjectVersion
1070
     0
  0
VISUALSTYLE
  5
2B
102
{ACAD_XDICTIONARY
360
1A7
102
}
102
{ACAD_REACTORS
330
29
102
}
330
29
100
AcDbVisualStyle
  2
FlatWithEdges
 70
     1
177
     2
291
     1
 71
     2
176
     1
 72
     1
176
     1
 73
     1
176
     1
 90
        2
176
     1
 40
0.6
176
     1
 41
30.0
176
     1
 63
     7
421
 16777215
176
     1
 74
     1
176
     1
 91
        0
176
     1
 64
     7
176
     1
 65
   257
176
     1
 75
     1
176
     1
175
     1
176
     1
 42
1.0
176
     1
 92
        0
176
     1
 66
   257
176
     1
 43
1.0
176
     1
 76
     1
176
     1
 77
     6
176
     1
 78
     2
176
     1
 67
     7
176
     1
 79
     5
176
     1
170
     0
176
     1
171
     0
176
     1
290
     0
176
     1
 93
       13
176
     1
 44
0.0
176
     1
173
     0
176
     1
1001
ACAD
1000
AcDbSavedByObjectVersion
1070
     0
  0
VISUALSTYLE
  5
2C
102
{ACAD_XDICTIONARY
360
1A9
102
}
102
{ACAD_REACTORS
330
29
102
}
330
29
100
AcDbVisualStyle
  2
Gouraud
 70
     2
177
     2
291
     1
 71
     2
176
     1
 72
     2
176
     1
 73
     1
176
     1
 90
        2
176
     1
 40
0.6
176
     1
 41
30.0
176
     1
 63
     7
421
 16777215
176
     1
 74
     0
176
     1
 91
        0
176
     1
 64
     7
176
     1
 65
   257
176
     1
 75
     1
176
     1
175
     1
176
     1
 42
1.0
176
     1
 92
        0
176
     1
 66
     7
176
     1
 43
1.0
176
     1
 76
     1
176
     1
 77
     6
176
     1
 78
     2
176
     1
 67
     7
176
     1
 79
     5
176
     1
170
     0
176
     1
171
     0
176
     1
290
     0
176
     1
 93
       13
176
     1
 44
0.0
176
     1
173
     0
176
     1
1001
ACAD
1000
AcDbSavedByObjectVersion
1070
     0
  0
VISUALSTYLE
  5
2D
102
{ACAD_XDICTIONARY
360
1AB
102
}
102
{ACAD_REACTORS
330
29
102
}
330
29
100
AcDbVisualStyle
  2
GouraudWithEdges
 70
     3
177
     2
291
     1
 71
     2
176
     1
 72
     2
176
     1
 73
     1
176
     1
 90
        2
176
     1
 40
0.6
176
     1
 41
30.0
176
     1
 63
     7
421
 16777215
176
     1
 74
     1
176
     1
 91
        0
176
     1
 64
     7
176
     1
 65
   257
176
     1
 75
     1
176
     1
175
     1
176
     1
 42
1.0
176
     1
 92
        0
176
     1
 66
   257
176
     1
 43
1.0
176
     1
 76
     1
176
     1
 77
     6
176
     1
 78
     2
176
     1
 67
     7
176
     1
 79
     5
176
     1
170
     0
176
     1
171
     0
176
     1
290
     0
176
     1
 93
       13
176
     1
 44
0.0
176
     1
173
     0
176
     1
1001
ACAD
1000
AcDbSavedByObjectVersion
1070
     0
  0
VISUALSTYLE
  5
31
102
{ACAD_XDICTIONARY
360
1B3
102
}
102
{ACAD_REACTORS
330
29
102
}
330
29
100
AcDbVisualStyle
  2
Hidden
 70
     6
177
     2
291
     0
 71
     1
176
     1
 72
     2
176
     1
 73
     2
176
     1
 90
        0
176
     1
 40
0.6
176
     1
 41
30.0
176
     1
 63
     7
421
 16777215
176
     1
 74
     2
176
     1
 91
        2
176
     1
 64
     7
176
     1
 65
   257
176
     1
 75
     2
176
     1
175
     1
176
     1
 42
40.0
176
     1
 92
        0
176
     1
 66
   257
176
     1
 43
1.0
176
     1
 76
     1
176
     1
 77
     6
176
     1
 78
     2
176
     1
 67
     7
176
     1
 79
     3
176
     1
170
     0
176
     1
171
     0
176
     1
290
     0
176
     1
 93
        1
176
     1
 44
0.0
176
     1
173
     0
176
     1
1001
ACAD
1000
AcDbSavedByObjectVersion
1070
     0
  0
VISUALSTYLE
  5
3F
102
{ACAD_XDICTIONARY
360
1CF
102
}
102
{ACAD_REACTORS
330
29
102
}
330
29
100
AcDbVisualStyle
  2
JitterOff
 70
    20
177
     2
291
     1
 71
     2
176
     0
 72
     2
176
     0
 73
     0
176
     0
 90
        0
176
     0
 40
0.6
176
     0
 41
30.0
176
     0
 63
     7
421
 16777215
176
     0
 74
     1
176
     0
 91
        4
176
     0
 64
     7
176
     0
 65
   257
176
     0
 75
     1
176
     0
175
     1
176
     0
 42
1.0
176
     0
 92
       10
176
     2
 66
     7
176
     0
 43
1.0
176
     0
 76
     1
176
     0
 77
     6
176
     0
 78
     2
176
     0
 67
     7
176
     0
 79
     5
176
     0
170
     0
176
     0
171
     0
176
     0
290
     0
176
     0
 93
        1
176
     0
 44
0.0
176
     0
173
     0
176
     0
1001
ACAD
1000
AcDbSavedByObjectVersion
1070
     0
  0
VISUALSTYLE
  5
37
102
{ACAD_XDICTIONARY
360
1BF
102
}
102
{ACAD_REACTORS
330
29
102
}
330
29
100
AcDbVisualStyle
  2
Linepattern
 70
    14
177
     2
291
     1
 71
     2
176
     1
 72
     2
176
     1
 73
     0
176
     1
 90
        0
176
     1
 40
0.6
176
     1
 41
30.0
176
     1
 63
     7
421
 16777215
176
     1
 74
     1
176
     1
 91
        4
176
     1
 64
     7
176
     1
 65
   257
176
     1
 75
     7
176
     1
175
     7
176
     1
 42
1.0
176
     1
 92
        8
176
     1
 66
     7
176
     1
 43
1.0
176
     1
 76
     1
176
     1
 77
     6
176
     1
 78
     2
176
     1
 67
     7
176
     1
 79
     5
176
     1
170
     0
176
     1
171
     0
176
     1
290
     0
176
     1
 93
        1
176
     1
 44
0.0
176
     1
173
     0
176
     1
1001
ACAD
1000
AcDbSavedByObjectVersion
1070
     0
  0
VISUALSTYLE
  5
40
102
{ACAD_XDICTIONARY
360
1D1
102
}
102
{ACAD_REACTORS
330
29
102
}
330
29
100
AcDbVisualStyle
  2
OverhangOff
 70
    21
177
     2
291
     1
 71
     2
176
     0
 72
     2
176
     0
 73
     0
176
     0
 90
        0
176
     0
 40
0.6
176
     0
 41
30.0
176
     0
 63
     7
421
 16777215
176
     0
 74
     1
176
     0
 91
        4
176
     0
 64
     7
176
     0
 65
   257
176
     0
 75
     1
176
     0
175
     1
176
     0
 42
1.0
176
     0
 92
        9
176
     2
 66
     7
176
     0
 43
1.0
176
     0
 76
     1
176
     0
 77
     6
176
     0
 78
     2
176
     0
 67
     7
176
     0
 79
     5
176
     0
170
     0
176
     0
171
     0
176
     0
290
     0
176
     0
 93
        1
176
     0
 44
0.0
176
     0
173
     0
176
     0
1001
ACAD
1000
AcDbSavedByObjectVersion
1070
     0
  0
VISUALSTYLE
  5
33
102
{ACAD_XDICTIONARY
360
1B7
102
}
102
{ACAD_REACTORS
330
29
102
}
330
29
100
AcDbVisualStyle
  2
Realistic
 70
     8
177
     2
291
     0
 71
     2
176
     1
 72
     3
176
     1
 73
     0
176
     1
 90
        2
176
     1
 40
0.6
176
     1
 41
30.0
176
     1
 63
     7
421
 16777215
176
     1
 74
     0
176
     1
 91
        0
176
     1
 64
     7
176
     1
 65
   257
176
     1
 75
     1
176
     1
175
     1
176
     1
 42
1.0
176
     1
 92
        8
176
     1
 66
   257
176
     1
 43
1.0
176
     1
 76
     1
176
     1
 77
     6
176
     1
 78
     2
176
     1
 67
     7
176
     1
 79
     3
176
     1
170
     0
176
     1
171
     0
176
     1
290
     0
176
     1
 93
       13
176
     1
 44
0.0
176
     1
173
     0
176
     1
1001
ACAD
1000
AcDbSavedByObjectVersion
1070
     0
  0
VISUALSTYLE
  5
3E
102
{ACAD_XDICTIONARY
360
1CD
102
}
102
{ACAD_REACTORS
330
29
102
}
330
29
100
AcDbVisualStyle
  2
Shaded
 70
    27
177
     2
291
     0
 71
     2
176
     1
 72
     2
176
     1
 73
     1
176
     1
 90
        2
176
     1
 40
0.6
176
     1
 41
30.0
176
     1
 63
     7
421
 16777215
176
     1
 74
     0
176
     1
 91
        4
176
     1
 64
     7
176
     1
 65
   257
176
     1
 75
     1
176
     1
175
     1
176
     1
 42
1.0
176
     1
 92
        8
176
     1
 66
   257
176
     1
 43
1.0
176
     1
 76
     1
176
     1
 77
     6
176
     1
 78
     2
176
     1
 67
     8
425
  7895160
176
     1
 79
     3
176
     1
170
     0
176
     1
171
     0
176
     1
290
     0
176
     1
 93
        5
176
     1
 44
0.0
176
     1
173
     0
176
     1
1001
ACAD
1000
AcDbSavedByObjectVersion
1070
     0
  0
VISUALSTYLE
  5
3D
102
{ACAD_XDICTIONARY
360
1CB
102
}
102
{ACAD_REACTORS
330
29
102
}
330
29
100
AcDbVisualStyle
  2
Shaded with edges
 70
    26
177
     2
291
     0
 71
     2
176
     1
 72
     2
176
     1
 73
     1
176
     1
 90
        2
176
     1
 40
0.6
176
     1
 41
30.0
176
     1
 63
     7
421
 16777215
176
     1
 74
     1
176
     1
 91
        2
176
     1
 64
     7
176
     1
 65
   257
176
     1
 75
     2
176
     1
175
     1
176
     1
 42
1.0
176
     1
 92
        8
176
     1
 66
   257
176
     1
 43
1.0
176
     1
 76
     1
176
     1
 77
     6
176
     1
 78
     2
176
     1
 67
     7
176
     1
 79
     3
176
     1
170
     0
176
     1
171
     0
176
     1
290
     0
176
     1
 93
        5
176
     1
 44
0.0
176
     1
173
     0
176
     1
1001
ACAD
1000
AcDbSavedByObjectVersion
1070
     0
  0
VISUALSTYLE
  5
3A
102
{ACAD_XDICTIONARY
360
1C5
102
}
102
{ACAD_REACTORS
330
29
102
}
330
29
100
AcDbVisualStyle
  2
Shades of Gray
 70
    23
177
     2
291
     0
 71
     2
176
     1
 72
     2
176
     1
 73
     3
176
     1
 90
        0
176
     1
 40
0.6
176
     1
 41
30.0
176
     1
 63
     7
421
 16777215
176
     1
 74
     2
176
     1
 91
        2
176
     1
 64
     7
176
     1
 65
     7
176
     1
 75
     1
176
     1
175
     1
176
     1
 42
40.0
176
     1
 92
        8
176
     1
 66
     7
176
     1
 43
1.0
176
     1
 76
     1
176
     1
 77
     6
176
     1
 78
     2
176
     1
 67
     7
176
     1
 79
     3
176
     1
170
     0
176
     1
171
     0
176
     1
290
     0
176
     1
 93
        1
176
     1
 44
0.0
176
     1
173
     0
176
     1
1001
ACAD
1000
AcDbSavedByObjectVersion
1070
     0
  0
VISUALSTYLE
  5
3B
102
{ACAD_XDICTIONARY
360
1C7
102
}
102
{ACAD_REACTORS
330
29
102
}
330
29
100
AcDbVisualStyle
  2
Sketchy
 70
    24
177
     2
291
     0
 71
     1
176
     1
 72
     2
176
     1
 73
     2
176
     1
 90
        0
176
     1
 40
0.6
176
     1
 41
30.0
176
     1
 63
     7
421
 16777215
176
     1
 74
     2
176
     1
 91
        2
176
     1
 64
     7
176
     1
 65
     7
176
     1
 75
     1
176
     1
175
     1
176
     1
 42
40.0
176
     1
 92
       11
176
     1
 66
     7
176
     1
 43
1.0
176
     1
 76
     1
176
     1
 77
     6
176
     1
 78
     2
176
     1
 67
     7
176
     1
 79
     6
176
     1
170
     0
176
     1
171
     0
176
     1
290
     0
176
     1
 93
        1
176
     1
 44
0.0
176
     1
173
     0
176
     1
1001
ACAD
1000
AcDbSavedByObjectVersion
1070
     0
  0
VISUALSTYLE
  5
36
102
{ACAD_XDICTIONARY
360
1BD
102
}
102
{ACAD_REACTORS
330
29
102
}
330
29
100
AcDbVisualStyle
  2
Thicken
 70
    13
177
     2
291
     1
 71
     2
176
     1
 72
     2
176
     1
 73
     0
176
     1
 90
        0
176
     1
 40
0.6
176
     1
 41
30.0
176
     1
 63
     7
421
 16777215
176
     1
 74
     1
176
     1
 91
        4
176
     1
 64
     7
176
     1
 65
   257
176
     1
 75
     1
176
     1
175
     1
176
     1
 42
1.0
176
     1
 92
       12
176
     1
 66
     7
176
     1
 43
1.0
176
     1
 76
     1
176
     1
 77
     6
176
     1
 78
     2
176
     1
 67
     7
176
     1
 79
     5
176
     1
170
     0
176
     1
171
     0
176
     1
290
     0
176
     1
 93
        1
176
     1
 44
0.0
176
     1
173
     0
176
     1
1001
ACAD
1000
AcDbSavedByObjectVersion
1070
     0
  0
VISUALSTYLE
  5
30
102
{ACAD_XDICTIONARY
360
1B1
102
}
102
{ACAD_REACTORS
330
29
102
}
330
29
100
AcDbVisualStyle
  2
Wireframe
 70
     5
177
     2
291
     0
 71
     0
176
     1
 72
     2
176
     1
 73
     0
176
     1
 90
        0
176
     1
 40
0.6
176
     1
 41
30.0
176
     1
 63
     7
421
 16777215
176
     1
 74
     1
176
     1
 91
        4
176
     1
 64
     7
176
     1
 65
   257
176
     1
 75
     1
176
     1
175
     1
176
     1
 42
1.0
176
     1
 92
        0
176
     1
 66
   257
176
     1
 43
1.0
176
     1
 76
     1
176
     1
 77
     6
176
     1
 78
     2
176
     1
 67
     7
176
     1
 79
     3
176
     1
170
     0
176
     1
171
     0
176
     1
290
     0
176
     1
 93
        1
176
     1
 44
0.0
176
     1
173
     0
176
     1
1001
ACAD
1000
AcDbSavedByObjectVersion
1070
     0
  0
VISUALSTYLE
  5
3C
102
{ACAD_XDICTIONARY
360
1C9
102
}
102
{ACAD_REACTORS
330
29
102
}
330
29
100
AcDbVisualStyle
  2
X-Ray
 70
    25
177
     2
291
     0
 71
     2
176
     1
 72
     2
176
     1
 73
     1
176
     1
 90
        1
176
     1
 40
0.5
176
     1
 41
30.0
176
     1
 63
     7
421
 16777215
176
     1
 74
     1
176
     1
 91
        0
176
     1
 64
     7
176
     1
 65
   257
176
     1
 75
     1
176
     1
175
     1
176
     1
 42
1.0
176
     1
 92
        8
176
     1
 66
     7
176
     1
 43
1.0
176
     1
 76
     1
176
     1
 77
     6
176
     1
 78
     2
176
     1
 67
     7
176
     1
 79
     3
176
     1
170
     0
176
     1
171
     0
176
     1
290
     0
176
     1
 93
       13
176
     1
 44
0.0
176
     1
173
     0
176
     1
1001
ACAD
1000
AcDbSavedByObjectVersion
1070
     0
  0
DICTIONARYVAR
  5
19F
102
{ACAD_REACTORS
330
19A
102
}
330
19A
100
DictionaryVariables
280
     0
  1
1:1
  0
DICTIONARYVAR
  5
19C
102
{ACAD_REACTORS
330
19A
102
}
330
19A
100
DictionaryVariables
280
     0
  1
STANDARD
  0
DICTIONARYVAR
  5
19B
102
{ACAD_REACTORS
330
19A
102
}
330
19A
100
DictionaryVariables
280
     0
  1
STANDARD
  0
DICTIONARYVAR
  5
19D
102
{ACAD_REACTORS
330
19A
102
}
330
19A
100
DictionaryVariables
280
     0
  1
Imperial24
  0
DICTIONARYVAR
  5
19E
102
{ACAD_REACTORS
330
19A
102
}
330
19A
100
DictionaryVariables
280
     0
  1
Imperial24
  0
DICTIONARY
  5
1D9
330
6B
100
AcDbDictionary
280
     1
281
     1
  3
ACAD_XREC_ROUNDTRIP
360
1DA
  0
DICTIONARY
  5
1A
330
19
100
AcDbDictionary
280
     1
281
     1
  3
BUMPTILE
360
1C
  3
DIFFUSETILE
360
1B
  3
OPACITYTILE
360
1F
  3
REFLECTIONTILE
360
1E
  3
REFRACTIONTILE
360
20
  3
SPECULARTILE
360
1D
  0
DICTIONARY
  5
12
330
11
100
AcDbDictionary
280
     1
281
     1
  3
BUMPTILE
360
14
  3
DIFFUSETILE
360
13
  3
OPACITYTILE
360
17
  3
REFLECTIONTILE
360
16
  3
REFRACTIONTILE
360
18
  3
SPECULARTILE
360
15
  0
DICTIONARY
  5
22
330
21
100
AcDbDictionary
280
     1
281
     1
  3
BUMPTILE
360
24
  3
DIFFUSETILE
360
23
  3
OPACITYTILE
360
27
  3
REFLECTIONTILE
360
26
  3
REFRACTIONTILE
360
28
  3
SPECULARTILE
360
25
  0
DICTIONARY
  5
1D5
330
67
100
AcDbDictionary
280
     1
281
     1
  3
ACAD_XREC_ROUNDTRIP
360
1D6
  0
DICTIONARY
  5
1D7
330
69
100
AcDbDictionary
280
     1
281
     1
  3
ACAD_XREC_ROUNDTRIP
360
1D8
  0
DICTIONARY
  5
1A0
330
65
100
AcDbDictionary
280
     1
281
     1
  3
ACAD_ROUNDTRIP_2008_TABLESTYLE_CELLSTYLEMAP
360
1A1
  0
DICTIONARY
  5
1AF
330
2F
100
AcDbDictionary
280
     1
281
     1
  3
ACAD_XREC_ROUNDTRIP
360
1B0
  0
DICTIONARY
  5
1AD
330
2E
100
AcDbDictionary
280
     1
281
     1
  3
ACAD_XREC_ROUNDTRIP
360
1AE
  0
DICTIONARY
  5
1BB
330
35
100
AcDbDictionary
280
     1
281
     1
  3
ACAD_XREC_ROUNDTRIP
360
1BC
  0
DICTIONARY
  5
1C3
330
39
100
AcDbDictionary
280
     1
281
     1
  3
ACAD_XREC_ROUNDTRIP
360
1C4
  0
DICTIONARY
  5
1B5
330
32
100
AcDbDictionary
280
     1
281
     1
  3
ACAD_XREC_ROUNDTRIP
360
1B6
  0
DICTIONARY
  5
1B9
330
34
100
AcDbDictionary
280
     1
281
     1
  3
ACAD_XREC_ROUNDTRIP
360
1BA
  0
DICTIONARY
  5
1D3
330
41
100
AcDbDictionary
280
     1
281
     1
  3
ACAD_XREC_ROUNDTRIP
360
1D4
  0
DICTIONARY
  5
1C1
330
38
100
AcDbDictionary
280
     1
281
     1
  3
ACAD_XREC_ROUNDTRIP
360
1C2
  0
DICTIONARY
  5
1A5
330
2A
100
AcDbDictionary
280
     1
281
     1
  3
ACAD_XREC_ROUNDTRIP
360
1A6
  0
DICTIONARY
  5
1A7
330
2B
100
AcDbDictionary
280
     1
281
     1
  3
ACAD_XREC_ROUNDTRIP
360
1A8
  0
DICTIONARY
  5
1A9
330
2C
100
AcDbDictionary
280
     1
281
     1
  3
ACAD_XREC_ROUNDTRIP
360
1AA
  0
DICTIONARY
  5
1AB
330
2D
100
AcDbDictionary
280
     1
281
     1
  3
ACAD_XREC_ROUNDTRIP
360
1AC
  0
DICTIONARY
  5
1B3
330
31
100
AcDbDictionary
280
     1
281
     1
  3
ACAD_XREC_ROUNDTRIP
360
1B4
  0
DICTIONARY
  5
1CF
330
3F
100
AcDbDictionary
280
     1
281
     1
  3
ACAD_XREC_ROUNDTRIP
360
1D0
  0
DICTIONARY
  5
1BF
330
37
100
AcDbDictionary
280
     1
281
     1
  3
ACAD_XREC_ROUNDTRIP
360
1C0
  0
DICTIONARY
  5
1D1
330
40
100
AcDbDictionary
280
     1
281
     1
  3
ACAD_XREC_ROUNDTRIP
360
1D2
  0
DICTIONARY
  5
1B7
330
33
100
AcDbDictionary
280
     1
281
     1
  3
ACAD_XREC_ROUNDTRIP
360
1B8
  0
DICTIONARY
  5
1CD
330
3E
100
AcDbDictionary
280
     1
281
     1
  3
ACAD_XREC_ROUNDTRIP
360
1CE
  0
DICTIONARY
  5
1CB
330
3D
100
AcDbDictionary
280
     1
281
     1
  3
ACAD_XREC_ROUNDTRIP
360
1CC
  0
DICTIONARY
  5
1C5
330
3A
100
AcDbDictionary
280
     1
281
     1
  3
ACAD_XREC_ROUNDTRIP
360
1C6
  0
DICTIONARY
  5
1C7
330
3B
100
AcDbDictionary
280
     1
281
     1
  3
ACAD_XREC_ROUNDTRIP
360
1C8
  0
DICTIONARY
  5
1BD
330
36
100
AcDbDictionary
280
     1
281
     1
  3
ACAD_XREC_ROUNDTRIP
360
1BE
  0
DICTIONARY
  5
1B1
330
30
100
AcDbDictionary
280
     1
281
     1
  3
ACAD_XREC_ROUNDTRIP
360
1B2
  0
DICTIONARY
  5
1C9
330
3C
100
AcDbDictionary
280
     1
281
     1
  3
ACAD_XREC_ROUNDTRIP
360
1CA
  0
XRECORD
  5
1DA
102
{ACAD_REACTORS
330
1D9
102
}
330
1D9
100
AcDbXrecord
280
     1
102
DISPLAYNAME
  1
Imperial24
102
FLAGS
 90
        0
  0
XRECORD
  5
1C
102
{ACAD_REACTORS
330
1A
102
}
330
1A
100
AcDbXrecord
280
     1
270
     1
271
     1
  0
XRECORD
  5
1B
102
{ACAD_REACTORS
330
1A
102
}
330
1A
100
AcDbXrecord
280
     1
270
     1
271
     1
  0
XRECORD
  5
1F
102
{ACAD_REACTORS
330
1A
102
}
330
1A
100
AcDbXrecord
280
     1
270
     1
271
     1
  0
XRECORD
  5
1E
102
{ACAD_REACTORS
330
1A
102
}
330
1A
100
AcDbXrecord
280
     1
270
     1
271
     1
  0
XRECORD
  5
20
102
{ACAD_REACTORS
330
1A
102
}
330
1A
100
AcDbXrecord
280
     1
270
     1
271
     1
  0
XRECORD
  5
1D
102
{ACAD_REACTORS
330
1A
102
}
330
1A
100
AcDbXrecord
280
     1
270
     1
271
     1
  0
XRECORD
  5
14
102
{ACAD_REACTORS
330
12
102
}
330
12
100
AcDbXrecord
280
     1
270
     1
271
     1
  0
XRECORD
  5
13
102
{ACAD_REACTORS
330
12
102
}
330
12
100
AcDbXrecord
280
     1
270
     1
271
     1
  0
XRECORD
  5
17
102
{ACAD_REACTORS
330
12
102
}
330
12
100
AcDbXrecord
280
     1
270
     1
271
     1
  0
XRECORD
  5
16
102
{ACAD_REACTORS
330
12
102
}
330
12
100
AcDbXrecord
280
     1
270
     1
271
     1
  0
XRECORD
  5
18
102
{ACAD_REACTORS
330
12
102
}
330
12
100
AcDbXrecord
280
     1
270
     1
271
     1
  0
XRECORD
  5
15
102
{ACAD_REACTORS
330
12
102
}
330
12
100
AcDbXrecord
280
     1
270
     1
271
     1
  0
XRECORD
  5
24
102
{ACAD_REACTORS
330
22
102
}
330
22
100
AcDbXrecord
280
     1
270
     1
271
     1
  0
XRECORD
  5
23
102
{ACAD_REACTORS
330
22
102
}
330
22
100
AcDbXrecord
280
     1
270
     1
271
     1
  0
XRECORD
  5
27
102
{ACAD_REACTORS
330
22
102
}
330
22
100
AcDbXrecord
280
     1
270
     1
271
     1
  0
XRECORD
  5
26
102
{ACAD_REACTORS
330
22
102
}
330
22
100
AcDbXrecord
280
     1
270
     1
271
     1
  0
XRECORD
  5
28
102
{ACAD_REACTORS
330
22
102
}
330
22
100
AcDbXrecord
280
     1
270
     1
271
     1
  0
XRECORD
  5
25
102
{ACAD_REACTORS
330
22
102
}
330
22
100
AcDbXrecord
280
     1
270
     1
271
     1
  0
XRECORD
  5
1D6
102
{ACAD_REACTORS
330
1D5
102
}
330
1D5
100
AcDbXrecord
280
     1
102
ACAD_ROUNDTRIP_2012_MLEADER_STYLE
298
     1
  0
XRECORD
  5
1D8
102
{ACAD_REACTORS
330
1D7
102
}
330
1D7
100
AcDbXrecord
280
     1
102
DISPLAYNAME
  1
Imperial24
102
FLAGS
 90
        0
  0
CELLSTYLEMAP
  5
1A1
102
{ACAD_REACTORS
330
1A0
102
}
330
1A0
100
AcDbCellStyleMap
 90
        3
300
CELLSTYLE
  1
TABLEFORMAT_BEGIN
 90
        5
170
     1
 91
        0
 92
    32768
 62
   257
 93
        1
300
CONTENTFORMAT
  1
CONTENTFORMAT_BEGIN
 90
        0
 91
        0
 92
      512
 93
        0
300

 40
0.0
140
1.0
 94
        5
 62
     0
340
55
144
0.25
309
CONTENTFORMAT_END
171
     0
 94
        0
309
TABLEFORMAT_END
  1
CELLSTYLE_BEGIN
 90
        1
 91
        1
300
_TITLE
309
CELLSTYLE_END
300
CELLSTYLE
  1
TABLEFORMAT_BEGIN
 90
        5
170
     1
 91
        0
 92
        0
 62
   257
 93
        1
300
CONTENTFORMAT
  1
CONTENTFORMAT_BEGIN
 90
        0
 91
        0
 92
      512
 93
        0
300

 40
0.0
140
1.0
 94
        5
 62
     0
340
55
144
0.18
309
CONTENTFORMAT_END
171
     0
 94
        0
309
TABLEFORMAT_END
  1
CELLSTYLE_BEGIN
 90
        2
 91
        1
300
_HEADER
309
CELLSTYLE_END
300
CELLSTYLE
  1
TABLEFORMAT_BEGIN
 90
        5
170
     1
 91
        0
 92
        0
 62
   257
 93
        1
300
CONTENTFORMAT
  1
CONTENTFORMAT_BEGIN
 90
        0
 91
        0
 92
      512
 93
        0
300

 40
0.0
140
1.0
 94
        2
 62
     0
340
55
144
0.18
309
CONTENTFORMAT_END
171
     0
 94
        0
309
TABLEFORMAT_END
  1
CELLSTYLE_BEGIN
 90
        3
 91
        2
300
_DATA
309
CELLSTYLE_END
  0
XRECORD
  5
1B0
102
{ACAD_REACTORS
330
1AF
102
}
330
1AF
100
AcDbXrecord
280
     1
102
RTVSPost2010Prop28
280
     1
102
RTVSPost2010PropOp28
 70
     1
102
RTVSPost2010Prop29
280
     1
102
RTVSPost2010PropOp29
 70
     1
102
RTVSPost2010Prop30
280
     0
102
RTVSPost2010PropOp30
 70
     1
102
RTVSPost2010Prop31
280
     0
102
RTVSPost2010PropOp31
 70
     1
102
RTVSPost2010Prop32
280
     0
102
RTVSPost2010PropOp32
 70
     1
102
RTVSPost2010Prop33
280
     0
102
RTVSPost2010PropOp33
 70
     1
102
RTVSPost2010Prop34
280
     0
102
RTVSPost2010PropOp34
 70
     1
102
RTVSPost2010Prop35
280
     0
102
RTVSPost2010PropOp35
 70
     1
102
RTVSPost2010Prop36
280
     0
102
RTVSPost2010PropOp36
 70
     1
102
RTVSPost2010Prop37
 90
       50
102
RTVSPost2010PropOp37
 70
     1
102
RTVSPost2010Prop38
140
0.0
102
RTVSPost2010PropOp38
 70
     1
102
RTVSPost2010Prop39
140
1.0
102
RTVSPost2010PropOp39
 70
     1
102
RTVSPost2010Prop40
 90
        0
102
RTVSPost2010PropOp40
 70
     1
102
RTVSPost2010Prop41ColorIndex
 90
       18
102
RTVSPost2010Prop41ColorRGB
 90
        0
102
RTVSPost2010PropOp41
 70
     1
102
RTVSPost2010Prop42
 90
       50
102
RTVSPost2010PropOp42
 70
     1
102
RTVSPost2010Prop43
 90
        3
102
RTVSPost2010PropOp43
 70
     1
102
RTVSPost2010Prop44ColorIndex
 90
        5
102
RTVSPost2010Prop44ColorRGB
 90
      255
102
RTVSPost2010PropOp44
 70
     1
102
RTVSPost2010Prop45
280
     0
102
RTVSPost2010PropOp45
 70
     1
102
RTVSPost2010Prop46
 90
       50
102
RTVSPost2010PropOp46
 70
     1
102
RTVSPost2010Prop47
 90
       50
102
RTVSPost2010PropOp47
 70
     1
102
RTVSPost2010Prop48
 90
       50
102
RTVSPost2010PropOp48
 70
     1
102
RTVSPost2010Prop49
280
     0
102
RTVSPost2010PropOp49
 70
     1
102
RTVSPost2010Prop50
 90
       50
102
RTVSPost2010PropOp50
 70
     1
102
RTVSPost2010Prop51ColorIndex
 90
      256
102
RTVSPost2010Prop51ColorRGB
 90
-16777216
102
RTVSPost2010PropOp51
 70
     0
102
RTVSPost2010Prop52
140
1.0
102
RTVSPost2010PropOp52
 70
     0
102
RTVSPost2010Prop53
 90
        2
102
RTVSPost2010PropOp53
 70
     1
102
RTVSPost2010Prop54
  1
strokes_ogs.tif
102
RTVSPost2010PropOp54
 70
     1
102
RTVSPost2010Prop55
280
     0
102
RTVSPost2010PropOp55
 70
     1
102
RTVSPost2010Prop56
140
1.0
102
RTVSPost2010PropOp56
 70
     1
102
RTVSPost2010Prop57
140
1.0
102
RTVSPost2010PropOp57
 70
     1
  0
XRECORD
  5
1AE
102
{ACAD_REACTORS
330
1AD
102
}
330
1AD
100
AcDbXrecord
280
     1
102
RTVSPost2010Prop28
280
     0
102
RTVSPost2010PropOp28
 70
     1
102
RTVSPost2010Prop29
280
     1
102
RTVSPost2010PropOp29
 70
     1
102
RTVSPost2010Prop30
280
     1
102
RTVSPost2010PropOp30
 70
     1
102
RTVSPost2010Prop31
280
     0
102
RTVSPost2010PropOp31
 70
     1
102
RTVSPost2010Prop32
280
     0
102
RTVSPost2010PropOp32
 70
     1
102
RTVSPost2010Prop33
280
     0
102
RTVSPost2010PropOp33
 70
     1
102
RTVSPost2010Prop34
280
     0
102
RTVSPost2010PropOp34
 70
     1
102
RTVSPost2010Prop35
280
     0
102
RTVSPost2010PropOp35
 70
     1
102
RTVSPost2010Prop36
280
     0
102
RTVSPost2010PropOp36
 70
     1
102
RTVSPost2010Prop37
 90
       50
102
RTVSPost2010PropOp37
 70
     1
102
RTVSPost2010Prop38
140
0.0
102
RTVSPost2010PropOp38
 70
     1
102
RTVSPost2010Prop39
140
1.0
102
RTVSPost2010PropOp39
 70
     1
102
RTVSPost2010Prop40
 90
        0
102
RTVSPost2010PropOp40
 70
     1
102
RTVSPost2010Prop41ColorIndex
 90
       18
102
RTVSPost2010Prop41ColorRGB
 90
        0
102
RTVSPost2010PropOp41
 70
     1
102
RTVSPost2010Prop42
 90
       50
102
RTVSPost2010PropOp42
 70
     1
102
RTVSPost2010Prop43
 90
        3
102
RTVSPost2010PropOp43
 70
     1
102
RTVSPost2010Prop44ColorIndex
 90
        5
102
RTVSPost2010Prop44ColorRGB
 90
      255
102
RTVSPost2010PropOp44
 70
     1
102
RTVSPost2010Prop45
280
     0
102
RTVSPost2010PropOp45
 70
     1
102
RTVSPost2010Prop46
 90
       50
102
RTVSPost2010PropOp46
 70
     1
102
RTVSPost2010Prop47
 90
       50
102
RTVSPost2010PropOp47
 70
     1
102
RTVSPost2010Prop48
 90
       50
102
RTVSPost2010PropOp48
 70
     1
102
RTVSPost2010Prop49
280
     0
102
RTVSPost2010PropOp49
 70
     1
102
RTVSPost2010Prop50
 90
       50
102
RTVSPost2010PropOp50
 70
     1
102
RTVSPost2010Prop51ColorIndex
 90
      256
102
RTVSPost2010Prop51ColorRGB
 90
-16777216
102
RTVSPost2010PropOp51
 70
     0
102
RTVSPost2010Prop52
140
1.0
102
RTVSPost2010PropOp52
 70
     0
102
RTVSPost2010Prop53
 90
        2
102
RTVSPost2010PropOp53
 70
     1
102
RTVSPost2010Prop54
  1
strokes_ogs.tif
102
RTVSPost2010PropOp54
 70
     1
102
RTVSPost2010Prop55
280
     0
102
RTVSPost2010PropOp55
 70
     1
102
RTVSPost2010Prop56
140
1.0
102
RTVSPost2010PropOp56
 70
     1
102
RTVSPost2010Prop57
140
1.0
102
RTVSPost2010PropOp57
 70
     1
  0
XRECORD
  5
1BC
102
{ACAD_REACTORS
330
1BB
102
}
330
1BB
100
AcDbXrecord
280
     1
102
RTVSPost2010Prop28
280
     0
102
RTVSPost2010PropOp28
 70
     1
102
RTVSPost2010Prop29
280
     1
102
RTVSPost2010PropOp29
 70
     1
102
RTVSPost2010Prop30
280
     1
102
RTVSPost2010PropOp30
 70
     1
102
RTVSPost2010Prop31
280
     0
102
RTVSPost2010PropOp31
 70
     1
102
RTVSPost2010Prop32
280
     0
102
RTVSPost2010PropOp32
 70
     1
102
RTVSPost2010Prop33
280
     0
102
RTVSPost2010PropOp33
 70
     1
102
RTVSPost2010Prop34
280
     0
102
RTVSPost2010PropOp34
 70
     1
102
RTVSPost2010Prop35
280
     0
102
RTVSPost2010PropOp35
 70
     1
102
RTVSPost2010Prop36
280
     0
102
RTVSPost2010PropOp36
 70
     1
102
RTVSPost2010Prop37
 90
       50
102
RTVSPost2010PropOp37
 70
     1
102
RTVSPost2010Prop38
140
0.0
102
RTVSPost2010PropOp38
 70
     1
102
RTVSPost2010Prop39
140
1.0
102
RTVSPost2010PropOp39
 70
     1
102
RTVSPost2010Prop40
 90
        0
102
RTVSPost2010PropOp40
 70
     1
102
RTVSPost2010Prop41ColorIndex
 90
       18
102
RTVSPost2010Prop41ColorRGB
 90
        0
102
RTVSPost2010PropOp41
 70
     1
102
RTVSPost2010Prop42
 90
       50
102
RTVSPost2010PropOp42
 70
     1
102
RTVSPost2010Prop43
 90
        3
102
RTVSPost2010PropOp43
 70
     1
102
RTVSPost2010Prop44ColorIndex
 90
        5
102
RTVSPost2010Prop44ColorRGB
 90
      255
102
RTVSPost2010PropOp44
 70
     1
102
RTVSPost2010Prop45
280
     0
102
RTVSPost2010PropOp45
 70
     1
102
RTVSPost2010Prop46
 90
       50
102
RTVSPost2010PropOp46
 70
     1
102
RTVSPost2010Prop47
 90
       50
102
RTVSPost2010PropOp47
 70
     1
102
RTVSPost2010Prop48
 90
       50
102
RTVSPost2010PropOp48
 70
     1
102
RTVSPost2010Prop49
280
     0
102
RTVSPost2010PropOp49
 70
     1
102
RTVSPost2010Prop50
 90
       50
102
RTVSPost2010PropOp50
 70
     1
102
RTVSPost2010Prop51ColorIndex
 90
      256
102
RTVSPost2010Prop51ColorRGB
 90
-16777216
102
RTVSPost2010PropOp51
 70
     0
102
RTVSPost2010Prop52
140
1.0
102
RTVSPost2010PropOp52
 70
     0
102
RTVSPost2010Prop53
 90
        2
102
RTVSPost2010PropOp53
 70
     1
102
RTVSPost2010Prop54
  1
strokes_ogs.tif
102
RTVSPost2010PropOp54
 70
     1
102
RTVSPost2010Prop55
280
     0
102
RTVSPost2010PropOp55
 70
     1
102
RTVSPost2010Prop56
140
1.0
102
RTVSPost2010PropOp56
 70
     1
102
RTVSPost2010Prop57
140
1.0
102
RTVSPost2010PropOp57
 70
     1
  0
XRECORD
  5
1C4
102
{ACAD_REACTORS
330
1C3
102
}
330
1C3
100
AcDbXrecord
280
     1
102
RTVSPost2010Prop28
280
     0
102
RTVSPost2010PropOp28
 70
     1
102
RTVSPost2010Prop29
280
     1
102
RTVSPost2010PropOp29
 70
     1
102
RTVSPost2010Prop30
280
     1
102
RTVSPost2010PropOp30
 70
     1
102
RTVSPost2010Prop31
280
     0
102
RTVSPost2010PropOp31
 70
     1
102
RTVSPost2010Prop32
280
     0
102
RTVSPost2010PropOp32
 70
     1
102
RTVSPost2010Prop33
280
     0
102
RTVSPost2010PropOp33
 70
     1
102
RTVSPost2010Prop34
280
     0
102
RTVSPost2010PropOp34
 70
     1
102
RTVSPost2010Prop35
280
     0
102
RTVSPost2010PropOp35
 70
     1
102
RTVSPost2010Prop36
280
     0
102
RTVSPost2010PropOp36
 70
     1
102
RTVSPost2010Prop37
 90
       50
102
RTVSPost2010PropOp37
 70
     1
102
RTVSPost2010Prop38
140
0.0
102
RTVSPost2010PropOp38
 70
     1
102
RTVSPost2010Prop39
140
1.0
102
RTVSPost2010PropOp39
 70
     1
102
RTVSPost2010Prop40
 90
        0
102
RTVSPost2010PropOp40
 70
     1
102
RTVSPost2010Prop41ColorIndex
 90
       18
102
RTVSPost2010Prop41ColorRGB
 90
        0
102
RTVSPost2010PropOp41
 70
     1
102
RTVSPost2010Prop42
 90
       50
102
RTVSPost2010PropOp42
 70
     1
102
RTVSPost2010Prop43
 90
        3
102
RTVSPost2010PropOp43
 70
     1
102
RTVSPost2010Prop44ColorIndex
 90
        5
102
RTVSPost2010Prop44ColorRGB
 90
      255
102
RTVSPost2010PropOp44
 70
     1
102
RTVSPost2010Prop45
280
     0
102
RTVSPost2010PropOp45
 70
     1
102
RTVSPost2010Prop46
 90
       50
102
RTVSPost2010PropOp46
 70
     1
102
RTVSPost2010Prop47
 90
       50
102
RTVSPost2010PropOp47
 70
     1
102
RTVSPost2010Prop48
 90
       50
102
RTVSPost2010PropOp48
 70
     1
102
RTVSPost2010Prop49
280
     0
102
RTVSPost2010PropOp49
 70
     1
102
RTVSPost2010Prop50
 90
       50
102
RTVSPost2010PropOp50
 70
     1
102
RTVSPost2010Prop51ColorIndex
 90
      256
102
RTVSPost2010Prop51ColorRGB
 90
-16777216
102
RTVSPost2010PropOp51
 70
     0
102
RTVSPost2010Prop52
140
1.0
102
RTVSPost2010PropOp52
 70
     0
102
RTVSPost2010Prop53
 90
        2
102
RTVSPost2010PropOp53
 70
     1
102
RTVSPost2010Prop54
  1
strokes_ogs.tif
102
RTVSPost2010PropOp54
 70
     1
102
RTVSPost2010Prop55
280
     0
102
RTVSPost2010PropOp55
 70
     1
102
RTVSPost2010Prop56
140
1.0
102
RTVSPost2010PropOp56
 70
     1
102
RTVSPost2010Prop57
140
1.0
102
RTVSPost2010PropOp57
 70
     1
  0
XRECORD
  5
1B6
102
{ACAD_REACTORS
330
1B5
102
}
330
1B5
100
AcDbXrecord
280
     1
102
RTVSPost2010Prop28
280
     0
102
RTVSPost2010PropOp28
 70
     1
102
RTVSPost2010Prop29
280
     1
102
RTVSPost2010PropOp29
 70
     1
102
RTVSPost2010Prop30
280
     1
102
RTVSPost2010PropOp30
 70
     1
102
RTVSPost2010Prop31
280
     0
102
RTVSPost2010PropOp31
 70
     1
102
RTVSPost2010Prop32
280
     0
102
RTVSPost2010PropOp32
 70
     1
102
RTVSPost2010Prop33
280
     0
102
RTVSPost2010PropOp33
 70
     1
102
RTVSPost2010Prop34
280
     0
102
RTVSPost2010PropOp34
 70
     1
102
RTVSPost2010Prop35
280
     0
102
RTVSPost2010PropOp35
 70
     1
102
RTVSPost2010Prop36
280
     0
102
RTVSPost2010PropOp36
 70
     1
102
RTVSPost2010Prop37
 90
       50
102
RTVSPost2010PropOp37
 70
     1
102
RTVSPost2010Prop38
140
0.0
102
RTVSPost2010PropOp38
 70
     1
102
RTVSPost2010Prop39
140
1.0
102
RTVSPost2010PropOp39
 70
     1
102
RTVSPost2010Prop40
 90
        0
102
RTVSPost2010PropOp40
 70
     1
102
RTVSPost2010Prop41ColorIndex
 90
       18
102
RTVSPost2010Prop41ColorRGB
 90
        0
102
RTVSPost2010PropOp41
 70
     1
102
RTVSPost2010Prop42
 90
       50
102
RTVSPost2010PropOp42
 70
     1
102
RTVSPost2010Prop43
 90
        3
102
RTVSPost2010PropOp43
 70
     1
102
RTVSPost2010Prop44ColorIndex
 90
        5
102
RTVSPost2010Prop44ColorRGB
 90
      255
102
RTVSPost2010PropOp44
 70
     1
102
RTVSPost2010Prop45
280
     0
102
RTVSPost2010PropOp45
 70
     1
102
RTVSPost2010Prop46
 90
       50
102
RTVSPost2010PropOp46
 70
     1
102
RTVSPost2010Prop47
 90
       50
102
RTVSPost2010PropOp47
 70
     1
102
RTVSPost2010Prop48
 90
       50
102
RTVSPost2010PropOp48
 70
     1
102
RTVSPost2010Prop49
280
     0
102
RTVSPost2010PropOp49
 70
     1
102
RTVSPost2010Prop50
 90
       50
102
RTVSPost2010PropOp50
 70
     1
102
RTVSPost2010Prop51ColorIndex
 90
      256
102
RTVSPost2010Prop51ColorRGB
 90
-16777216
102
RTVSPost2010PropOp51
 70
     0
102
RTVSPost2010Prop52
140
1.0
102
RTVSPost2010PropOp52
 70
     0
102
RTVSPost2010Prop53
 90
        2
102
RTVSPost2010PropOp53
 70
     1
102
RTVSPost2010Prop54
  1
strokes_ogs.tif
102
RTVSPost2010PropOp54
 70
     1
102
RTVSPost2010Prop55
280
     0
102
RTVSPost2010PropOp55
 70
     1
102
RTVSPost2010Prop56
140
1.0
102
RTVSPost2010PropOp56
 70
     1
102
RTVSPost2010Prop57
140
1.0
102
RTVSPost2010PropOp57
 70
     1
  0
XRECORD
  5
1BA
102
{ACAD_REACTORS
330
1B9
102
}
330
1B9
100
AcDbXrecord
280
     1
102
RTVSPost2010Prop28
280
     0
102
RTVSPost2010PropOp28
 70
     1
102
RTVSPost2010Prop29
280
     1
102
RTVSPost2010PropOp29
 70
     1
102
RTVSPost2010Prop30
280
     1
102
RTVSPost2010PropOp30
 70
     1
102
RTVSPost2010Prop31
280
     0
102
RTVSPost2010PropOp31
 70
     1
102
RTVSPost2010Prop32
280
     0
102
RTVSPost2010PropOp32
 70
     1
102
RTVSPost2010Prop33
280
     0
102
RTVSPost2010PropOp33
 70
     1
102
RTVSPost2010Prop34
280
     0
102
RTVSPost2010PropOp34
 70
     1
102
RTVSPost2010Prop35
280
     0
102
RTVSPost2010PropOp35
 70
     1
102
RTVSPost2010Prop36
280
     0
102
RTVSPost2010PropOp36
 70
     1
102
RTVSPost2010Prop37
 90
       50
102
RTVSPost2010PropOp37
 70
     1
102
RTVSPost2010Prop38
140
0.0
102
RTVSPost2010PropOp38
 70
     1
102
RTVSPost2010Prop39
140
1.0
102
RTVSPost2010PropOp39
 70
     1
102
RTVSPost2010Prop40
 90
        0
102
RTVSPost2010PropOp40
 70
     1
102
RTVSPost2010Prop41ColorIndex
 90
       18
102
RTVSPost2010Prop41ColorRGB
 90
        0
102
RTVSPost2010PropOp41
 70
     1
102
RTVSPost2010Prop42
 90
       50
102
RTVSPost2010PropOp42
 70
     1
102
RTVSPost2010Prop43
 90
        3
102
RTVSPost2010PropOp43
 70
     1
102
RTVSPost2010Prop44ColorIndex
 90
        5
102
RTVSPost2010Prop44ColorRGB
 90
      255
102
RTVSPost2010PropOp44
 70
     1
102
RTVSPost2010Prop45
280
     0
102
RTVSPost2010PropOp45
 70
     1
102
RTVSPost2010Prop46
 90
       50
102
RTVSPost2010PropOp46
 70
     1
102
RTVSPost2010Prop47
 90
       50
102
RTVSPost2010PropOp47
 70
     1
102
RTVSPost2010Prop48
 90
       50
102
RTVSPost2010PropOp48
 70
     1
102
RTVSPost2010Prop49
280
     0
102
RTVSPost2010PropOp49
 70
     1
102
RTVSPost2010Prop50
 90
       50
102
RTVSPost2010PropOp50
 70
     1
102
RTVSPost2010Prop51ColorIndex
 90
      256
102
RTVSPost2010Prop51ColorRGB
 90
-16777216
102
RTVSPost2010PropOp51
 70
     0
102
RTVSPost2010Prop52
140
1.0
102
RTVSPost2010PropOp52
 70
     0
102
RTVSPost2010Prop53
 90
        2
102
RTVSPost2010PropOp53
 70
     1
102
RTVSPost2010Prop54
  1
strokes_ogs.tif
102
RTVSPost2010PropOp54
 70
     1
102
RTVSPost2010Prop55
280
     0
102
RTVSPost2010PropOp55
 70
     1
102
RTVSPost2010Prop56
140
1.0
102
RTVSPost2010PropOp56
 70
     1
102
RTVSPost2010Prop57
140
1.0
102
RTVSPost2010PropOp57
 70
     1
  0
XRECORD
  5
1D4
102
{ACAD_REACTORS
330
1D3
102
}
330
1D3
100
AcDbXrecord
280
     1
102
RTVSPost2010Prop28
280
     0
102
RTVSPost2010PropOp28
 70
     0
102
RTVSPost2010Prop29
280
     1
102
RTVSPost2010PropOp29
 70
     0
102
RTVSPost2010Prop30
280
     1
102
RTVSPost2010PropOp30
 70
     0
102
RTVSPost2010Prop31
280
     0
102
RTVSPost2010PropOp31
 70
     0
102
RTVSPost2010Prop32
280
     0
102
RTVSPost2010PropOp32
 70
     0
102
RTVSPost2010Prop33
280
     0
102
RTVSPost2010PropOp33
 70
     0
102
RTVSPost2010Prop34
280
     0
102
RTVSPost2010PropOp34
 70
     0
102
RTVSPost2010Prop35
280
     0
102
RTVSPost2010PropOp35
 70
     0
102
RTVSPost2010Prop36
280
     0
102
RTVSPost2010PropOp36
 70
     0
102
RTVSPost2010Prop37
 90
       50
102
RTVSPost2010PropOp37
 70
     0
102
RTVSPost2010Prop38
140
0.0
102
RTVSPost2010PropOp38
 70
     0
102
RTVSPost2010Prop39
140
1.0
102
RTVSPost2010PropOp39
 70
     0
102
RTVSPost2010Prop40
 90
        0
102
RTVSPost2010PropOp40
 70
     0
102
RTVSPost2010Prop41ColorIndex
 90
       18
102
RTVSPost2010Prop41ColorRGB
 90
        0
102
RTVSPost2010PropOp41
 70
     0
102
RTVSPost2010Prop42
 90
       50
102
RTVSPost2010PropOp42
 70
     0
102
RTVSPost2010Prop43
 90
        3
102
RTVSPost2010PropOp43
 70
     0
102
RTVSPost2010Prop44ColorIndex
 90
        5
102
RTVSPost2010Prop44ColorRGB
 90
      255
102
RTVSPost2010PropOp44
 70
     0
102
RTVSPost2010Prop45
280
     0
102
RTVSPost2010PropOp45
 70
     0
102
RTVSPost2010Prop46
 90
       50
102
RTVSPost2010PropOp46
 70
     0
102
RTVSPost2010Prop47
 90
       50
102
RTVSPost2010PropOp47
 70
     0
102
RTVSPost2010Prop48
 90
       50
102
RTVSPost2010PropOp48
 70
     0
102
RTVSPost2010Prop49
280
     0
102
RTVSPost2010PropOp49
 70
     0
102
RTVSPost2010Prop50
 90
       50
102
RTVSPost2010PropOp50
 70
     0
102
RTVSPost2010Prop51ColorIndex
 90
      256
102
RTVSPost2010Prop51ColorRGB
 90
-16777216
102
RTVSPost2010PropOp51
 70
     0
102
RTVSPost2010Prop52
140
1.0
102
RTVSPost2010PropOp52
 70
     0
102
RTVSPost2010Prop53
 90
        2
102
RTVSPost2010PropOp53
 70
     0
102
RTVSPost2010Prop54
  1
strokes_ogs.tif
102
RTVSPost2010PropOp54
 70
     0
102
RTVSPost2010Prop55
280
     0
102
RTVSPost2010PropOp55
 70
     0
102
RTVSPost2010Prop56
140
1.0
102
RTVSPost2010PropOp56
 70
     0
102
RTVSPost2010Prop57
140
1.0
102
RTVSPost2010PropOp57
 70
     0
  0
XRECORD
  5
1C2
102
{ACAD_REACTORS
330
1C1
102
}
330
1C1
100
AcDbXrecord
280
     1
102
RTVSPost2010Prop28
280
     0
102
RTVSPost2010PropOp28
 70
     1
102
RTVSPost2010Prop29
280
     1
102
RTVSPost2010PropOp29
 70
     1
102
RTVSPost2010Prop30
280
     1
102
RTVSPost2010PropOp30
 70
     1
102
RTVSPost2010Prop31
280
     0
102
RTVSPost2010PropOp31
 70
     1
102
RTVSPost2010Prop32
280
     0
102
RTVSPost2010PropOp32
 70
     1
102
RTVSPost2010Prop33
280
     0
102
RTVSPost2010PropOp33
 70
     1
102
RTVSPost2010Prop34
280
     0
102
RTVSPost2010PropOp34
 70
     1
102
RTVSPost2010Prop35
280
     0
102
RTVSPost2010PropOp35
 70
     1
102
RTVSPost2010Prop36
280
     0
102
RTVSPost2010PropOp36
 70
     1
102
RTVSPost2010Prop37
 90
       50
102
RTVSPost2010PropOp37
 70
     1
102
RTVSPost2010Prop38
140
0.0
102
RTVSPost2010PropOp38
 70
     1
102
RTVSPost2010Prop39
140
1.0
102
RTVSPost2010PropOp39
 70
     1
102
RTVSPost2010Prop40
 90
        0
102
RTVSPost2010PropOp40
 70
     1
102
RTVSPost2010Prop41ColorIndex
 90
       18
102
RTVSPost2010Prop41ColorRGB
 90
        0
102
RTVSPost2010PropOp41
 70
     1
102
RTVSPost2010Prop42
 90
       50
102
RTVSPost2010PropOp42
 70
     1
102
RTVSPost2010Prop43
 90
        3
102
RTVSPost2010PropOp43
 70
     1
102
RTVSPost2010Prop44ColorIndex
 90
        5
102
RTVSPost2010Prop44ColorRGB
 90
      255
102
RTVSPost2010PropOp44
 70
     1
102
RTVSPost2010Prop45
280
     0
102
RTVSPost2010PropOp45
 70
     1
102
RTVSPost2010Prop46
 90
       50
102
RTVSPost2010PropOp46
 70
     1
102
RTVSPost2010Prop47
 90
       50
102
RTVSPost2010PropOp47
 70
     1
102
RTVSPost2010Prop48
 90
       50
102
RTVSPost2010PropOp48
 70
     1
102
RTVSPost2010Prop49
280
     0
102
RTVSPost2010PropOp49
 70
     1
102
RTVSPost2010Prop50
 90
       50
102
RTVSPost2010PropOp50
 70
     1
102
RTVSPost2010Prop51ColorIndex
 90
      256
102
RTVSPost2010Prop51ColorRGB
 90
-16777216
102
RTVSPost2010PropOp51
 70
     0
102
RTVSPost2010Prop52
140
1.0
102
RTVSPost2010PropOp52
 70
     0
102
RTVSPost2010Prop53
 90
        2
102
RTVSPost2010PropOp53
 70
     1
102
RTVSPost2010Prop54
  1
strokes_ogs.tif
102
RTVSPost2010PropOp54
 70
     1
102
RTVSPost2010Prop55
280
     0
102
RTVSPost2010PropOp55
 70
     1
102
RTVSPost2010Prop56
140
1.0
102
RTVSPost2010PropOp56
 70
     1
102
RTVSPost2010Prop57
140
1.0
102
RTVSPost2010PropOp57
 70
     1
  0
XRECORD
  5
1A6
102
{ACAD_REACTORS
330
1A5
102
}
330
1A5
100
AcDbXrecord
280
     1
102
RTVSPost2010Prop28
280
     0
102
RTVSPost2010PropOp28
 70
     1
102
RTVSPost2010Prop29
280
     1
102
RTVSPost2010PropOp29
 70
     1
102
RTVSPost2010Prop30
280
     1
102
RTVSPost2010PropOp30
 70
     1
102
RTVSPost2010Prop31
280
     0
102
RTVSPost2010PropOp31
 70
     1
102
RTVSPost2010Prop32
280
     0
102
RTVSPost2010PropOp32
 70
     1
102
RTVSPost2010Prop33
280
     0
102
RTVSPost2010PropOp33
 70
     1
102
RTVSPost2010Prop34
280
     0
102
RTVSPost2010PropOp34
 70
     1
102
RTVSPost2010Prop35
280
     0
102
RTVSPost2010PropOp35
 70
     1
102
RTVSPost2010Prop36
280
     0
102
RTVSPost2010PropOp36
 70
     1
102
RTVSPost2010Prop37
 90
       50
102
RTVSPost2010PropOp37
 70
     1
102
RTVSPost2010Prop38
140
0.0
102
RTVSPost2010PropOp38
 70
     1
102
RTVSPost2010Prop39
140
1.0
102
RTVSPost2010PropOp39
 70
     1
102
RTVSPost2010Prop40
 90
        0
102
RTVSPost2010PropOp40
 70
     1
102
RTVSPost2010Prop41ColorIndex
 90
       18
102
RTVSPost2010Prop41ColorRGB
 90
        0
102
RTVSPost2010PropOp41
 70
     1
102
RTVSPost2010Prop42
 90
       50
102
RTVSPost2010PropOp42
 70
     1
102
RTVSPost2010Prop43
 90
        3
102
RTVSPost2010PropOp43
 70
     1
102
RTVSPost2010Prop44ColorIndex
 90
        5
102
RTVSPost2010Prop44ColorRGB
 90
      255
102
RTVSPost2010PropOp44
 70
     1
102
RTVSPost2010Prop45
280
     0
102
RTVSPost2010PropOp45
 70
     1
102
RTVSPost2010Prop46
 90
       50
102
RTVSPost2010PropOp46
 70
     1
102
RTVSPost2010Prop47
 90
       50
102
RTVSPost2010PropOp47
 70
     1
102
RTVSPost2010Prop48
 90
       50
102
RTVSPost2010PropOp48
 70
     1
102
RTVSPost2010Prop49
280
     0
102
RTVSPost2010PropOp49
 70
     1
102
RTVSPost2010Prop50
 90
       50
102
RTVSPost2010PropOp50
 70
     1
102
RTVSPost2010Prop51ColorIndex
 90
      256
102
RTVSPost2010Prop51ColorRGB
 90
-16777216
102
RTVSPost2010PropOp51
 70
     0
102
RTVSPost2010Prop52
140
1.0
102
RTVSPost2010PropOp52
 70
     0
102
RTVSPost2010Prop53
 90
        2
102
RTVSPost2010PropOp53
 70
     1
102
RTVSPost2010Prop54
  1
strokes_ogs.tif
102
RTVSPost2010PropOp54
 70
     1
102
RTVSPost2010Prop55
280
     0
102
RTVSPost2010PropOp55
 70
     1
102
RTVSPost2010Prop56
140
1.0
102
RTVSPost2010PropOp56
 70
     1
102
RTVSPost2010Prop57
140
1.0
102
RTVSPost2010PropOp57
 70
     1
  0
XRECORD
  5
1A8
102
{ACAD_REACTORS
330
1A7
102
}
330
1A7
100
AcDbXrecord
280
     1
102
RTVSPost2010Prop28
280
     0
102
RTVSPost2010PropOp28
 70
     1
102
RTVSPost2010Prop29
280
     1
102
RTVSPost2010PropOp29
 70
     1
102
RTVSPost2010Prop30
280
     1
102
RTVSPost2010PropOp30
 70
     1
102
RTVSPost2010Prop31
280
     0
102
RTVSPost2010PropOp31
 70
     1
102
RTVSPost2010Prop32
280
     0
102
RTVSPost2010PropOp32
 70
     1
102
RTVSPost2010Prop33
280
     0
102
RTVSPost2010PropOp33
 70
     1
102
RTVSPost2010Prop34
280
     0
102
RTVSPost2010PropOp34
 70
     1
102
RTVSPost2010Prop35
280
     0
102
RTVSPost2010PropOp35
 70
     1
102
RTVSPost2010Prop36
280
     0
102
RTVSPost2010PropOp36
 70
     1
102
RTVSPost2010Prop37
 90
       50
102
RTVSPost2010PropOp37
 70
     1
102
RTVSPost2010Prop38
140
0.0
102
RTVSPost2010PropOp38
 70
     1
102
RTVSPost2010Prop39
140
1.0
102
RTVSPost2010PropOp39
 70
     1
102
RTVSPost2010Prop40
 90
        0
102
RTVSPost2010PropOp40
 70
     1
102
RTVSPost2010Prop41ColorIndex
 90
       18
102
RTVSPost2010Prop41ColorRGB
 90
        0
102
RTVSPost2010PropOp41
 70
     1
102
RTVSPost2010Prop42
 90
       50
102
RTVSPost2010PropOp42
 70
     1
102
RTVSPost2010Prop43
 90
        3
102
RTVSPost2010PropOp43
 70
     1
102
RTVSPost2010Prop44ColorIndex
 90
        5
102
RTVSPost2010Prop44ColorRGB
 90
      255
102
RTVSPost2010PropOp44
 70
     1
102
RTVSPost2010Prop45
280
     0
102
RTVSPost2010PropOp45
 70
     1
102
RTVSPost2010Prop46
 90
       50
102
RTVSPost2010PropOp46
 70
     1
102
RTVSPost2010Prop47
 90
       50
102
RTVSPost2010PropOp47
 70
     1
102
RTVSPost2010Prop48
 90
       50
102
RTVSPost2010PropOp48
 70
     1
102
RTVSPost2010Prop49
280
     0
102
RTVSPost2010PropOp49
 70
     1
102
RTVSPost2010Prop50
 90
       50
102
RTVSPost2010PropOp50
 70
     1
102
RTVSPost2010Prop51ColorIndex
 90
      256
102
RTVSPost2010Prop51ColorRGB
 90
-16777216
102
RTVSPost2010PropOp51
 70
     0
102
RTVSPost2010Prop52
140
1.0
102
RTVSPost2010PropOp52
 70
     0
102
RTVSPost2010Prop53
 90
        2
102
RTVSPost2010PropOp53
 70
     1
102
RTVSPost2010Prop54
  1
strokes_ogs.tif
102
RTVSPost2010PropOp54
 70
     1
102
RTVSPost2010Prop55
280
     0
102
RTVSPost2010PropOp55
 70
     1
102
RTVSPost2010Prop56
140
1.0
102
RTVSPost2010PropOp56
 70
     1
102
RTVSPost2010Prop57
140
1.0
102
RTVSPost2010PropOp57
 70
     1
  0
XRECORD
  5
1AA
102
{ACAD_REACTORS
330
1A9
102
}
330
1A9
100
AcDbXrecord
280
     1
102
RTVSPost2010Prop28
280
     0
102
RTVSPost2010PropOp28
 70
     1
102
RTVSPost2010Prop29
280
     1
102
RTVSPost2010PropOp29
 70
     1
102
RTVSPost2010Prop30
280
     1
102
RTVSPost2010PropOp30
 70
     1
102
RTVSPost2010Prop31
280
     0
102
RTVSPost2010PropOp31
 70
     1
102
RTVSPost2010Prop32
280
     0
102
RTVSPost2010PropOp32
 70
     1
102
RTVSPost2010Prop33
280
     0
102
RTVSPost2010PropOp33
 70
     1
102
RTVSPost2010Prop34
280
     0
102
RTVSPost2010PropOp34
 70
     1
102
RTVSPost2010Prop35
280
     0
102
RTVSPost2010PropOp35
 70
     1
102
RTVSPost2010Prop36
280
     0
102
RTVSPost2010PropOp36
 70
     1
102
RTVSPost2010Prop37
 90
       50
102
RTVSPost2010PropOp37
 70
     1
102
RTVSPost2010Prop38
140
0.0
102
RTVSPost2010PropOp38
 70
     1
102
RTVSPost2010Prop39
140
1.0
102
RTVSPost2010PropOp39
 70
     1
102
RTVSPost2010Prop40
 90
        0
102
RTVSPost2010PropOp40
 70
     1
102
RTVSPost2010Prop41ColorIndex
 90
       18
102
RTVSPost2010Prop41ColorRGB
 90
        0
102
RTVSPost2010PropOp41
 70
     1
102
RTVSPost2010Prop42
 90
       50
102
RTVSPost2010PropOp42
 70
     1
102
RTVSPost2010Prop43
 90
        3
102
RTVSPost2010PropOp43
 70
     1
102
RTVSPost2010Prop44ColorIndex
 90
        5
102
RTVSPost2010Prop44ColorRGB
 90
      255
102
RTVSPost2010PropOp44
 70
     1
102
RTVSPost2010Prop45
280
     0
102
RTVSPost2010PropOp45
 70
     1
102
RTVSPost2010Prop46
 90
       50
102
RTVSPost2010PropOp46
 70
     1
102
RTVSPost2010Prop47
 90
       50
102
RTVSPost2010PropOp47
 70
     1
102
RTVSPost2010Prop48
 90
       50
102
RTVSPost2010PropOp48
 70
     1
102
RTVSPost2010Prop49
280
     0
102
RTVSPost2010PropOp49
 70
     1
102
RTVSPost2010Prop50
 90
       50
102
RTVSPost2010PropOp50
 70
     1
102
RTVSPost2010Prop51ColorIndex
 90
      256
102
RTVSPost2010Prop51ColorRGB
 90
-16777216
102
RTVSPost2010PropOp51
 70
     0
102
RTVSPost2010Prop52
140
1.0
102
RTVSPost2010PropOp52
 70
     0
102
RTVSPost2010Prop53
 90
        2
102
RTVSPost2010PropOp53
 70
     1
102
RTVSPost2010Prop54
  1
strokes_ogs.tif
102
RTVSPost2010PropOp54
 70
     1
102
RTVSPost2010Prop55
280
     0
102
RTVSPost2010PropOp55
 70
     1
102
RTVSPost2010Prop56
140
1.0
102
RTVSPost2010PropOp56
 70
     1
102
RTVSPost2010Prop57
140
1.0
102
RTVSPost2010PropOp57
 70
     1
  0
XRECORD
  5
1AC
102
{ACAD_REACTORS
330
1AB
102
}
330
1AB
100
AcDbXrecord
280
     1
102
RTVSPost2010Prop28
280
     0
102
RTVSPost2010PropOp28
 70
     1
102
RTVSPost2010Prop29
280
     1
102
RTVSPost2010PropOp29
 70
     1
102
RTVSPost2010Prop30
280
     1
102
RTVSPost2010PropOp30
 70
     1
102
RTVSPost2010Prop31
280
     0
102
RTVSPost2010PropOp31
 70
     1
102
RTVSPost2010Prop32
280
     0
102
RTVSPost2010PropOp32
 70
     1
102
RTVSPost2010Prop33
280
     0
102
RTVSPost2010PropOp33
 70
     1
102
RTVSPost2010Prop34
280
     0
102
RTVSPost2010PropOp34
 70
     1
102
RTVSPost2010Prop35
280
     0
102
RTVSPost2010PropOp35
 70
     1
102
RTVSPost2010Prop36
280
     0
102
RTVSPost2010PropOp36
 70
     1
102
RTVSPost2010Prop37
 90
       50
102
RTVSPost2010PropOp37
 70
     1
102
RTVSPost2010Prop38
140
0.0
102
RTVSPost2010PropOp38
 70
     1
102
RTVSPost2010Prop39
140
1.0
102
RTVSPost2010PropOp39
 70
     1
102
RTVSPost2010Prop40
 90
        0
102
RTVSPost2010PropOp40
 70
     1
102
RTVSPost2010Prop41ColorIndex
 90
       18
102
RTVSPost2010Prop41ColorRGB
 90
        0
102
RTVSPost2010PropOp41
 70
     1
102
RTVSPost2010Prop42
 90
       50
102
RTVSPost2010PropOp42
 70
     1
102
RTVSPost2010Prop43
 90
        3
102
RTVSPost2010PropOp43
 70
     1
102
RTVSPost2010Prop44ColorIndex
 90
        5
102
RTVSPost2010Prop44ColorRGB
 90
      255
102
RTVSPost2010PropOp44
 70
     1
102
RTVSPost2010Prop45
280
     0
102
RTVSPost2010PropOp45
 70
     1
102
RTVSPost2010Prop46
 90
       50
102
RTVSPost2010PropOp46
 70
     1
102
RTVSPost2010Prop47
 90
       50
102
RTVSPost2010PropOp47
 70
     1
102
RTVSPost2010Prop48
 90
       50
102
RTVSPost2010PropOp48
 70
     1
102
RTVSPost2010Prop49
280
     0
102
RTVSPost2010PropOp49
 70
     1
102
RTVSPost2010Prop50
 90
       50
102
RTVSPost2010PropOp50
 70
     1
102
RTVSPost2010Prop51ColorIndex
 90
      256
102
RTVSPost2010Prop51ColorRGB
 90
-16777216
102
RTVSPost2010PropOp51
 70
     0
102
RTVSPost2010Prop52
140
1.0
102
RTVSPost2010PropOp52
 70
     0
102
RTVSPost2010Prop53
 90
        2
102
RTVSPost2010PropOp53
 70
     1
102
RTVSPost2010Prop54
  1
strokes_ogs.tif
102
RTVSPost2010PropOp54
 70
     1
102
RTVSPost2010Prop55
280
     0
102
RTVSPost2010PropOp55
 70
     1
102
RTVSPost2010Prop56
140
1.0
102
RTVSPost2010PropOp56
 70
     1
102
RTVSPost2010Prop57
140
1.0
102
RTVSPost2010PropOp57
 70
     1
  0
XRECORD
  5
1B4
102
{ACAD_REACTORS
330
1B3
102
}
330
1B3
100
AcDbXrecord
280
     1
102
RTVSPost2010Prop28
280
     0
102
RTVSPost2010PropOp28
 70
     1
102
RTVSPost2010Prop29
280
     1
102
RTVSPost2010PropOp29
 70
     1
102
RTVSPost2010Prop30
280
     1
102
RTVSPost2010PropOp30
 70
     1
102
RTVSPost2010Prop31
280
     0
102
RTVSPost2010PropOp31
 70
     1
102
RTVSPost2010Prop32
280
     0
102
RTVSPost2010PropOp32
 70
     1
102
RTVSPost2010Prop33
280
     0
102
RTVSPost2010PropOp33
 70
     1
102
RTVSPost2010Prop34
280
     0
102
RTVSPost2010PropOp34
 70
     1
102
RTVSPost2010Prop35
280
     0
102
RTVSPost2010PropOp35
 70
     1
102
RTVSPost2010Prop36
280
     0
102
RTVSPost2010PropOp36
 70
     1
102
RTVSPost2010Prop37
 90
       50
102
RTVSPost2010PropOp37
 70
     1
102
RTVSPost2010Prop38
140
0.0
102
RTVSPost2010PropOp38
 70
     1
102
RTVSPost2010Prop39
140
1.0
102
RTVSPost2010PropOp39
 70
     1
102
RTVSPost2010Prop40
 90
        0
102
RTVSPost2010PropOp40
 70
     1
102
RTVSPost2010Prop41ColorIndex
 90
       18
102
RTVSPost2010Prop41ColorRGB
 90
        0
102
RTVSPost2010PropOp41
 70
     1
102
RTVSPost2010Prop42
 90
       50
102
RTVSPost2010PropOp42
 70
     1
102
RTVSPost2010Prop43
 90
        3
102
RTVSPost2010PropOp43
 70
     1
102
RTVSPost2010Prop44ColorIndex
 90
        5
102
RTVSPost2010Prop44ColorRGB
 90
      255
102
RTVSPost2010PropOp44
 70
     1
102
RTVSPost2010Prop45
280
     0
102
RTVSPost2010PropOp45
 70
     1
102
RTVSPost2010Prop46
 90
       50
102
RTVSPost2010PropOp46
 70
     1
102
RTVSPost2010Prop47
 90
       50
102
RTVSPost2010PropOp47
 70
     1
102
RTVSPost2010Prop48
 90
       50
102
RTVSPost2010PropOp48
 70
     1
102
RTVSPost2010Prop49
280
     0
102
RTVSPost2010PropOp49
 70
     1
102
RTVSPost2010Prop50
 90
       50
102
RTVSPost2010PropOp50
 70
     1
102
RTVSPost2010Prop51ColorIndex
 90
      256
102
RTVSPost2010Prop51ColorRGB
 90
-16777216
102
RTVSPost2010PropOp51
 70
     0
102
RTVSPost2010Prop52
140
1.0
102
RTVSPost2010PropOp52
 70
     0
102
RTVSPost2010Prop53
 90
        2
102
RTVSPost2010PropOp53
 70
     1
102
RTVSPost2010Prop54
  1
strokes_ogs.tif
102
RTVSPost2010PropOp54
 70
     1
102
RTVSPost2010Prop55
280
     0
102
RTVSPost2010PropOp55
 70
     1
102
RTVSPost2010Prop56
140
1.0
102
RTVSPost2010PropOp56
 70
     1
102
RTVSPost2010Prop57
140
1.0
102
RTVSPost2010PropOp57
 70
     1
  0
XRECORD
  5
1D0
102
{ACAD_REACTORS
330
1CF
102
}
330
1CF
100
AcDbXrecord
280
     1
102
RTVSPost2010Prop28
280
     0
102
RTVSPost2010PropOp28
 70
     0
102
RTVSPost2010Prop29
280
     1
102
RTVSPost2010PropOp29
 70
     0
102
RTVSPost2010Prop30
280
     1
102
RTVSPost2010PropOp30
 70
     0
102
RTVSPost2010Prop31
280
     0
102
RTVSPost2010PropOp31
 70
     0
102
RTVSPost2010Prop32
280
     0
102
RTVSPost2010PropOp32
 70
     0
102
RTVSPost2010Prop33
280
     0
102
RTVSPost2010PropOp33
 70
     0
102
RTVSPost2010Prop34
280
     0
102
RTVSPost2010PropOp34
 70
     0
102
RTVSPost2010Prop35
280
     0
102
RTVSPost2010PropOp35
 70
     0
102
RTVSPost2010Prop36
280
     0
102
RTVSPost2010PropOp36
 70
     0
102
RTVSPost2010Prop37
 90
       50
102
RTVSPost2010PropOp37
 70
     0
102
RTVSPost2010Prop38
140
0.0
102
RTVSPost2010PropOp38
 70
     0
102
RTVSPost2010Prop39
140
1.0
102
RTVSPost2010PropOp39
 70
     0
102
RTVSPost2010Prop40
 90
        0
102
RTVSPost2010PropOp40
 70
     0
102
RTVSPost2010Prop41ColorIndex
 90
       18
102
RTVSPost2010Prop41ColorRGB
 90
        0
102
RTVSPost2010PropOp41
 70
     0
102
RTVSPost2010Prop42
 90
       50
102
RTVSPost2010PropOp42
 70
     0
102
RTVSPost2010Prop43
 90
        3
102
RTVSPost2010PropOp43
 70
     0
102
RTVSPost2010Prop44ColorIndex
 90
        5
102
RTVSPost2010Prop44ColorRGB
 90
      255
102
RTVSPost2010PropOp44
 70
     0
102
RTVSPost2010Prop45
280
     0
102
RTVSPost2010PropOp45
 70
     0
102
RTVSPost2010Prop46
 90
       50
102
RTVSPost2010PropOp46
 70
     0
102
RTVSPost2010Prop47
 90
       50
102
RTVSPost2010PropOp47
 70
     0
102
RTVSPost2010Prop48
 90
       50
102
RTVSPost2010PropOp48
 70
     0
102
RTVSPost2010Prop49
280
     0
102
RTVSPost2010PropOp49
 70
     0
102
RTVSPost2010Prop50
 90
       50
102
RTVSPost2010PropOp50
 70
     0
102
RTVSPost2010Prop51ColorIndex
 90
      256
102
RTVSPost2010Prop51ColorRGB
 90
-16777216
102
RTVSPost2010PropOp51
 70
     0
102
RTVSPost2010Prop52
140
1.0
102
RTVSPost2010PropOp52
 70
     0
102
RTVSPost2010Prop53
 90
        2
102
RTVSPost2010PropOp53
 70
     0
102
RTVSPost2010Prop54
  1
strokes_ogs.tif
102
RTVSPost2010PropOp54
 70
     0
102
RTVSPost2010Prop55
280
     0
102
RTVSPost2010PropOp55
 70
     0
102
RTVSPost2010Prop56
140
1.0
102
RTVSPost2010PropOp56
 70
     0
102
RTVSPost2010Prop57
140
1.0
102
RTVSPost2010PropOp57
 70
     0
  0
XRECORD
  5
1C0
102
{ACAD_REACTORS
330
1BF
102
}
330
1BF
100
AcDbXrecord
280
     1
102
RTVSPost2010Prop28
280
     0
102
RTVSPost2010PropOp28
 70
     1
102
RTVSPost2010Prop29
280
     1
102
RTVSPost2010PropOp29
 70
     1
102
RTVSPost2010Prop30
280
     1
102
RTVSPost2010PropOp30
 70
     1
102
RTVSPost2010Prop31
280
     0
102
RTVSPost2010PropOp31
 70
     1
102
RTVSPost2010Prop32
280
     0
102
RTVSPost2010PropOp32
 70
     1
102
RTVSPost2010Prop33
280
     0
102
RTVSPost2010PropOp33
 70
     1
102
RTVSPost2010Prop34
280
     0
102
RTVSPost2010PropOp34
 70
     1
102
RTVSPost2010Prop35
280
     0
102
RTVSPost2010PropOp35
 70
     1
102
RTVSPost2010Prop36
280
     0
102
RTVSPost2010PropOp36
 70
     1
102
RTVSPost2010Prop37
 90
       50
102
RTVSPost2010PropOp37
 70
     1
102
RTVSPost2010Prop38
140
0.0
102
RTVSPost2010PropOp38
 70
     1
102
RTVSPost2010Prop39
140
1.0
102
RTVSPost2010PropOp39
 70
     1
102
RTVSPost2010Prop40
 90
        0
102
RTVSPost2010PropOp40
 70
     1
102
RTVSPost2010Prop41ColorIndex
 90
       18
102
RTVSPost2010Prop41ColorRGB
 90
        0
102
RTVSPost2010PropOp41
 70
     1
102
RTVSPost2010Prop42
 90
       50
102
RTVSPost2010PropOp42
 70
     1
102
RTVSPost2010Prop43
 90
        3
102
RTVSPost2010PropOp43
 70
     1
102
RTVSPost2010Prop44ColorIndex
 90
        5
102
RTVSPost2010Prop44ColorRGB
 90
      255
102
RTVSPost2010PropOp44
 70
     1
102
RTVSPost2010Prop45
280
     0
102
RTVSPost2010PropOp45
 70
     1
102
RTVSPost2010Prop46
 90
       50
102
RTVSPost2010PropOp46
 70
     1
102
RTVSPost2010Prop47
 90
       50
102
RTVSPost2010PropOp47
 70
     1
102
RTVSPost2010Prop48
 90
       50
102
RTVSPost2010PropOp48
 70
     1
102
RTVSPost2010Prop49
280
     0
102
RTVSPost2010PropOp49
 70
     1
102
RTVSPost2010Prop50
 90
       50
102
RTVSPost2010PropOp50
 70
     1
102
RTVSPost2010Prop51ColorIndex
 90
      256
102
RTVSPost2010Prop51ColorRGB
 90
-16777216
102
RTVSPost2010PropOp51
 70
     0
102
RTVSPost2010Prop52
140
1.0
102
RTVSPost2010PropOp52
 70
     0
102
RTVSPost2010Prop53
 90
        2
102
RTVSPost2010PropOp53
 70
     1
102
RTVSPost2010Prop54
  1
strokes_ogs.tif
102
RTVSPost2010PropOp54
 70
     1
102
RTVSPost2010Prop55
280
     0
102
RTVSPost2010PropOp55
 70
     1
102
RTVSPost2010Prop56
140
1.0
102
RTVSPost2010PropOp56
 70
     1
102
RTVSPost2010Prop57
140
1.0
102
RTVSPost2010PropOp57
 70
     1
  0
XRECORD
  5
1D2
102
{ACAD_REACTORS
330
1D1
102
}
330
1D1
100
AcDbXrecord
280
     1
102
RTVSPost2010Prop28
280
     0
102
RTVSPost2010PropOp28
 70
     0
102
RTVSPost2010Prop29
280
     1
102
RTVSPost2010PropOp29
 70
     0
102
RTVSPost2010Prop30
280
     1
102
RTVSPost2010PropOp30
 70
     0
102
RTVSPost2010Prop31
280
     0
102
RTVSPost2010PropOp31
 70
     0
102
RTVSPost2010Prop32
280
     0
102
RTVSPost2010PropOp32
 70
     0
102
RTVSPost2010Prop33
280
     0
102
RTVSPost2010PropOp33
 70
     0
102
RTVSPost2010Prop34
280
     0
102
RTVSPost2010PropOp34
 70
     0
102
RTVSPost2010Prop35
280
     0
102
RTVSPost2010PropOp35
 70
     0
102
RTVSPost2010Prop36
280
     0
102
RTVSPost2010PropOp36
 70
     0
102
RTVSPost2010Prop37
 90
       50
102
RTVSPost2010PropOp37
 70
     0
102
RTVSPost2010Prop38
140
0.0
102
RTVSPost2010PropOp38
 70
     0
102
RTVSPost2010Prop39
140
1.0
102
RTVSPost2010PropOp39
 70
     0
102
RTVSPost2010Prop40
 90
        0
102
RTVSPost2010PropOp40
 70
     0
102
RTVSPost2010Prop41ColorIndex
 90
       18
102
RTVSPost2010Prop41ColorRGB
 90
        0
102
RTVSPost2010PropOp41
 70
     0
102
RTVSPost2010Prop42
 90
       50
102
RTVSPost2010PropOp42
 70
     0
102
RTVSPost2010Prop43
 90
        3
102
RTVSPost2010PropOp43
 70
     0
102
RTVSPost2010Prop44ColorIndex
 90
        5
102
RTVSPost2010Prop44ColorRGB
 90
      255
102
RTVSPost2010PropOp44
 70
     0
102
RTVSPost2010Prop45
280
     0
102
RTVSPost2010PropOp45
 70
     0
102
RTVSPost2010Prop46
 90
       50
102
RTVSPost2010PropOp46
 70
     0
102
RTVSPost2010Prop47
 90
       50
102
RTVSPost2010PropOp47
 70
     0
102
RTVSPost2010Prop48
 90
       50
102
RTVSPost2010PropOp48
 70
     0
102
RTVSPost2010Prop49
280
     0
102
RTVSPost2010PropOp49
 70
     0
102
RTVSPost2010Prop50
 90
       50
102
RTVSPost2010PropOp50
 70
     0
102
RTVSPost2010Prop51ColorIndex
 90
      256
102
RTVSPost2010Prop51ColorRGB
 90
-16777216
102
RTVSPost2010PropOp51
 70
     0
102
RTVSPost2010Prop52
140
1.0
102
RTVSPost2010PropOp52
 70
     0
102
RTVSPost2010Prop53
 90
        2
102
RTVSPost2010PropOp53
 70
     0
102
RTVSPost2010Prop54
  1
strokes_ogs.tif
102
RTVSPost2010PropOp54
 70
     0
102
RTVSPost2010Prop55
280
     0
102
RTVSPost2010PropOp55
 70
     0
102
RTVSPost2010Prop56
140
1.0
102
RTVSPost2010PropOp56
 70
     0
102
RTVSPost2010Prop57
140
1.0
102
RTVSPost2010PropOp57
 70
     0
  0
XRECORD
  5
1B8
102
{ACAD_REACTORS
330
1B7
102
}
330
1B7
100
AcDbXrecord
280
     1
102
RTVSPost2010Prop28
280
     0
102
RTVSPost2010PropOp28
 70
     1
102
RTVSPost2010Prop29
280
     1
102
RTVSPost2010PropOp29
 70
     1
102
RTVSPost2010Prop30
280
     1
102
RTVSPost2010PropOp30
 70
     1
102
RTVSPost2010Prop31
280
     0
102
RTVSPost2010PropOp31
 70
     1
102
RTVSPost2010Prop32
280
     0
102
RTVSPost2010PropOp32
 70
     1
102
RTVSPost2010Prop33
280
     0
102
RTVSPost2010PropOp33
 70
     1
102
RTVSPost2010Prop34
280
     0
102
RTVSPost2010PropOp34
 70
     1
102
RTVSPost2010Prop35
280
     0
102
RTVSPost2010PropOp35
 70
     1
102
RTVSPost2010Prop36
280
     0
102
RTVSPost2010PropOp36
 70
     1
102
RTVSPost2010Prop37
 90
       50
102
RTVSPost2010PropOp37
 70
     1
102
RTVSPost2010Prop38
140
0.0
102
RTVSPost2010PropOp38
 70
     1
102
RTVSPost2010Prop39
140
1.0
102
RTVSPost2010PropOp39
 70
     1
102
RTVSPost2010Prop40
 90
        0
102
RTVSPost2010PropOp40
 70
     1
102
RTVSPost2010Prop41ColorIndex
 90
       18
102
RTVSPost2010Prop41ColorRGB
 90
        0
102
RTVSPost2010PropOp41
 70
     1
102
RTVSPost2010Prop42
 90
       50
102
RTVSPost2010PropOp42
 70
     1
102
RTVSPost2010Prop43
 90
        3
102
RTVSPost2010PropOp43
 70
     1
102
RTVSPost2010Prop44ColorIndex
 90
        5
102
RTVSPost2010Prop44ColorRGB
 90
      255
102
RTVSPost2010PropOp44
 70
     1
102
RTVSPost2010Prop45
280
     0
102
RTVSPost2010PropOp45
 70
     1
102
RTVSPost2010Prop46
 90
       50
102
RTVSPost2010PropOp46
 70
     1
102
RTVSPost2010Prop47
 90
       50
102
RTVSPost2010PropOp47
 70
     1
102
RTVSPost2010Prop48
 90
       50
102
RTVSPost2010PropOp48
 70
     1
102
RTVSPost2010Prop49
280
     0
102
RTVSPost2010PropOp49
 70
     1
102
RTVSPost2010Prop50
 90
       50
102
RTVSPost2010PropOp50
 70
     1
102
RTVSPost2010Prop51ColorIndex
 90
      256
102
RTVSPost2010Prop51ColorRGB
 90
-16777216
102
RTVSPost2010PropOp51
 70
     0
102
RTVSPost2010Prop52
140
1.0
102
RTVSPost2010PropOp52
 70
     0
102
RTVSPost2010Prop53
 90
        2
102
RTVSPost2010PropOp53
 70
     1
102
RTVSPost2010Prop54
  1
strokes_ogs.tif
102
RTVSPost2010PropOp54
 70
     1
102
RTVSPost2010Prop55
280
     0
102
RTVSPost2010PropOp55
 70
     1
102
RTVSPost2010Prop56
140
1.0
102
RTVSPost2010PropOp56
 70
     1
102
RTVSPost2010Prop57
140
1.0
102
RTVSPost2010PropOp57
 70
     1
  0
XRECORD
  5
1CE
102
{ACAD_REACTORS
330
1CD
102
}
330
1CD
100
AcDbXrecord
280
     1
102
RTVSPost2010Prop28
280
     0
102
RTVSPost2010PropOp28
 70
     1
102
RTVSPost2010Prop29
280
     1
102
RTVSPost2010PropOp29
 70
     1
102
RTVSPost2010Prop30
280
     1
102
RTVSPost2010PropOp30
 70
     1
102
RTVSPost2010Prop31
280
     0
102
RTVSPost2010PropOp31
 70
     1
102
RTVSPost2010Prop32
280
     0
102
RTVSPost2010PropOp32
 70
     1
102
RTVSPost2010Prop33
280
     0
102
RTVSPost2010PropOp33
 70
     1
102
RTVSPost2010Prop34
280
     0
102
RTVSPost2010PropOp34
 70
     1
102
RTVSPost2010Prop35
280
     0
102
RTVSPost2010PropOp35
 70
     1
102
RTVSPost2010Prop36
280
     0
102
RTVSPost2010PropOp36
 70
     1
102
RTVSPost2010Prop37
 90
       50
102
RTVSPost2010PropOp37
 70
     1
102
RTVSPost2010Prop38
140
0.0
102
RTVSPost2010PropOp38
 70
     1
102
RTVSPost2010Prop39
140
1.0
102
RTVSPost2010PropOp39
 70
     1
102
RTVSPost2010Prop40
 90
        0
102
RTVSPost2010PropOp40
 70
     1
102
RTVSPost2010Prop41ColorIndex
 90
       18
102
RTVSPost2010Prop41ColorRGB
 90
        0
102
RTVSPost2010PropOp41
 70
     1
102
RTVSPost2010Prop42
 90
       50
102
RTVSPost2010PropOp42
 70
     1
102
RTVSPost2010Prop43
 90
        3
102
RTVSPost2010PropOp43
 70
     1
102
RTVSPost2010Prop44ColorIndex
 90
        5
102
RTVSPost2010Prop44ColorRGB
 90
      255
102
RTVSPost2010PropOp44
 70
     1
102
RTVSPost2010Prop45
280
     0
102
RTVSPost2010PropOp45
 70
     1
102
RTVSPost2010Prop46
 90
       50
102
RTVSPost2010PropOp46
 70
     1
102
RTVSPost2010Prop47
 90
       50
102
RTVSPost2010PropOp47
 70
     1
102
RTVSPost2010Prop48
 90
       50
102
RTVSPost2010PropOp48
 70
     1
102
RTVSPost2010Prop49
280
     0
102
RTVSPost2010PropOp49
 70
     1
102
RTVSPost2010Prop50
 90
       50
102
RTVSPost2010PropOp50
 70
     1
102
RTVSPost2010Prop51ColorIndex
 90
      256
102
RTVSPost2010Prop51ColorRGB
 90
-16777216
102
RTVSPost2010PropOp51
 70
     0
102
RTVSPost2010Prop52
140
1.0
102
RTVSPost2010PropOp52
 70
     0
102
RTVSPost2010Prop53
 90
        2
102
RTVSPost2010PropOp53
 70
     1
102
RTVSPost2010Prop54
  1
strokes_ogs.tif
102
RTVSPost2010PropOp54
 70
     1
102
RTVSPost2010Prop55
280
     0
102
RTVSPost2010PropOp55
 70
     1
102
RTVSPost2010Prop56
140
1.0
102
RTVSPost2010PropOp56
 70
     1
102
RTVSPost2010Prop57
140
1.0
102
RTVSPost2010PropOp57
 70
     1
  0
XRECORD
  5
1CC
102
{ACAD_REACTORS
330
1CB
102
}
330
1CB
100
AcDbXrecord
280
     1
102
RTVSPost2010Prop28
280
     0
102
RTVSPost2010PropOp28
 70
     1
102
RTVSPost2010Prop29
280
     1
102
RTVSPost2010PropOp29
 70
     1
102
RTVSPost2010Prop30
280
     1
102
RTVSPost2010PropOp30
 70
     1
102
RTVSPost2010Prop31
280
     0
102
RTVSPost2010PropOp31
 70
     1
102
RTVSPost2010Prop32
280
     0
102
RTVSPost2010PropOp32
 70
     1
102
RTVSPost2010Prop33
280
     0
102
RTVSPost2010PropOp33
 70
     1
102
RTVSPost2010Prop34
280
     0
102
RTVSPost2010PropOp34
 70
     1
102
RTVSPost2010Prop35
280
     0
102
RTVSPost2010PropOp35
 70
     1
102
RTVSPost2010Prop36
280
     0
102
RTVSPost2010PropOp36
 70
     1
102
RTVSPost2010Prop37
 90
       50
102
RTVSPost2010PropOp37
 70
     1
102
RTVSPost2010Prop38
140
0.0
102
RTVSPost2010PropOp38
 70
     1
102
RTVSPost2010Prop39
140
1.0
102
RTVSPost2010PropOp39
 70
     1
102
RTVSPost2010Prop40
 90
        0
102
RTVSPost2010PropOp40
 70
     1
102
RTVSPost2010Prop41ColorIndex
 90
       18
102
RTVSPost2010Prop41ColorRGB
 90
        0
102
RTVSPost2010PropOp41
 70
     1
102
RTVSPost2010Prop42
 90
       50
102
RTVSPost2010PropOp42
 70
     1
102
RTVSPost2010Prop43
 90
        3
102
RTVSPost2010PropOp43
 70
     1
102
RTVSPost2010Prop44ColorIndex
 90
        5
102
RTVSPost2010Prop44ColorRGB
 90
      255
102
RTVSPost2010PropOp44
 70
     1
102
RTVSPost2010Prop45
280
     0
102
RTVSPost2010PropOp45
 70
     1
102
RTVSPost2010Prop46
 90
       50
102
RTVSPost2010PropOp46
 70
     1
102
RTVSPost2010Prop47
 90
       50
102
RTVSPost2010PropOp47
 70
     1
102
RTVSPost2010Prop48
 90
       50
102
RTVSPost2010PropOp48
 70
     1
102
RTVSPost2010Prop49
280
     0
102
RTVSPost2010PropOp49
 70
     1
102
RTVSPost2010Prop50
 90
       50
102
RTVSPost2010PropOp50
 70
     1
102
RTVSPost2010Prop51ColorIndex
 90
      256
102
RTVSPost2010Prop51ColorRGB
 90
-16777216
102
RTVSPost2010PropOp51
 70
     0
102
RTVSPost2010Prop52
140
1.0
102
RTVSPost2010PropOp52
 70
     0
102
RTVSPost2010Prop53
 90
        2
102
RTVSPost2010PropOp53
 70
     1
102
RTVSPost2010Prop54
  1
strokes_ogs.tif
102
RTVSPost2010PropOp54
 70
     1
102
RTVSPost2010Prop55
280
     0
102
RTVSPost2010PropOp55
 70
     1
102
RTVSPost2010Prop56
140
1.0
102
RTVSPost2010PropOp56
 70
     1
102
RTVSPost2010Prop57
140
1.0
102
RTVSPost2010PropOp57
 70
     1
  0
XRECORD
  5
1C6
102
{ACAD_REACTORS
330
1C5
102
}
330
1C5
100
AcDbXrecord
280
     1
102
RTVSPost2010Prop28
280
     0
102
RTVSPost2010PropOp28
 70
     1
102
RTVSPost2010Prop29
280
     1
102
RTVSPost2010PropOp29
 70
     1
102
RTVSPost2010Prop30
280
     1
102
RTVSPost2010PropOp30
 70
     1
102
RTVSPost2010Prop31
280
     0
102
RTVSPost2010PropOp31
 70
     1
102
RTVSPost2010Prop32
280
     0
102
RTVSPost2010PropOp32
 70
     1
102
RTVSPost2010Prop33
280
     0
102
RTVSPost2010PropOp33
 70
     1
102
RTVSPost2010Prop34
280
     0
102
RTVSPost2010PropOp34
 70
     1
102
RTVSPost2010Prop35
280
     0
102
RTVSPost2010PropOp35
 70
     1
102
RTVSPost2010Prop36
280
     0
102
RTVSPost2010PropOp36
 70
     1
102
RTVSPost2010Prop37
 90
       50
102
RTVSPost2010PropOp37
 70
     1
102
RTVSPost2010Prop38
140
0.0
102
RTVSPost2010PropOp38
 70
     1
102
RTVSPost2010Prop39
140
1.0
102
RTVSPost2010PropOp39
 70
     1
102
RTVSPost2010Prop40
 90
        0
102
RTVSPost2010PropOp40
 70
     1
102
RTVSPost2010Prop41ColorIndex
 90
       18
102
RTVSPost2010Prop41ColorRGB
 90
        0
102
RTVSPost2010PropOp41
 70
     1
102
RTVSPost2010Prop42
 90
       50
102
RTVSPost2010PropOp42
 70
     1
102
RTVSPost2010Prop43
 90
        3
102
RTVSPost2010PropOp43
 70
     1
102
RTVSPost2010Prop44ColorIndex
 90
        5
102
RTVSPost2010Prop44ColorRGB
 90
      255
102
RTVSPost2010PropOp44
 70
     1
102
RTVSPost2010Prop45
280
     0
102
RTVSPost2010PropOp45
 70
     1
102
RTVSPost2010Prop46
 90
       50
102
RTVSPost2010PropOp46
 70
     1
102
RTVSPost2010Prop47
 90
       50
102
RTVSPost2010PropOp47
 70
     1
102
RTVSPost2010Prop48
 90
       50
102
RTVSPost2010PropOp48
 70
     1
102
RTVSPost2010Prop49
280
     0
102
RTVSPost2010PropOp49
 70
     1
102
RTVSPost2010Prop50
 90
       50
102
RTVSPost2010PropOp50
 70
     1
102
RTVSPost2010Prop51ColorIndex
 90
      256
102
RTVSPost2010Prop51ColorRGB
 90
-16777216
102
RTVSPost2010PropOp51
 70
     0
102
RTVSPost2010Prop52
140
1.0
102
RTVSPost2010PropOp52
 70
     0
102
RTVSPost2010Prop53
 90
        2
102
RTVSPost2010PropOp53
 70
     1
102
RTVSPost2010Prop54
  1
strokes_ogs.tif
102
RTVSPost2010PropOp54
 70
     1
102
RTVSPost2010Prop55
280
     0
102
RTVSPost2010PropOp55
 70
     1
102
RTVSPost2010Prop56
140
1.0
102
RTVSPost2010PropOp56
 70
     1
102
RTVSPost2010Prop57
140
1.0
102
RTVSPost2010PropOp57
 70
     1
  0
XRECORD
  5
1C8
102
{ACAD_REACTORS
330
1C7
102
}
330
1C7
100
AcDbXrecord
280
     1
102
RTVSPost2010Prop28
280
     0
102
RTVSPost2010PropOp28
 70
     1
102
RTVSPost2010Prop29
280
     1
102
RTVSPost2010PropOp29
 70
     1
102
RTVSPost2010Prop30
280
     1
102
RTVSPost2010PropOp30
 70
     1
102
RTVSPost2010Prop31
280
     0
102
RTVSPost2010PropOp31
 70
     1
102
RTVSPost2010Prop32
280
     0
102
RTVSPost2010PropOp32
 70
     1
102
RTVSPost2010Prop33
280
     0
102
RTVSPost2010PropOp33
 70
     1
102
RTVSPost2010Prop34
280
     0
102
RTVSPost2010PropOp34
 70
     1
102
RTVSPost2010Prop35
280
     0
102
RTVSPost2010PropOp35
 70
     1
102
RTVSPost2010Prop36
280
     0
102
RTVSPost2010PropOp36
 70
     1
102
RTVSPost2010Prop37
 90
       50
102
RTVSPost2010PropOp37
 70
     1
102
RTVSPost2010Prop38
140
0.0
102
RTVSPost2010PropOp38
 70
     1
102
RTVSPost2010Prop39
140
1.0
102
RTVSPost2010PropOp39
 70
     1
102
RTVSPost2010Prop40
 90
        0
102
RTVSPost2010PropOp40
 70
     1
102
RTVSPost2010Prop41ColorIndex
 90
       18
102
RTVSPost2010Prop41ColorRGB
 90
        0
102
RTVSPost2010PropOp41
 70
     1
102
RTVSPost2010Prop42
 90
       50
102
RTVSPost2010PropOp42
 70
     1
102
RTVSPost2010Prop43
 90
        3
102
RTVSPost2010PropOp43
 70
     1
102
RTVSPost2010Prop44ColorIndex
 90
        5
102
RTVSPost2010Prop44ColorRGB
 90
      255
102
RTVSPost2010PropOp44
 70
     1
102
RTVSPost2010Prop45
280
     0
102
RTVSPost2010PropOp45
 70
     1
102
RTVSPost2010Prop46
 90
       50
102
RTVSPost2010PropOp46
 70
     1
102
RTVSPost2010Prop47
 90
       50
102
RTVSPost2010PropOp47
 70
     1
102
RTVSPost2010Prop48
 90
       50
102
RTVSPost2010PropOp48
 70
     1
102
RTVSPost2010Prop49
280
     0
102
RTVSPost2010PropOp49
 70
     1
102
RTVSPost2010Prop50
 90
       50
102
RTVSPost2010PropOp50
 70
     1
102
RTVSPost2010Prop51ColorIndex
 90
      256
102
RTVSPost2010Prop51ColorRGB
 90
-16777216
102
RTVSPost2010PropOp51
 70
     0
102
RTVSPost2010Prop52
140
1.0
102
RTVSPost2010PropOp52
 70
     0
102
RTVSPost2010Prop53
 90
        2
102
RTVSPost2010PropOp53
 70
     1
102
RTVSPost2010Prop54
  1
strokes_ogs.tif
102
RTVSPost2010PropOp54
 70
     1
102
RTVSPost2010Prop55
280
     0
102
RTVSPost2010PropOp55
 70
     1
102
RTVSPost2010Prop56
140
1.0
102
RTVSPost2010PropOp56
 70
     1
102
RTVSPost2010Prop57
140
1.0
102
RTVSPost2010PropOp57
 70
     1
  0
XRECORD
  5
1BE
102
{ACAD_REACTORS
330
1BD
102
}
330
1BD
100
AcDbXrecord
280
     1
102
RTVSPost2010Prop28
280
     0
102
RTVSPost2010PropOp28
 70
     1
102
RTVSPost2010Prop29
280
     1
102
RTVSPost2010PropOp29
 70
     1
102
RTVSPost2010Prop30
280
     1
102
RTVSPost2010PropOp30
 70
     1
102
RTVSPost2010Prop31
280
     0
102
RTVSPost2010PropOp31
 70
     1
102
RTVSPost2010Prop32
280
     0
102
RTVSPost2010PropOp32
 70
     1
102
RTVSPost2010Prop33
280
     0
102
RTVSPost2010PropOp33
 70
     1
102
RTVSPost2010Prop34
280
     0
102
RTVSPost2010PropOp34
 70
     1
102
RTVSPost2010Prop35
280
     0
102
RTVSPost2010PropOp35
 70
     1
102
RTVSPost2010Prop36
280
     0
102
RTVSPost2010PropOp36
 70
     1
102
RTVSPost2010Prop37
 90
       50
102
RTVSPost2010PropOp37
 70
     1
102
RTVSPost2010Prop38
140
0.0
102
RTVSPost2010PropOp38
 70
     1
102
RTVSPost2010Prop39
140
1.0
102
RTVSPost2010PropOp39
 70
     1
102
RTVSPost2010Prop40
 90
        0
102
RTVSPost2010PropOp40
 70
     1
102
RTVSPost2010Prop41ColorIndex
 90
       18
102
RTVSPost2010Prop41ColorRGB
 90
        0
102
RTVSPost2010PropOp41
 70
     1
102
RTVSPost2010Prop42
 90
       50
102
RTVSPost2010PropOp42
 70
     1
102
RTVSPost2010Prop43
 90
        3
102
RTVSPost2010PropOp43
 70
     1
102
RTVSPost2010Prop44ColorIndex
 90
        5
102
RTVSPost2010Prop44ColorRGB
 90
      255
102
RTVSPost2010PropOp44
 70
     1
102
RTVSPost2010Prop45
280
     0
102
RTVSPost2010PropOp45
 70
     1
102
RTVSPost2010Prop46
 90
       50
102
RTVSPost2010PropOp46
 70
     1
102
RTVSPost2010Prop47
 90
       50
102
RTVSPost2010PropOp47
 70
     1
102
RTVSPost2010Prop48
 90
       50
102
RTVSPost2010PropOp48
 70
     1
102
RTVSPost2010Prop49
280
     0
102
RTVSPost2010PropOp49
 70
     1
102
RTVSPost2010Prop50
 90
       50
102
RTVSPost2010PropOp50
 70
     1
102
RTVSPost2010Prop51ColorIndex
 90
      256
102
RTVSPost2010Prop51ColorRGB
 90
-16777216
102
RTVSPost2010PropOp51
 70
     0
102
RTVSPost2010Prop52
140
1.0
102
RTVSPost2010PropOp52
 70
     0
102
RTVSPost2010Prop53
 90
        2
102
RTVSPost2010PropOp53
 70
     1
102
RTVSPost2010Prop54
  1
strokes_ogs.tif
102
RTVSPost2010PropOp54
 70
     1
102
RTVSPost2010Prop55
280
     0
102
RTVSPost2010PropOp55
 70
     1
102
RTVSPost2010Prop56
140
1.0
102
RTVSPost2010PropOp56
 70
     1
102
RTVSPost2010Prop57
140
1.0
102
RTVSPost2010PropOp57
 70
     1
  0
XRECORD
  5
1B2
102
{ACAD_REACTORS
330
1B1
102
}
330
1B1
100
AcDbXrecord
280
     1
102
RTVSPost2010Prop28
280
     0
102
RTVSPost2010PropOp28
 70
     1
102
RTVSPost2010Prop29
280
     1
102
RTVSPost2010PropOp29
 70
     1
102
RTVSPost2010Prop30
280
     1
102
RTVSPost2010PropOp30
 70
     1
102
RTVSPost2010Prop31
280
     0
102
RTVSPost2010PropOp31
 70
     1
102
RTVSPost2010Prop32
280
     0
102
RTVSPost2010PropOp32
 70
     1
102
RTVSPost2010Prop33
280
     0
102
RTVSPost2010PropOp33
 70
     1
102
RTVSPost2010Prop34
280
     0
102
RTVSPost2010PropOp34
 70
     1
102
RTVSPost2010Prop35
280
     0
102
RTVSPost2010PropOp35
 70
     1
102
RTVSPost2010Prop36
280
     0
102
RTVSPost2010PropOp36
 70
     1
102
RTVSPost2010Prop37
 90
       50
102
RTVSPost2010PropOp37
 70
     1
102
RTVSPost2010Prop38
140
0.0
102
RTVSPost2010PropOp38
 70
     1
102
RTVSPost2010Prop39
140
1.0
102
RTVSPost2010PropOp39
 70
     1
102
RTVSPost2010Prop40
 90
        0
102
RTVSPost2010PropOp40
 70
     1
102
RTVSPost2010Prop41ColorIndex
 90
       18
102
RTVSPost2010Prop41ColorRGB
 90
        0
102
RTVSPost2010PropOp41
 70
     1
102
RTVSPost2010Prop42
 90
       50
102
RTVSPost2010PropOp42
 70
     1
102
RTVSPost2010Prop43
 90
        3
102
RTVSPost2010PropOp43
 70
     1
102
RTVSPost2010Prop44ColorIndex
 90
        5
102
RTVSPost2010Prop44ColorRGB
 90
      255
102
RTVSPost2010PropOp44
 70
     1
102
RTVSPost2010Prop45
280
     0
102
RTVSPost2010PropOp45
 70
     1
102
RTVSPost2010Prop46
 90
       50
102
RTVSPost2010PropOp46
 70
     1
102
RTVSPost2010Prop47
 90
       50
102
RTVSPost2010PropOp47
 70
     1
102
RTVSPost2010Prop48
 90
       50
102
RTVSPost2010PropOp48
 70
     1
102
RTVSPost2010Prop49
280
     0
102
RTVSPost2010PropOp49
 70
     1
102
RTVSPost2010Prop50
 90
       50
102
RTVSPost2010PropOp50
 70
     1
102
RTVSPost2010Prop51ColorIndex
 90
      256
102
RTVSPost2010Prop51ColorRGB
 90
-16777216
102
RTVSPost2010PropOp51
 70
     0
102
RTVSPost2010Prop52
140
1.0
102
RTVSPost2010PropOp52
 70
     0
102
RTVSPost2010Prop53
 90
        2
102
RTVSPost2010PropOp53
 70
     1
102
RTVSPost2010Prop54
  1
strokes_ogs.tif
102
RTVSPost2010PropOp54
 70
     1
102
RTVSPost2010Prop55
280
     0
102
RTVSPost2010PropOp55
 70
     1
102
RTVSPost2010Prop56
140
1.0
102
RTVSPost2010PropOp56
 70
     1
102
RTVSPost2010Prop57
140
1.0
102
RTVSPost2010PropOp57
 70
     1
  0
XRECORD
  5
1CA
102
{ACAD_REACTORS
330
1C9
102
}
330
1C9
100
AcDbXrecord
280
     1
102
RTVSPost2010Prop28
280
     0
102
RTVSPost2010PropOp28
 70
     1
102
RTVSPost2010Prop29
280
     1
102
RTVSPost2010PropOp29
 70
     1
102
RTVSPost2010Prop30
280
     1
102
RTVSPost2010PropOp30
 70
     1
102
RTVSPost2010Prop31
280
     0
102
RTVSPost2010PropOp31
 70
     1
102
RTVSPost2010Prop32
280
     0
102
RTVSPost2010PropOp32
 70
     1
102
RTVSPost2010Prop33
280
     0
102
RTVSPost2010PropOp33
 70
     1
102
RTVSPost2010Prop34
280
     0
102
RTVSPost2010PropOp34
 70
     1
102
RTVSPost2010Prop35
280
     0
102
RTVSPost2010PropOp35
 70
     1
102
RTVSPost2010Prop36
280
     0
102
RTVSPost2010PropOp36
 70
     1
102
RTVSPost2010Prop37
 90
       50
102
RTVSPost2010PropOp37
 70
     1
102
RTVSPost2010Prop38
140
0.0
102
RTVSPost2010PropOp38
 70
     1
102
RTVSPost2010Prop39
140
1.0
102
RTVSPost2010PropOp39
 70
     1
102
RTVSPost2010Prop40
 90
        0
102
RTVSPost2010PropOp40
 70
     1
102
RTVSPost2010Prop41ColorIndex
 90
       18
102
RTVSPost2010Prop41ColorRGB
 90
        0
102
RTVSPost2010PropOp41
 70
     1
102
RTVSPost2010Prop42
 90
       50
102
RTVSPost2010PropOp42
 70
     1
102
RTVSPost2010Prop43
 90
        3
102
RTVSPost2010PropOp43
 70
     1
102
RTVSPost2010Prop44ColorIndex
 90
        5
102
RTVSPost2010Prop44ColorRGB
 90
      255
102
RTVSPost2010PropOp44
 70
     1
102
RTVSPost2010Prop45
280
     0
102
RTVSPost2010PropOp45
 70
     1
102
RTVSPost2010Prop46
 90
       50
102
RTVSPost2010PropOp46
 70
     1
102
RTVSPost2010Prop47
 90
       50
102
RTVSPost2010PropOp47
 70
     1
102
RTVSPost2010Prop48
 90
       50
102
RTVSPost2010PropOp48
 70
     1
102
RTVSPost2010Prop49
280
     0
102
RTVSPost2010PropOp49
 70
     1
102
RTVSPost2010Prop50
 90
       50
102
RTVSPost2010PropOp50
 70
     1
102
RTVSPost2010Prop51ColorIndex
 90
      256
102
RTVSPost2010Prop51ColorRGB
 90
-16777216
102
RTVSPost2010PropOp51
 70
     0
102
RTVSPost2010Prop52
140
1.0
102
RTVSPost2010PropOp52
 70
     0
102
RTVSPost2010Prop53
 90
        2
102
RTVSPost2010PropOp53
 70
     1
102
RTVSPost2010Prop54
  1
strokes_ogs.tif
102
RTVSPost2010PropOp54
 70
     1
102
RTVSPost2010Prop55
280
     0
102
RTVSPost2010PropOp55
 70
     1
102
RTVSPost2010Prop56
140
1.0
102
RTVSPost2010PropOp56
 70
     1
102
RTVSPost2010Prop57
140
1.0
102
RTVSPost2010PropOp57
 70
     1
  0
ENDSEC
  0
EOF
