  0
SECTION
  2
HEADER
  9
$ACADVER
  1
AC1024
  9
$ACADMAINTVER
 70
   226
  9
$DWGCODEPAGE
  3
ANSI_1252
  9
$INSBASE
 10
0.0
 20
0.0
 30
0.0
  9
$EXTMIN
 10
1.000000000000000E+20
 20
1.000000000000000E+20
 30
1.000000000000000E+20
  9
$EXTMAX
 10
-1.000000000000000E+20
 20
-1.000000000000000E+20
 30
-1.000000000000000E+20
  9
$LIMMIN
 10
0.0
 20
0.0
  9
$LIMMAX
 10
12.0
 20
9.0
  9
$ORTHOMODE
 70
     0
  9
$REGENMODE
 70
     1
  9
$FILLMODE
 70
     1
  9
$QTEXTMODE
 70
     0
  9
$MIRRTEXT
 70
     0
  9
$LTSCALE
 40
1.0
  9
$ATTMODE
 70
     1
  9
$TEXTSIZE
 40
0.2
  9
$TRACEWID
 40
0.05
  9
$TEXTSTYLE
  7
Standard
  9
$CLAYER
  8
0
  9
$CELTYPE
  6
ByLayer
  9
$CECOLOR
 62
   256
  9
$CELTSCALE
 40
1.0
  9
$DISPSILH
 70
     0
  9
$DIMSCALE
 40
1.0
  9
$DIMASZ
 40
0.18
  9
$DIMEXO
 40
0.0625
  9
$DIMDLI
 40
0.38
  9
$DIMRND
 40
0.0
  9
$DIMDLE
 40
0.0
  9
$DIMEXE
 40
0.18
  9
$DIMTP
 40
0.0
  9
$DIMTM
 40
0.0
  9
$DIMTXT
 40
0.18
  9
$DIMCEN
 40
0.09
  9
$DIMTSZ
 40
0.0
  9
$DIMTOL
 70
     0
  9
$DIMLIM
 70
     0
  9
$DIMTIH
 70
     1
  9
$DIMTOH
 70
     1
  9
$DIMSE1
 70
     0
  9
$DIMSE2
 70
     0
  9
$DIMTAD
 70
     0
  9
$DIMZIN
 70
     0
  9
$DIMBLK
  1

  9
$DIMASO
 70
     1
  9
$DIMSHO
 70
     1
  9
$DIMPOST
  1

  9
$DIMAPOST
  1

  9
$DIMALT
 70
     0
  9
$DIMALTD
 70
     2
  9
$DIMALTF
 40
25.4
  9
$DIMLFAC
 40
1.0
  9
$DIMTOFL
 70
     0
  9
$DIMTVP
 40
0.0
  9
$DIMTIX
 70
     0
  9
$DIMSOXD
 70
     0
  9
$DIMSAH
 70
     0
  9
$DIMBLK1
  1

  9
$DIMBLK2
  1

  9
$DIMSTYLE
  2
Standard
  9
$DIMCLRD
 70
     0
  9
$DIMCLRE
 70
     0
  9
$DIMCLRT
 70
     0
  9
$DIMTFAC
 40
1.0
  9
$DIMGAP
 40
0.09
  9
$DIMJUST
 70
     0
  9
$DIMSD1
 70
     0
  9
$DIMSD2
 70
     0
  9
$DIMTOLJ
 70
     1
  9
$DIMTZIN
 70
     0
  9
$DIMALTZ
 70
     0
  9
$DIMALTTZ
 70
     0
  9
$DIMUPT
 70
     0
  9
$DIMDEC
 70
     4
  9
$DIMTDEC
 70
     4
  9
$DIMALTU
 70
     2
  9
$DIMALTTD
 70
     2
  9
$DIMTXSTY
  7
Standard
  9
$DIMAUNIT
 70
     0
  9
$DIMADEC
 70
     0
  9
$DIMALTRND
 40
0.0
  9
$DIMAZIN
 70
     0
  9
$DIMDSEP
 70
    46
  9
$DIMATFIT
 70
     3
  9
$DIMFRAC
 70
     0
  9
$DIMLDRBLK
  1

  9
$DIMLUNIT
 70
     2
  9
$DIMLWD
 70
    -2
  9
$DIMLWE
 70
    -2
  9
$DIMTMOVE
 70
     0
  9
$DIMFXL
 40
1.0
  9
$DIMFXLON
 70
     0
  9
$DIMJOGANG
 40
0.7853981633974483
  9
$DIMTFILL
 70
     0
  9
$DIMTFILLCLR
 70
     0
  9
$DIMARCSYM
 70
     0
  9
$DIMLTYPE
  6

  9
$DIMLTEX1
  6

  9
$DIMLTEX2
  6

  9
$DIMTXTDIRECTION
 70
     0
  9
$LUNITS
 70
     2
  9
$LUPREC
 70
     4
  9
$SKETCHINC
 40
0.1
  9
$FILLETRAD
 40
0.0
  9
$AUNITS
 70
     0
  9
$AUPREC
 70
     0
  9
$MENU
  1
.
  9
$ELEVATION
 40
0.0
  9
$PELEVATION
 40
0.0
  9
$THICKNESS
 40
0.0
  9
$LIMCHECK
 70
     0
  9
$CHAMFERA
 40
0.0
  9
$CHAMFERB
 40
0.0
  9
$CHAMFERC
 40
0.0
  9
$CHAMFERD
 40
0.0
  9
$SKPOLY
 70
     0
  9
$TDCREATE
 40
2459493.443391204
  9
$TDUCREATE
 40
2459493.360057870
  9
$TDUPDATE
 40
2459493.443391204
  9
$TDUUPDATE
 40
2459493.360057870
  9
$TDINDWG
 40
0.0000000000
  9
$TDUSRTIMER
 40
0.0000000000
  9
$USRTIMER
 70
     1
  9
$ANGBASE
 50
0.0
  9
$ANGDIR
 70
     0
  9
$PDMODE
 70
     0
  9
$PDSIZE
 40
0.0
  9
$PLINEWID
 40
0.0
  9
$SPLFRAME
 70
     0
  9
$SPLINETYPE
 70
     6
  9
$SPLINESEGS
 70
     8
  9
$HANDSEED
  5
1E5
  9
$SURFTAB1
 70
     6
  9
$SURFTAB2
 70
     6
  9
$SURFTYPE
 70
     6
  9
$SURFU
 70
     6
  9
$SURFV
 70
     6
  9
$UCSBASE
  2

  9
$UCSNAME
  2

  9
$UCSORG
 10
0.0
 20
0.0
 30
0.0
  9
$UCSXDIR
 10
1.0
 20
0.0
 30
0.0
  9
$UCSYDIR
 10
0.0
 20
1.0
 30
0.0
  9
$UCSORTHOREF
  2

  9
$UCSORTHOVIEW
 70
     0
  9
$UCSORGTOP
 10
0.0
 20
0.0
 30
0.0
  9
$UCSORGBOTTOM
 10
0.0
 20
0.0
 30
0.0
  9
$UCSORGLEFT
 10
0.0
 20
0.0
 30
0.0
  9
$UCSORGRIGHT
 10
0.0
 20
0.0
 30
0.0
  9
$UCSORGFRONT
 10
0.0
 20
0.0
 30
0.0
  9
$UCSORGBACK
 10
0.0
 20
0.0
 30
0.0
  9
$PUCSBASE
  2

  9
$PUCSNAME
  2

  9
$PUCSORG
 10
0.0
 20
0.0
 30
0.0
  9
$PUCSXDIR
 10
1.0
 20
0.0
 30
0.0
  9
$PUCSYDIR
 10
0.0
 20
1.0
 30
0.0
  9
$PUCSORTHOREF
  2

  9
$PUCSORTHOVIEW
 70
     0
  9
$PUCSORGTOP
 10
0.0
 20
0.0
 30
0.0
  9
$PUCSORGBOTTOM
 10
0.0
 20
0.0
 30
0.0
  9
$PUCSORGLEFT
 10
0.0
 20
0.0
 30
0.0
  9
$PUCSORGRIGHT
 10
0.0
 20
0.0
 30
0.0
  9
$PUCSORGFRONT
 10
0.0
 20
0.0
 30
0.0
  9
$PUCSORGBACK
 10
0.0
 20
0.0
 30
0.0
  9
$USERI1
 70
     0
  9
$USERI2
 70
     0
  9
$USERI3
 70
     0
  9
$USERI4
 70
     0
  9
$USERI5
 70
     0
  9
$USERR1
 40
0.0
  9
$USERR2
 40
0.0
  9
$USERR3
 40
0.0
  9
$USERR4
 40
0.0
  9
$USERR5
 40
0.0
  9
$WORLDVIEW
 70
     1
  9
$SHADEDGE
 70
     3
  9
$SHADEDIF
 70
    70
  9
$TILEMODE
 70
     1
  9
$MAXACTVP
 70
    64
  9
$PINSBASE
 10
0.0
 20
0.0
 30
0.0
  9
$PLIMCHECK
 70
     0
  9
$PEXTMIN
 10
1.000000000000000E+20
 20
1.000000000000000E+20
 30
1.000000000000000E+20
  9
$PEXTMAX
 10
-1.000000000000000E+20
 20
-1.000000000000000E+20
 30
-1.000000000000000E+20
  9
$PLIMMIN
 10
0.0
 20
0.0
  9
$PLIMMAX
 10
12.0
 20
9.0
  9
$UNITMODE
 70
     0
  9
$VISRETAIN
 70
     1
  9
$PLINEGEN
 70
     0
  9
$PSLTSCALE
 70
     1
  9
$TREEDEPTH
 70
  3020
  9
$CMLSTYLE
  2
Standard
  9
$CMLJUST
 70
     0
  9
$CMLSCALE
 40
1.0
  9
$PROXYGRAPHICS
 70
     1
  9
$MEASUREMENT
 70
     0
  9
$CELWEIGHT
370
    -1
  9
$ENDCAPS
280
     0
  9
$JOINSTYLE
280
     0
  9
$LWDISPLAY
290
     1
  9
$INSUNITS
 70
     4
  9
$HYPERLINKBASE
  1

  9
$STYLESHEET
  1

  9
$XEDIT
290
     1
  9
$CEPSNTYPE
380
     0
  9
$PSTYLEMODE
290
     1
  9
$FINGERPRINTGUID
  2
{152411EB-55CE-F54A-8F14-EC40F0D3C11B}
  9
$VERSIONGUID
  2
{388600E4-827B-8849-8B0D-DF6FB7FC8F7D}
  9
$EXTNAMES
290
     1
  9
$PSVPSCALE
 40
0.0
  9
$OLESTARTUP
290
     0
  9
$SORTENTS
280
   127
  9
$INDEXCTL
280
     0
  9
$HIDETEXT
280
     1
  9
$XCLIPFRAME
280
     2
  9
$HALOGAP
280
     0
  9
$OBSCOLOR
 70
   257
  9
$OBSLTYPE
280
     0
  9
$INTERSECTIONDISPLAY
280
     0
  9
$INTERSECTIONCOLOR
 70
   257
  9
$DIMASSOC
280
     2
  9
$PROJECTNAME
  1

  9
$CAMERADISPLAY
290
     0
  9
$LENSLENGTH
 40
50.0
  9
$CAMERAHEIGHT
 40
0.0
  9
$STEPSPERSEC
 40
2.0
  9
$STEPSIZE
 40
6.0
  9
$3DDWFPREC
 40
2.0
  9
$PSOLWIDTH
 40
0.25
  9
$PSOLHEIGHT
 40
4.0
  9
$LOFTANG1
 40
1.570796326794896
  9
$LOFTANG2
 40
1.570796326794896
  9
$LOFTMAG1
 40
0.0
  9
$LOFTMAG2
 40
0.0
  9
$LOFTPARAM
 70
     7
  9
$LOFTNORMALS
280
     1
  9
$LATITUDE
 40
37.795
  9
$LONGITUDE
 40
-122.394
  9
$NORTHDIRECTION
 40
0.0
  9
$TIMEZONE
 70
 -8000
  9
$LIGHTGLYPHDISPLAY
280
     1
  9
$TILEMODELIGHTSYNCH
280
     1
  9
$CMATERIAL
347
11
  9
$SOLIDHIST
280
     0
  9
$SHOWHIST
280
     1
  9
$DWFFRAME
280
     2
  9
$DGNFRAME
280
     0
  9
$REALWORLDSCALE
290
     1
  9
$INTERFERECOLOR
 62
     1
  9
$INTERFEREOBJVS
345
33
  9
$INTERFEREVPVS
346
30
  9
$CSHADOW
280
     0
  9
$SHADOWPLANELOCATION
 40
0.0
  0
ENDSEC
  0
SECTION
  2
CLASSES
  0
CLASS
  1
ACDBDICTIONARYWDFLT
  2
AcDbDictionaryWithDefault
  3
ObjectDBX Classes
 90
        0
 91
        1
280
     0
281
     0
  0
CLASS
  1
MATERIAL
  2
AcDbMaterial
  3
ObjectDBX Classes
 90
     1153
 91
        3
280
     0
281
     0
  0
CLASS
  1
VISUALSTYLE
  2
AcDbVisualStyle
  3
ObjectDBX Classes
 90
     4095
 91
       24
280
     0
281
     0
  0
CLASS
  1
SCALE
  2
AcDbScale
  3
ObjectDBX Classes
 90
     1153
 91
       17
280
     0
281
     0
  0
CLASS
  1
TABLESTYLE
  2
AcDbTableStyle
  3
ObjectDBX Classes
 90
     4095
 91
        1
280
     0
281
     0
  0
CLASS
  1
MLEADERSTYLE
  2
AcDbMLeaderStyle
  3
ACDB_MLEADERSTYLE_CLASS
 90
     4095
 91
        1
280
     0
281
     0
  0
CLASS
  1
ACDBSECTIONVIEWSTYLE
  2
AcDbSectionViewStyle
  3
ObjectDBX Classes
 90
     1025
 91
        1
280
     0
281
     0
  0
CLASS
  1
ACDBDETAILVIEWSTYLE
  2
AcDbDetailViewStyle
  3
ObjectDBX Classes
 90
     1025
 91
        1
280
     0
281
     0
  0
CLASS
  1
DICTIONARYVAR
  2
AcDbDictionaryVar
  3
ObjectDBX Classes
 90
        0
 91
        5
280
     0
281
     0
  0
CLASS
  1
CELLSTYLEMAP
  2
AcDbCellStyleMap
  3
ObjectDBX Classes
 90
     1152
 91
        1
280
     0
281
     0
  0
ENDSEC
  0
SECTION
  2
TABLES
  0
TABLE
  2
VPORT
  5
8
330
0
100
AcDbSymbolTable
 70
     1
  0
VPORT
  5
57
330
8
100
AcDbSymbolTableRecord
100
AcDbViewportTableRecord
  2
*Active
 70
     0
 10
0.0
 20
0.0
 11
1.0
 21
1.0
 12
0.0
 22
0.0
 13
0.0
 23
0.0
 14
1.0
 24
1.0
 15
0.0
 25
0.0
 16
0.0
 26
0.0
 36
1.0
 17
10.97891828365648
 27
117.4193616785444
 37
0.0
 40
337.7763229949831
 41
0.9864262709176628
 42
50.0
 43
0.0
 44
0.0
 50
0.0
 51
0.0
 71
     0
 72
   100
 73
     1
 74
     0
 75
     1
 76
     0
 77
     0
 78
     0
281
     0
 65
     1
110
0.0
120
0.0
130
0.0
111
1.0
121
0.0
131
0.0
112
0.0
122
1.0
132
0.0
 79
     0
146
0.0
 60
     3
 61
     5
292
     1
282
     1
141
0.0
142
0.0
 63
   250
421
  3355443
  0
ENDTAB
  0
TABLE
  2
LTYPE
  5
5
330
0
100
AcDbSymbolTable
 70
     6
  0
LTYPE
  5
5B
330
5
100
AcDbSymbolTableRecord
100
AcDbLinetypeTableRecord
  2
ByBlock
 70
     0
  3

 72
    65
 73
     0
 40
0.0
  0
LTYPE
  5
5C
330
5
100
AcDbSymbolTableRecord
100
AcDbLinetypeTableRecord
  2
ByLayer
 70
     0
  3

 72
    65
 73
     0
 40
0.0
  0
LTYPE
  5
5D
330
5
100
AcDbSymbolTableRecord
100
AcDbLinetypeTableRecord
  2
Continuous
 70
     0
  3
Solid line
 72
    65
 73
     0
 40
0.0
  0
LTYPE
  5
FA
330
5
100
AcDbSymbolTableRecord
100
AcDbLinetypeTableRecord
  2
AI-Linetype-0
 70
     0
  3
Adobe Illustrator Linetype No. 0
 72
    65
 73
     4
 40
14.00000021769946
 49
8.750000199143745
 74
     0
 49
-1.750000006185238
 74
     0
 49
1.750000006185238
 74
     0
 49
-1.750000006185238
 74
     0
  0
LTYPE
  5
FC
330
5
100
AcDbSymbolTableRecord
100
AcDbLinetypeTableRecord
  2
AI-Linetype-1
 70
     0
  3
Adobe Illustrator Linetype No. 1
 72
    65
 73
     4
 40
14.00000021769946
 49
8.750000199143745
 74
     0
 49
-1.750000006185238
 74
     0
 49
1.750000006185238
 74
     0
 49
-1.750000006185238
 74
     0
  0
LTYPE
  5
FE
330
5
100
AcDbSymbolTableRecord
100
AcDbLinetypeTableRecord
  2
AI-Linetype-2
 70
     0
  3
Adobe Illustrator Linetype No. 2
 72
    65
 73
     4
 40
14.00000021769946
 49
8.750000199143745
 74
     0
 49
-1.750000006185238
 74
     0
 49
1.750000006185238
 74
     0
 49
-1.750000006185238
 74
     0
  0
LTYPE
  5
100
330
5
100
AcDbSymbolTableRecord
100
AcDbLinetypeTableRecord
  2
AI-Linetype-3
 70
     0
  3
Adobe Illustrator Linetype No. 3
 72
    65
 73
     4
 40
14.00000021769946
 49
8.750000199143745
 74
     0
 49
-1.750000006185238
 74
     0
 49
1.750000006185238
 74
     0
 49
-1.750000006185238
 74
     0
  0
LTYPE
  5
102
330
5
100
AcDbSymbolTableRecord
100
AcDbLinetypeTableRecord
  2
AI-Linetype-4
 70
     0
  3
Adobe Illustrator Linetype No. 4
 72
    65
 73
     4
 40
14.00000021769946
 49
8.750000199143745
 74
     0
 49
-1.750000006185238
 74
     0
 49
1.750000006185238
 74
     0
 49
-1.750000006185238
 74
     0
  0
ENDTAB
  0
TABLE
  2
LAYER
  5
2
330
0
100
AcDbSymbolTable
 70
     7
  0
LAYER
  5
54
330
2
100
AcDbSymbolTableRecord
100
AcDbLayerTableRecord
  2
0
 70
     0
 62
     7
  6
Continuous
370
     0
390
F
347
21
  0
LAYER
  5
78
330
2
100
AcDbSymbolTableRecord
100
AcDbLayerTableRecord
  2
4
 70
     0
 62
     7
  6
Continuous
370
     0
390
F
347
21
  0
LAYER
  5
DC
330
2
100
AcDbSymbolTableRecord
100
AcDbLayerTableRecord
  2
A5
 70
     0
 62
     7
  6
Continuous
370
     0
390
F
347
21
  0
LAYER
  5
DD
330
2
100
AcDbSymbolTableRecord
100
AcDbLayerTableRecord
  2
7
 70
     0
 62
     7
  6
Continuous
370
     0
390
F
347
21
  0
LAYER
  5
F8
330
2
100
AcDbSymbolTableRecord
100
AcDbLayerTableRecord
  2
3
 70
     0
 62
     7
  6
Continuous
370
     0
390
F
347
21
  0
LAYER
  5
105
330
2
100
AcDbSymbolTableRecord
100
AcDbLayerTableRecord
  2
BART03
 70
     0
 62
     7
  6
Continuous
370
     0
390
F
347
21
  0
LAYER
  5
113
330
2
100
AcDbSymbolTableRecord
100
AcDbLayerTableRecord
  2
ASHADE
 70
     0
 62
     7
  6
Continuous
370
     0
390
F
347
21
  0
ENDTAB
  0
TABLE
  2
STYLE
  5
3
330
0
100
AcDbSymbolTable
 70
     2
  0
STYLE
  5
55
330
3
100
AcDbSymbolTableRecord
100
AcDbTextStyleTableRecord
  2
Standard
 70
     0
 40
0.0
 41
1.0
 50
0.0
 71
     0
 42
0.2
  3
txt
  4

  0
STYLE
  5
5A
330
3
100
AcDbSymbolTableRecord
100
AcDbTextStyleTableRecord
  2
Annotative
 70
     0
 40
0.0
 41
1.0
 50
0.0
 71
     0
 42
0.2
  3
txt
  4

1001
AcadAnnotative
1000
AnnotativeData
1002
{
1070
     1
1070
     1
1002
}
  0
ENDTAB
  0
TABLE
  2
VIEW
  5
6
330
0
100
AcDbSymbolTable
 70
     0
  0
ENDTAB
  0
TABLE
  2
UCS
  5
7
330
0
100
AcDbSymbolTable
 70
     0
  0
ENDTAB
  0
TABLE
  2
APPID
  5
9
330
0
100
AcDbSymbolTable
 70
     2
  0
APPID
  5
56
330
9
100
AcDbSymbolTableRecord
100
AcDbRegAppTableRecord
  2
ACAD
 70
     0
  0
APPID
  5
5E
330
9
100
AcDbSymbolTableRecord
100
AcDbRegAppTableRecord
  2
AcadAnnotative
 70
     0
  0
ENDTAB
  0
TABLE
  2
DIMSTYLE
  5
A
330
0
100
AcDbSymbolTable
 70
     2
100
AcDbDimStyleTable
 71
     0
  0
DIMSTYLE
105
58
330
A
100
AcDbSymbolTableRecord
100
AcDbDimStyleTableRecord
  2
Standard
 70
     0
340
55
  0
DIMSTYLE
105
59
330
A
100
AcDbSymbolTableRecord
100
AcDbDimStyleTableRecord
  2
Annotative
 70
     0
340
55
1001
AcadAnnotative
1000
AnnotativeData
1002
{
1070
     1
1070
     1
1002
}
  0
ENDTAB
  0
TABLE
  2
BLOCK_RECORD
  5
1
330
0
100
AcDbSymbolTable
 70
     2
  0
BLOCK_RECORD
  5
70
330
1
100
AcDbSymbolTableRecord
100
AcDbBlockTableRecord
  2
*Model_Space
340
73
 70
     0
280
     1
281
     0
  0
BLOCK_RECORD
  5
6C
330
1
100
AcDbSymbolTableRecord
100
AcDbBlockTableRecord
  2
*Paper_Space
340
6F
 70
     0
280
     1
281
     0
  0
BLOCK_RECORD
  5
74
330
1
100
AcDbSymbolTableRecord
100
AcDbBlockTableRecord
  2
*Paper_Space0
340
77
 70
     0
280
     1
281
     0
  0
BLOCK_RECORD
  5
10A
330
1
100
AcDbSymbolTableRecord
100
AcDbBlockTableRecord
  2
Block_0
340
0
102
{BLKREFS
331
10B
102
}
 70
     0
280
     1
281
     0
  0
ENDTAB
  0
ENDSEC
  0
SECTION
  2
BLOCKS
  0
BLOCK
  5
71
330
70
100
AcDbEntity
  8
0
100
AcDbBlockBegin
  2
*Model_Space
 70
     0
 10
0.0
 20
0.0
 30
0.0
  3
*Model_Space
  1

  0
ENDBLK
  5
72
330
70
100
AcDbEntity
  8
0
100
AcDbBlockEnd
  0
BLOCK
  5
6D
330
6C
100
AcDbEntity
 67
     1
  8
0
100
AcDbBlockBegin
  2
*Paper_Space
 70
     0
 10
0.0
 20
0.0
 30
0.0
  3
*Paper_Space
  1

  0
ENDBLK
  5
6E
330
6C
100
AcDbEntity
 67
     1
  8
0
100
AcDbBlockEnd
  0
BLOCK
  5
75
330
74
100
AcDbEntity
 67
     1
  8
0
100
AcDbBlockBegin
  2
*Paper_Space0
 70
     0
 10
0.0
 20
0.0
 30
0.0
  3
*Paper_Space0
  1

  0
ENDBLK
  5
76
330
74
100
AcDbEntity
 67
     1
  8
0
100
AcDbBlockEnd
  0
BLOCK
  5
10C
330
10A
100
AcDbEntity
  8
0
100
AcDbBlockBegin
  2
Block_0
 70
     0
 10
0.0
 20
0.0
 30
0.0
  3
Block_0
  1

  0
LWPOLYLINE
  5
10E
330
10A
100
AcDbEntity
  8
BART03
100
AcDbPolyline
 90
        4
 70
     1
 43
0.0
 10
-51.31975630189703
 20
73.19911930665185
 10
-52.30659034416177
 20
75.53359348387878
 10
-50.6159719223783
 20
73.64536138399326
 10
-50.6159719223783
 20
73.64536138399326
  0
HATCH
  5
10F
330
10A
100
AcDbEntity
  8
BART03
 62
    18
420
        0
440
 33554687
100
AcDbHatch
 10
0.0
 20
0.0
 30
0.0
210
0.0
220
0.0
230
1.0
  2
SOLID
 70
     1
 71
     1
 91
        1
 92
        1
 93
        3
 72
     1
 10
-51.31975630189703
 20
73.19911930665185
 11
-52.30659034416177
 21
75.53359348387878
 72
     1
 10
-52.30659034416177
 20
75.53359348387878
 11
-50.6159719223783
 21
73.64536138399326
 72
     1
 10
-50.6159719223783
 20
73.64536138399326
 11
-51.31975630189703
 21
73.19911930665185
 97
        1
330
10E
 75
     2
 76
     1
 98
        1
 10
0.0
 20
0.0
450
        0
451
        0
460
0.0
461
0.0
452
        0
462
0.0
453
        0
470

  0
LINE
  5
110
330
10A
100
AcDbEntity
  8
BART03
 62
    18
420
        0
370
    25
100
AcDbLine
 10
-50.9678641121375
 20
73.42224034532256
 30
0.0
 11
-49.27839465111216
 21
70.75771748493342
 31
0.0
  0
ENDBLK
  5
10D
330
10A
100
AcDbEntity
  8
0
100
AcDbBlockEnd
  0
ENDSEC
  0
SECTION
  2
ENTITIES
  0
LINE
  5
79
330
70
100
AcDbEntity
  8
4
 62
    18
420
        0
370
    18
100
AcDbLine
 10
15.41508014328718
 20
87.99388017052939
 30
0.0
 11
107.8350801432869
 21
87.99388017052939
 31
0.0
  0
LINE
  5
7A
330
70
100
AcDbEntity
  8
4
 62
    18
420
        0
370
    18
100
AcDbLine
 10
-17.97491985671236
 20
94.14252848484574
 30
0.0
 11
141.2250801432874
 21
94.14252848484574
 31
0.0
  0
LINE
  5
7B
330
70
100
AcDbEntity
  8
4
 62
    18
420
        0
370
    18
100
AcDbLine
 10
-17.97491985671268
 20
78.75721908631655
 30
0.0
 11
-17.97491985671268
 21
96.1425284848455
 31
0.0
  0
LWPOLYLINE
  5
7C
330
70
100
AcDbEntity
  8
4
100
AcDbPolyline
 90
        4
 70
     1
 43
0.0
 10
-14.97491985671257
 20
94.64252848484576
 10
-14.97491985671257
 20
93.64252848484573
 10
-17.97491985671268
 20
94.14252848484574
 10
-17.97491985671268
 20
94.14252848484574
  0
HATCH
  5
7D
330
70
100
AcDbEntity
  8
4
 62
    18
420
        0
440
 33554687
100
AcDbHatch
 10
0.0
 20
0.0
 30
0.0
210
0.0
220
0.0
230
1.0
  2
SOLID
 70
     1
 71
     1
 91
        1
 92
        1
 93
        3
 72
     1
 10
-14.97491985671257
 20
94.64252848484576
 11
-14.97491985671257
 21
93.64252848484573
 72
     1
 10
-14.97491985671257
 20
93.64252848484573
 11
-17.97491985671268
 21
94.14252848484574
 72
     1
 10
-17.97491985671268
 20
94.14252848484574
 11
-14.97491985671257
 21
94.64252848484576
 97
        1
330
7C
 75
     2
 76
     1
 98
        1
 10
0.0
 20
0.0
450
        0
451
        0
460
0.0
461
0.0
452
        0
462
0.0
453
        0
470

  0
LINE
  5
7E
330
70
100
AcDbEntity
  8
4
 62
    18
420
        0
370
    18
100
AcDbLine
 10
-79.27534526039366
 20
70.78359348387876
 30
0.0
 11
-79.27534526039366
 21
57.78359348387862
 31
0.0
  0
LINE
  5
7F
330
70
100
AcDbEntity
  8
4
 62
    18
420
        0
370
    18
100
AcDbLine
 10
-40.85189339577142
 20
71.7835934838788
 30
0.0
 11
-40.85189339577142
 21
56.78359348387891
 31
0.0
  0
LWPOLYLINE
  5
80
330
70
100
AcDbEntity
  8
4
100
AcDbPolyline
 90
        4
 70
     1
 43
0.0
 10
-54.55659034416168
 20
30.26062980166777
 10
-54.55659034416168
 20
29.26062980166774
 10
-51.55659034416158
 20
29.76062980166807
 10
-51.55659034416158
 20
29.76062980166807
  0
HATCH
  5
81
330
70
100
AcDbEntity
  8
4
 62
    18
420
        0
440
 33554687
100
AcDbHatch
 10
0.0
 20
0.0
 30
0.0
210
0.0
220
0.0
230
1.0
  2
SOLID
 70
     1
 71
     1
 91
        1
 92
        1
 93
        3
 72
     1
 10
-54.55659034416168
 20
30.26062980166777
 11
-54.55659034416168
 21
29.26062980166774
 72
     1
 10
-54.55659034416168
 20
29.26062980166774
 11
-51.55659034416158
 21
29.76062980166807
 72
     1
 10
-51.55659034416158
 20
29.76062980166807
 11
-54.55659034416168
 21
30.26062980166777
 97
        1
330
80
 75
     2
 76
     1
 98
        1
 10
0.0
 20
0.0
450
        0
451
        0
460
0.0
461
0.0
452
        0
462
0.0
453
        0
470

  0
LWPOLYLINE
  5
82
330
70
100
AcDbEntity
  8
4
100
AcDbPolyline
 90
        4
 70
     1
 43
0.0
 10
-54.55659034416168
 20
20.78111538853712
 10
-54.55659034416168
 20
19.78111538853708
 10
-51.55659034416158
 20
20.28111538853679
 10
-51.55659034416158
 20
20.28111538853679
  0
HATCH
  5
83
330
70
100
AcDbEntity
  8
4
 62
    18
420
        0
440
 33554687
100
AcDbHatch
 10
0.0
 20
0.0
 30
0.0
210
0.0
220
0.0
230
1.0
  2
SOLID
 70
     1
 71
     1
 91
        1
 92
        1
 93
        3
 72
     1
 10
-54.55659034416168
 20
20.78111538853712
 11
-54.55659034416168
 21
19.78111538853708
 72
     1
 10
-54.55659034416168
 20
19.78111538853708
 11
-51.55659034416158
 21
20.28111538853679
 72
     1
 10
-51.55659034416158
 20
20.28111538853679
 11
-54.55659034416168
 21
20.78111538853712
 97
        1
330
82
 75
     2
 76
     1
 98
        1
 10
0.0
 20
0.0
450
        0
451
        0
460
0.0
461
0.0
452
        0
462
0.0
453
        0
470

  0
LINE
  5
84
330
70
100
AcDbEntity
  8
4
 62
    18
420
        0
370
    18
100
AcDbLine
 10
-64.1565903441617
 20
52.28359348387876
 30
0.0
 11
-64.1565903441617
 21
27.76062980166801
 31
0.0
  0
LWPOLYLINE
  5
85
330
70
100
AcDbEntity
  8
4
100
AcDbPolyline
 90
        4
 70
     1
 43
0.0
 10
-66.55659034416179
 20
20.78111538853712
 10
-66.55659034416179
 20
19.78111538853708
 10
-69.55659034416189
 20
20.28111538853679
 10
-69.55659034416189
 20
20.28111538853679
  0
HATCH
  5
86
330
70
100
AcDbEntity
  8
4
 62
    18
420
        0
440
 33554687
100
AcDbHatch
 10
0.0
 20
0.0
 30
0.0
210
0.0
220
0.0
230
1.0
  2
SOLID
 70
     1
 71
     1
 91
        1
 92
        1
 93
        3
 72
     1
 10
-66.55659034416179
 20
20.78111538853712
 11
-66.55659034416179
 21
19.78111538853708
 72
     1
 10
-66.55659034416179
 20
19.78111538853708
 11
-69.55659034416189
 21
20.28111538853679
 72
     1
 10
-69.55659034416189
 20
20.28111538853679
 11
-66.55659034416179
 21
20.78111538853712
 97
        1
330
85
 75
     2
 76
     1
 98
        1
 10
0.0
 20
0.0
450
        0
451
        0
460
0.0
461
0.0
452
        0
462
0.0
453
        0
470

  0
LINE
  5
87
330
70
100
AcDbEntity
  8
4
 62
    18
420
        0
370
    18
100
AcDbLine
 10
-69.55659034416189
 20
37.56399684795204
 30
0.0
 11
-69.55659034416189
 21
18.28111538853671
 31
0.0
  0
MTEXT
  5
88
330
70
100
AcDbEntity
  8
4
100
AcDbMText
 10
-70.29128979938953
 20
22.12201047980071
 30
0.0
 40
0.2
 41
0.0
 46
0.0
 71
     7
 72
     1
  1
\C18;\c0;\FMyriad Pro|b0|i0|c1;\H3.000000;\W1.000000;18±0.01
 73
     1
 44
1.0
  0
LINE
  5
89
330
70
100
AcDbEntity
  8
4
 62
    18
420
        0
370
    18
100
AcDbLine
 10
-66.55659034416179
 20
20.28111538853679
 30
0.0
 11
-54.55659034416168
 21
20.28111538853679
 31
0.0
  0
LINE
  5
8A
330
70
100
AcDbEntity
  8
4
 62
    18
420
        0
370
    18
100
AcDbLine
 10
-54.55659034416168
 20
29.76062980166807
 30
0.0
 11
-61.1565903441616
 21
29.76062980166807
 31
0.0
  0
LWPOLYLINE
  5
8B
330
70
100
AcDbEntity
  8
4
100
AcDbPolyline
 90
        4
 70
     1
 43
0.0
 10
-61.1565903441616
 20
30.26062980166777
 10
-61.1565903441616
 20
29.26062980166774
 10
-64.1565903441617
 20
29.76062980166807
 10
-64.1565903441617
 20
29.76062980166807
  0
HATCH
  5
8C
330
70
100
AcDbEntity
  8
4
 62
    18
420
        0
440
 33554687
100
AcDbHatch
 10
0.0
 20
0.0
 30
0.0
210
0.0
220
0.0
230
1.0
  2
SOLID
 70
     1
 71
     1
 91
        1
 92
        1
 93
        3
 72
     1
 10
-61.1565903441616
 20
30.26062980166777
 11
-61.1565903441616
 21
29.26062980166774
 72
     1
 10
-61.1565903441616
 20
29.26062980166774
 11
-64.1565903441617
 21
29.76062980166807
 72
     1
 10
-64.1565903441617
 20
29.76062980166807
 11
-61.1565903441616
 21
30.26062980166777
 97
        1
330
8B
 75
     2
 76
     1
 98
        1
 10
0.0
 20
0.0
450
        0
451
        0
460
0.0
461
0.0
452
        0
462
0.0
453
        0
470

  0
LINE
  5
8D
330
70
100
AcDbEntity
  8
4
 62
    18
420
        0
370
    18
100
AcDbLine
 10
-71.05659034416163
 20
57.78359348387862
 30
0.0
 11
-81.27534526039374
 21
57.78359348387862
 31
0.0
  0
LWPOLYLINE
  5
8E
330
70
100
AcDbEntity
  8
4
100
AcDbPolyline
 90
        4
 70
     1
 43
0.0
 10
-79.77534526039367
 20
67.78359348387866
 10
-78.77534526039365
 20
67.78359348387866
 10
-79.27534526039366
 20
70.78359348387876
 10
-79.27534526039366
 20
70.78359348387876
  0
HATCH
  5
8F
330
70
100
AcDbEntity
  8
4
 62
    18
420
        0
440
 33554687
100
AcDbHatch
 10
0.0
 20
0.0
 30
0.0
210
0.0
220
0.0
230
1.0
  2
SOLID
 70
     1
 71
     1
 91
        1
 92
        1
 93
        3
 72
     1
 10
-79.77534526039367
 20
67.78359348387866
 11
-78.77534526039365
 21
67.78359348387866
 72
     1
 10
-78.77534526039365
 20
67.78359348387866
 11
-79.27534526039366
 21
70.78359348387876
 72
     1
 10
-79.27534526039366
 20
70.78359348387876
 11
-79.77534526039367
 21
67.78359348387866
 97
        1
330
8E
 75
     2
 76
     1
 98
        1
 10
0.0
 20
0.0
450
        0
451
        0
460
0.0
461
0.0
452
        0
462
0.0
453
        0
470

  0
LINE
  5
90
330
70
100
AcDbEntity
  8
4
 62
    18
420
        0
370
    18
100
AcDbLine
 10
-51.55659034416158
 20
36.28359348387852
 30
0.0
 11
-51.55659034416158
 21
18.28111538853671
 31
0.0
  0
LINE
  5
91
330
70
100
AcDbEntity
  8
4
 62
    18
420
        0
370
    18
100
AcDbLine
 10
-51.55659034416158
 20
37.51345784628941
 30
0.0
 11
-51.55659034416158
 21
27.76062980166801
 31
0.0
  0
LINE
  5
92
330
70
100
AcDbEntity
  8
4
 62
    18
420
        0
370
    18
100
AcDbLine
 10
-50.05659034416153
 20
53.7835934838788
 30
0.0
 11
-38.85189339577135
 21
53.7835934838788
 31
0.0
  0
LWPOLYLINE
  5
93
330
70
100
AcDbEntity
  8
4
100
AcDbPolyline
 90
        4
 70
     1
 43
0.0
 10
-41.35189339577143
 20
56.78359348387891
 10
-40.35189339577139
 20
56.78359348387891
 10
-40.85189339577142
 20
53.7835934838788
 10
-40.85189339577142
 20
53.7835934838788
  0
HATCH
  5
94
330
70
100
AcDbEntity
  8
4
 62
    18
420
        0
440
 33554687
100
AcDbHatch
 10
0.0
 20
0.0
 30
0.0
210
0.0
220
0.0
230
1.0
  2
SOLID
 70
     1
 71
     1
 91
        1
 92
        1
 93
        3
 72
     1
 10
-41.35189339577143
 20
56.78359348387891
 11
-40.35189339577139
 21
56.78359348387891
 72
     1
 10
-40.35189339577139
 20
56.78359348387891
 11
-40.85189339577142
 21
53.7835934838788
 72
     1
 10
-40.85189339577142
 20
53.7835934838788
 11
-41.35189339577143
 21
56.78359348387891
 97
        1
330
93
 75
     2
 76
     1
 98
        1
 10
0.0
 20
0.0
450
        0
451
        0
460
0.0
461
0.0
452
        0
462
0.0
453
        0
470

  0
LWPOLYLINE
  5
95
330
70
100
AcDbEntity
  8
4
100
AcDbPolyline
 90
        4
 70
     1
 43
0.0
 10
-79.77534526039367
 20
60.78359348387873
 10
-78.77534526039365
 20
60.78359348387873
 10
-79.27534526039366
 20
57.78359348387862
 10
-79.27534526039366
 20
57.78359348387862
  0
HATCH
  5
96
330
70
100
AcDbEntity
  8
4
 62
    18
420
        0
440
 33554687
100
AcDbHatch
 10
0.0
 20
0.0
 30
0.0
210
0.0
220
0.0
230
1.0
  2
SOLID
 70
     1
 71
     1
 91
        1
 92
        1
 93
        3
 72
     1
 10
-79.77534526039367
 20
60.78359348387873
 11
-78.77534526039365
 21
60.78359348387873
 72
     1
 10
-78.77534526039365
 20
60.78359348387873
 11
-79.27534526039366
 21
57.78359348387862
 72
     1
 10
-79.27534526039366
 20
57.78359348387862
 11
-79.77534526039367
 21
60.78359348387873
 97
        1
330
95
 75
     2
 76
     1
 98
        1
 10
0.0
 20
0.0
450
        0
451
        0
460
0.0
461
0.0
452
        0
462
0.0
453
        0
470

  0
LINE
  5
97
330
70
100
AcDbEntity
  8
4
 62
    18
420
        0
370
    18
100
AcDbLine
 10
-71.05659034416163
 20
70.78359348387876
 30
0.0
 11
-81.27534526039374
 21
70.78359348387876
 31
0.0
  0
MTEXT
  5
98
330
70
100
AcDbEntity
  8
4
100
AcDbMText
 10
-80.77534516752383
 20
60.06937389991385
 30
0.0
 40
0.2
 41
0.0
 46
0.0
 71
     7
 72
     1
  1
\C18;\c0;\FMyriad Pro|b0|i0|c1;\H3.000000;\W1.000000;Ø13
 11
-0.0000000000000002
 21
1.0
 31
0.0
 73
     1
 44
1.0
  0
LWPOLYLINE
  5
99
330
70
100
AcDbEntity
  8
4
100
AcDbPolyline
 90
        4
 70
     1
 43
0.0
 10
-41.35189339577143
 20
71.7835934838788
 10
-40.35189339577139
 20
71.7835934838788
 10
-40.85189339577142
 20
74.7835934838789
 10
-40.85189339577142
 20
74.7835934838789
  0
HATCH
  5
9A
330
70
100
AcDbEntity
  8
4
 62
    18
420
        0
440
 33554687
100
AcDbHatch
 10
0.0
 20
0.0
 30
0.0
210
0.0
220
0.0
230
1.0
  2
SOLID
 70
     1
 71
     1
 91
        1
 92
        1
 93
        3
 72
     1
 10
-41.35189339577143
 20
71.7835934838788
 11
-40.35189339577139
 21
71.7835934838788
 72
     1
 10
-40.35189339577139
 20
71.7835934838788
 11
-40.85189339577142
 21
74.7835934838789
 72
     1
 10
-40.85189339577142
 20
74.7835934838789
 11
-41.35189339577143
 21
71.7835934838788
 97
        1
330
99
 75
     2
 76
     1
 98
        1
 10
0.0
 20
0.0
450
        0
451
        0
460
0.0
461
0.0
452
        0
462
0.0
453
        0
470

  0
MTEXT
  5
9B
330
70
100
AcDbEntity
  8
4
100
AcDbMText
 10
-42.35189377467743
 20
60.06937389991385
 30
0.0
 40
0.2
 41
0.0
 46
0.0
 71
     7
 72
     1
  1
\C18;\c0;\FMyriad Pro|b0|i0|c1;\H3.000000;\W1.000000;Ø20
 11
-0.0000000000000002
 21
1.0
 31
0.0
 73
     1
 44
1.0
  0
LINE
  5
9C
330
70
100
AcDbEntity
  8
4
 62
    18
420
        0
370
    18
100
AcDbLine
 10
-50.05659034416153
 20
74.7835934838789
 30
0.0
 11
-38.85189339577135
 21
74.7835934838789
 31
0.0
  0
LINE
  5
9D
330
70
100
AcDbEntity
  8
4
 62
    18
420
        0
370
    18
100
AcDbLine
 10
-27.04401282538145
 20
28.03442013094409
 30
0.0
 11
-27.04401282538145
 21
48.53442013094384
 31
0.0
  0
MTEXT
  5
9E
330
70
100
AcDbEntity
  8
4
100
AcDbMText
 10
-28.90837757659517
 20
33.50596516089499
 30
0.0
 40
0.2
 41
0.0
 46
0.0
 71
     7
 72
     1
  1
\C18;\c0;\FMyriad Pro|b0|i0|c1;\H3.000000;\W1.000000;28.5
 11
-0.0000000000000002
 21
1.0
 31
0.0
 73
     1
 44
1.0
  0
LINE
  5
9F
330
70
100
AcDbEntity
  8
4
 62
    18
420
        0
370
    18
100
AcDbLine
 10
-19.12491985671256
 20
25.03442013094398
 30
0.0
 11
-20.12651950830061
 21
25.03442013094398
 31
0.0
  0
LWPOLYLINE
  5
A0
330
70
100
AcDbEntity
  8
4
100
AcDbPolyline
 90
        4
 70
     1
 43
0.0
 10
-27.54401282538115
 20
28.03442013094409
 10
-26.54401282538111
 20
28.03442013094409
 10
-27.04401282538145
 20
25.03442013094398
 10
-27.04401282538145
 20
25.03442013094398
  0
HATCH
  5
A1
330
70
100
AcDbEntity
  8
4
 62
    18
420
        0
440
 33554687
100
AcDbHatch
 10
0.0
 20
0.0
 30
0.0
210
0.0
220
0.0
230
1.0
  2
SOLID
 70
     1
 71
     1
 91
        1
 92
        1
 93
        3
 72
     1
 10
-27.54401282538115
 20
28.03442013094409
 11
-26.54401282538111
 21
28.03442013094409
 72
     1
 10
-26.54401282538111
 20
28.03442013094409
 11
-27.04401282538145
 21
25.03442013094398
 72
     1
 10
-27.04401282538145
 20
25.03442013094398
 11
-27.54401282538115
 21
28.03442013094409
 97
        1
330
A0
 75
     2
 76
     1
 98
        1
 10
0.0
 20
0.0
450
        0
451
        0
460
0.0
461
0.0
452
        0
462
0.0
453
        0
470

  0
LINE
  5
A2
330
70
100
AcDbEntity
  8
4
 62
    18
420
        0
370
    18
100
AcDbLine
 10
-2.603453940990242
 20
51.53442013094394
 30
0.0
 11
-20.07511744470789
 21
51.53442013094394
 31
0.0
  0
LWPOLYLINE
  5
A3
330
70
100
AcDbEntity
  8
4
100
AcDbPolyline
 90
        4
 70
     1
 43
0.0
 10
-27.54401282538115
 20
48.53442013094384
 10
-26.54401282538111
 20
48.53442013094384
 10
-27.04401282538145
 20
51.53442013094394
 10
-27.04401282538145
 20
51.53442013094394
  0
HATCH
  5
A4
330
70
100
AcDbEntity
  8
4
 62
    18
420
        0
440
 33554687
100
AcDbHatch
 10
0.0
 20
0.0
 30
0.0
210
0.0
220
0.0
230
1.0
  2
SOLID
 70
     1
 71
     1
 91
        1
 92
        1
 93
        3
 72
     1
 10
-27.54401282538115
 20
48.53442013094384
 11
-26.54401282538111
 21
48.53442013094384
 72
     1
 10
-26.54401282538111
 20
48.53442013094384
 11
-27.04401282538145
 21
51.53442013094394
 72
     1
 10
-27.04401282538145
 20
51.53442013094394
 11
-27.54401282538115
 21
48.53442013094384
 97
        1
330
A3
 75
     2
 76
     1
 98
        1
 10
0.0
 20
0.0
450
        0
451
        0
460
0.0
461
0.0
452
        0
462
0.0
453
        0
470

  0
LINE
  5
A5
330
70
100
AcDbEntity
  8
4
 62
    18
420
        0
370
    18
100
AcDbLine
 10
12.41508014328739
 20
66.60442013094375
 30
0.0
 11
12.41508014328739
 21
89.99388017052915
 31
0.0
  0
LWPOLYLINE
  5
A6
330
70
100
AcDbEntity
  8
4
100
AcDbPolyline
 90
        4
 70
     1
 43
0.0
 10
15.41508014328718
 20
88.49388017052909
 10
15.41508014328718
 20
87.49388017052938
 10
12.41508014328739
 20
87.99388017052939
 10
12.41508014328739
 20
87.99388017052939
  0
HATCH
  5
A7
330
70
100
AcDbEntity
  8
4
 62
    18
420
        0
440
 33554687
100
AcDbHatch
 10
0.0
 20
0.0
 30
0.0
210
0.0
220
0.0
230
1.0
  2
SOLID
 70
     1
 71
     1
 91
        1
 92
        1
 93
        3
 72
     1
 10
15.41508014328718
 20
88.49388017052909
 11
15.41508014328718
 21
87.49388017052938
 72
     1
 10
15.41508014328718
 20
87.49388017052938
 11
12.41508014328739
 21
87.99388017052939
 72
     1
 10
12.41508014328739
 20
87.99388017052939
 11
15.41508014328718
 21
88.49388017052909
 97
        1
330
A6
 75
     2
 76
     1
 98
        1
 10
0.0
 20
0.0
450
        0
451
        0
460
0.0
461
0.0
452
        0
462
0.0
453
        0
470

  0
MTEXT
  5
A8
330
70
100
AcDbEntity
  8
4
100
AcDbMText
 10
58.58353113193344
 20
89.36070613746343
 30
0.0
 40
0.2
 41
0.0
 46
0.0
 71
     7
 72
     1
  1
\C18;\c0;\FMyriad Pro|b0|i0|c1;\H3.000000;\W1.000000;120
 73
     1
 44
1.0
  0
MTEXT
  5
A9
330
70
100
AcDbEntity
  8
4
100
AcDbMText
 10
52.10687542778274
 20
95.40313447050685
 30
0.0
 40
0.2
 41
0.0
 46
0.0
 71
     7
 72
     1
  1
\C18;\c0;\FMyriad Pro|b0|i0|c1;\H3.000000;\W1.000000;178±0.05
 73
     1
 44
1.0
  0
LINE
  5
AA
330
70
100
AcDbEntity
  8
4
 62
    18
420
        0
370
    18
100
AcDbLine
 10
141.2250801432874
 20
78.72506349647029
 30
0.0
 11
141.2250801432874
 21
96.14252848484582
 31
0.0
  0
LWPOLYLINE
  5
AB
330
70
100
AcDbEntity
  8
4
100
AcDbPolyline
 90
        4
 70
     1
 43
0.0
 10
138.2250801432874
 20
94.64252848484576
 10
138.2250801432874
 20
93.64252848484573
 10
141.2250801432874
 20
94.14252848484574
 10
141.2250801432874
 20
94.14252848484574
  0
HATCH
  5
AC
330
70
100
AcDbEntity
  8
4
 62
    18
420
        0
440
 33554687
100
AcDbHatch
 10
0.0
 20
0.0
 30
0.0
210
0.0
220
0.0
230
1.0
  2
SOLID
 70
     1
 71
     1
 91
        1
 92
        1
 93
        3
 72
     1
 10
138.2250801432874
 20
94.64252848484576
 11
138.2250801432874
 21
93.64252848484573
 72
     1
 10
138.2250801432874
 20
93.64252848484573
 11
141.2250801432874
 21
94.14252848484574
 72
     1
 10
141.2250801432874
 20
94.14252848484574
 11
138.2250801432874
 21
94.64252848484576
 97
        1
330
AB
 75
     2
 76
     1
 98
        1
 10
0.0
 20
0.0
450
        0
451
        0
460
0.0
461
0.0
452
        0
462
0.0
453
        0
470

  0
LINE
  5
AD
330
70
100
AcDbEntity
  8
4
 62
    18
420
        0
370
    18
100
AcDbLine
 10
151.2667129618888
 20
75.03442013094382
 30
0.0
 11
151.2667129618888
 21
28.03442013094409
 31
0.0
  0
LINE
  5
AE
330
70
100
AcDbEntity
  8
4
 62
    18
420
        0
370
    18
100
AcDbLine
 10
142.0276650512876
 20
25.03442013094398
 30
0.0
 11
153.2667129618888
 21
25.03442013094398
 31
0.0
  0
LWPOLYLINE
  5
AF
330
70
100
AcDbEntity
  8
4
100
AcDbPolyline
 90
        4
 70
     1
 43
0.0
 10
150.7667129618891
 20
28.03442013094409
 10
151.7667129618885
 20
28.03442013094409
 10
151.2667129618888
 20
25.03442013094398
 10
151.2667129618888
 20
25.03442013094398
  0
HATCH
  5
B0
330
70
100
AcDbEntity
  8
4
 62
    18
420
        0
440
 33554687
100
AcDbHatch
 10
0.0
 20
0.0
 30
0.0
210
0.0
220
0.0
230
1.0
  2
SOLID
 70
     1
 71
     1
 91
        1
 92
        1
 93
        3
 72
     1
 10
150.7667129618891
 20
28.03442013094409
 11
151.7667129618885
 21
28.03442013094409
 72
     1
 10
151.7667129618885
 20
28.03442013094409
 11
151.2667129618888
 21
25.03442013094398
 72
     1
 10
151.2667129618888
 20
25.03442013094398
 11
150.7667129618891
 21
28.03442013094409
 97
        1
330
AF
 75
     2
 76
     1
 98
        1
 10
0.0
 20
0.0
450
        0
451
        0
460
0.0
461
0.0
452
        0
462
0.0
453
        0
470

  0
LINE
  5
B1
330
70
100
AcDbEntity
  8
4
 62
    18
420
        0
370
    18
100
AcDbLine
 10
110.8350801432871
 20
66.60442013094375
 30
0.0
 11
110.8350801432871
 21
89.99388017052915
 31
0.0
  0
LWPOLYLINE
  5
B2
330
70
100
AcDbEntity
  8
4
100
AcDbPolyline
 90
        4
 70
     1
 43
0.0
 10
107.8350801432869
 20
88.49388017052909
 10
107.8350801432869
 20
87.49388017052938
 10
110.8350801432871
 20
87.99388017052939
 10
110.8350801432871
 20
87.99388017052939
  0
HATCH
  5
B3
330
70
100
AcDbEntity
  8
4
 62
    18
420
        0
440
 33554687
100
AcDbHatch
 10
0.0
 20
0.0
 30
0.0
210
0.0
220
0.0
230
1.0
  2
SOLID
 70
     1
 71
     1
 91
        1
 92
        1
 93
        3
 72
     1
 10
107.8350801432869
 20
88.49388017052909
 11
107.8350801432869
 21
87.49388017052938
 72
     1
 10
107.8350801432869
 20
87.49388017052938
 11
110.8350801432871
 21
87.99388017052939
 72
     1
 10
110.8350801432871
 20
87.99388017052939
 11
107.8350801432869
 21
88.49388017052909
 97
        1
330
B2
 75
     2
 76
     1
 98
        1
 10
0.0
 20
0.0
450
        0
451
        0
460
0.0
461
0.0
452
        0
462
0.0
453
        0
470

  0
LINE
  5
B4
330
70
100
AcDbEntity
  8
4
 62
    18
420
        0
370
    18
100
AcDbLine
 10
141.7250801432872
 20
78.03442013094393
 30
0.0
 11
153.2667129618888
 21
78.03442013094393
 31
0.0
  0
LWPOLYLINE
  5
B5
330
70
100
AcDbEntity
  8
4
100
AcDbPolyline
 90
        4
 70
     1
 43
0.0
 10
150.7667129618891
 20
75.03442013094382
 10
151.7667129618885
 20
75.03442013094382
 10
151.2667129618888
 20
78.03442013094393
 10
151.2667129618888
 20
78.03442013094393
  0
HATCH
  5
B6
330
70
100
AcDbEntity
  8
4
 62
    18
420
        0
440
 33554687
100
AcDbHatch
 10
0.0
 20
0.0
 30
0.0
210
0.0
220
0.0
230
1.0
  2
SOLID
 70
     1
 71
     1
 91
        1
 92
        1
 93
        3
 72
     1
 10
150.7667129618891
 20
75.03442013094382
 11
151.7667129618885
 21
75.03442013094382
 72
     1
 10
151.7667129618885
 20
75.03442013094382
 11
151.2667129618888
 21
78.03442013094393
 72
     1
 10
151.2667129618888
 20
78.03442013094393
 11
150.7667129618891
 21
75.03442013094382
 97
        1
330
B5
 75
     2
 76
     1
 98
        1
 10
0.0
 20
0.0
450
        0
451
        0
460
0.0
461
0.0
452
        0
462
0.0
453
        0
470

  0
MTEXT
  5
B7
330
70
100
AcDbEntity
  8
4
100
AcDbMText
 10
-63.41831354039271
 20
30.91048136044323
 30
0.0
 40
0.2
 41
0.0
 46
0.0
 71
     7
 72
     1
  1
\C18;\c0;\FMyriad Pro|b0|i0|c1;\H3.000000;\W1.000000;13.5
 73
     1
 44
1.0
  0
LINE
  5
B8
330
70
100
AcDbEntity
  8
4
 62
    18
420
        0
370
    18
100
AcDbLine
 10
-68.55659034416186
 20
72.28359348387882
 30
0.0
 11
-68.55659034416186
 21
95.88521549203054
 31
0.0
  0
LINE
  5
B9
330
70
100
AcDbEntity
  8
4
 62
    18
420
        0
370
    18
100
AcDbLine
 10
-69.55659034416189
 20
91.78359348387886
 30
0.0
 11
-69.55659034416189
 21
95.88521549203054
 31
0.0
  0
LINE
  5
BA
330
70
100
AcDbEntity
  8
4
 62
    18
420
        0
370
    18
100
AcDbLine
 10
-65.55659034416175
 20
94.88521549203051
 30
0.0
 11
-62.55659034416165
 21
94.88521549203051
 31
0.0
  0
LINE
  5
BB
330
70
100
AcDbEntity
  8
4
 62
    18
420
        0
370
    18
100
AcDbLine
 10
-72.55659034416168
 20
94.88521549203051
 30
0.0
 11
-75.55659034416179
 21
94.88521549203051
 31
0.0
  0
MTEXT
  5
BC
330
70
100
AcDbEntity
  8
4
100
AcDbMText
 10
-75.55659071834772
 20
96.48521743057706
 30
0.0
 40
0.2
 41
0.0
 46
0.0
 71
     7
 72
     1
  1
\C18;\c0;\FMyriad Pro|b0|i0|c1;\H3.000000;\W1.000000;1X45°
 73
     1
 44
1.0
  0
LINE
  5
BD
330
70
100
AcDbEntity
  8
4
 62
    18
420
        0
370
    18
100
AcDbLine
 10
-68.55659034416186
 20
94.88521549203051
 30
0.0
 11
-69.55659034416189
 21
94.88521549203051
 31
0.0
  0
LWPOLYLINE
  5
BE
330
70
100
AcDbEntity
  8
4
100
AcDbPolyline
 90
        4
 70
     1
 43
0.0
 10
-65.55659034416175
 20
95.38521549203052
 10
-65.55659034416175
 20
94.38521549203048
 10
-68.55659034416186
 20
94.88521549203051
 10
-68.55659034416186
 20
94.88521549203051
  0
HATCH
  5
BF
330
70
100
AcDbEntity
  8
4
 62
    18
420
        0
440
 33554687
100
AcDbHatch
 10
0.0
 20
0.0
 30
0.0
210
0.0
220
0.0
230
1.0
  2
SOLID
 70
     1
 71
     1
 91
        1
 92
        1
 93
        3
 72
     1
 10
-65.55659034416175
 20
95.38521549203052
 11
-65.55659034416175
 21
94.38521549203048
 72
     1
 10
-65.55659034416175
 20
94.38521549203048
 11
-68.55659034416186
 21
94.88521549203051
 72
     1
 10
-68.55659034416186
 20
94.88521549203051
 11
-65.55659034416175
 21
95.38521549203052
 97
        1
330
BE
 75
     2
 76
     1
 98
        1
 10
0.0
 20
0.0
450
        0
451
        0
460
0.0
461
0.0
452
        0
462
0.0
453
        0
470

  0
LWPOLYLINE
  5
C0
330
70
100
AcDbEntity
  8
4
100
AcDbPolyline
 90
        4
 70
     1
 43
0.0
 10
-72.55659034416168
 20
95.38521549203052
 10
-72.55659034416168
 20
94.38521549203048
 10
-69.55659034416189
 20
94.88521549203051
 10
-69.55659034416189
 20
94.88521549203051
  0
HATCH
  5
C1
330
70
100
AcDbEntity
  8
4
 62
    18
420
        0
440
 33554687
100
AcDbHatch
 10
0.0
 20
0.0
 30
0.0
210
0.0
220
0.0
230
1.0
  2
SOLID
 70
     1
 71
     1
 91
        1
 92
        1
 93
        3
 72
     1
 10
-72.55659034416168
 20
95.38521549203052
 11
-72.55659034416168
 21
94.38521549203048
 72
     1
 10
-72.55659034416168
 20
94.38521549203048
 11
-69.55659034416189
 21
94.88521549203051
 72
     1
 10
-69.55659034416189
 20
94.88521549203051
 11
-72.55659034416168
 21
95.38521549203052
 97
        1
330
C0
 75
     2
 76
     1
 98
        1
 10
0.0
 20
0.0
450
        0
451
        0
460
0.0
461
0.0
452
        0
462
0.0
453
        0
470

  0
LINE
  5
C2
330
70
100
AcDbEntity
  8
4
 62
    18
420
        0
370
    18
100
AcDbLine
 10
-69.55659034416189
 20
19.03111538853657
 30
0.0
 11
-69.55659034416189
 21
21.53111538853698
 31
0.0
  0
MTEXT
  5
C3
330
70
100
AcDbEntity
  8
4
100
AcDbMText
 10
150.0608141681428
 20
45.66040168102294
 30
0.0
 40
0.2
 41
0.0
 46
0.0
 71
     7
 72
     1
  1
\C18;\c0;\FMyriad Pro|b0|i0|c1;\H4.680000;\W1.000000;60
 11
-0.0121073287215193
 21
0.9999267036094341
 31
0.0
 73
     1
 44
1.0
  0
MTEXT
  5
C4
330
70
100
AcDbEntity
  8
4
100
AcDbMText
 10
150.5898714324853
 20
55.36957463893603
 30
0.0
 40
0.2
 41
0.0
 46
0.0
 71
     7
 72
     1
  1
\C18;\c0;\FMyriad Pro|b0|i0|c1;\H3.000000;\W1.000000;+0.03
 11
-0.0000000000000002
 21
1.0
 31
0.0
 73
     1
 44
1.0
  0
MTEXT
  5
C5
330
70
100
AcDbEntity
  8
4
100
AcDbMText
 10
146.8201833569846
 20
55.36957463893603
 30
0.0
 40
0.2
 41
0.0
 46
0.0
 71
     7
 72
     1
  1
\C18;\c0;\FMyriad Pro|b0|i0|c1;\H3.000000;\W1.000000;+0.01
 11
-0.0000000000000002
 21
1.0
 31
0.0
 73
     1
 44
1.0
  0
LINE
  5
C6
330
70
100
AcDbEntity
  8
4
 62
    18
420
        0
370
    18
100
AcDbLine
 10
-21.22574206025313
 20
51.53442013094394
 30
0.0
 11
-29.0440128253812
 21
51.53442013094394
 31
0.0
  0
LINE
  5
C7
330
70
100
AcDbEntity
  8
4
 62
    18
420
        0
370
    18
100
AcDbLine
 10
-20.12651950830061
 20
25.03442013094398
 30
0.0
 11
-29.0440128253812
 21
25.03442013094398
 31
0.0
  0
LINE
  5
C8
330
70
100
AcDbEntity
  8
4
 62
    18
420
        0
370
    18
100
AcDbLine
 10
-69.55659034416189
 20
89.1110104653362
 30
0.0
 11
-67.88400732561926
 21
90.78359348387882
 31
0.0
  0
LINE
  5
C9
330
70
100
AcDbEntity
  8
4
 62
    18
420
        0
370
    18
100
AcDbLine
 10
-69.55659034416189
 20
85.57547655940362
 30
0.0
 11
-64.34847341968669
 21
90.78359348387882
 31
0.0
  0
LINE
  5
CA
330
70
100
AcDbEntity
  8
4
 62
    18
420
        0
370
    18
100
AcDbLine
 10
-69.55659034416189
 20
82.03994265347075
 30
0.0
 11
-60.8129395137538
 21
90.78359348387882
 31
0.0
  0
LINE
  5
CB
330
70
100
AcDbEntity
  8
4
 62
    18
420
        0
370
    18
100
AcDbLine
 10
-69.55659034416189
 20
78.50440874753818
 30
0.0
 11
-57.27740560782123
 21
90.78359348387882
 31
0.0
  0
LINE
  5
CC
330
70
100
AcDbEntity
  8
4
 62
    18
420
        0
370
    18
100
AcDbLine
 10
-69.55659034416189
 20
74.96887484160528
 30
0.0
 11
-53.74187170188835
 21
90.78359348387882
 31
0.0
  0
LINE
  5
CD
330
70
100
AcDbEntity
  8
4
 62
    18
420
        0
370
    18
100
AcDbLine
 10
-69.3814640700587
 20
71.60846720977592
 30
0.0
 11
-51.55659034416158
 21
89.43334093567271
 31
0.0
  0
LINE
  5
CE
330
70
100
AcDbEntity
  8
4
 62
    18
420
        0
370
    18
100
AcDbLine
 10
-66.67080389002295
 20
70.78359348387876
 30
0.0
 11
-64.1565903441617
 21
73.29780702974002
 31
0.0
  0
LINE
  5
CF
330
70
100
AcDbEntity
  8
4
 62
    18
420
        0
370
    18
100
AcDbLine
 10
-62.67080389002281
 20
74.7835934838789
 30
0.0
 11
-51.55659034416158
 21
85.89780702973982
 31
0.0
  0
LINE
  5
D0
330
70
100
AcDbEntity
  8
4
 62
    18
420
        0
370
    18
100
AcDbLine
 10
-59.13526998409025
 20
74.7835934838789
 30
0.0
 11
-51.55659034416158
 21
82.36227312380725
 31
0.0
  0
LINE
  5
D1
330
70
100
AcDbEntity
  8
4
 62
    18
420
        0
370
    18
100
AcDbLine
 10
-55.59973607815735
 20
74.7835934838789
 30
0.0
 11
-51.55659034416158
 21
78.82673921787436
 31
0.0
  0
LINE
  5
D2
330
70
100
AcDbEntity
  8
4
 62
    18
420
        0
370
    18
100
AcDbLine
 10
-69.55659034416189
 20
53.75567140600892
 30
0.0
 11
-65.52866826629219
 21
57.78359348387862
 31
0.0
  0
LINE
  5
D3
330
70
100
AcDbEntity
  8
4
 62
    18
420
        0
370
    18
100
AcDbLine
 10
-69.55659034416189
 20
50.22013750007634
 30
0.0
 11
-64.1565903441617
 21
55.62013750007621
 31
0.0
  0
LINE
  5
D4
330
70
100
AcDbEntity
  8
4
 62
    18
420
        0
370
    18
100
AcDbLine
 10
-69.55659034416189
 20
46.68460359414345
 30
0.0
 11
-62.45760045442654
 21
53.7835934838788
 31
0.0
  0
LINE
  5
D5
330
70
100
AcDbEntity
  8
4
 62
    18
420
        0
370
    18
100
AcDbLine
 10
-69.55659034416189
 20
43.14906968821056
 30
0.0
 11
-58.92206654849365
 21
53.7835934838788
 31
0.0
  0
LINE
  5
D6
330
70
100
AcDbEntity
  8
4
 62
    18
420
        0
370
    18
100
AcDbLine
 10
-69.55659034416189
 20
39.61353578227768
 30
0.0
 11
-55.38653264256108
 21
53.7835934838788
 31
0.0
  0
LINE
  5
D7
330
70
100
AcDbEntity
  8
4
 62
    18
420
        0
370
    18
100
AcDbLine
 10
-67.85099873662812
 20
37.78359348387888
 30
0.0
 11
-52.45379454039508
 21
53.18079768011193
 31
0.0
  0
LINE
  5
D8
330
70
100
AcDbEntity
  8
4
 62
    18
420
        0
370
    18
100
AcDbLine
 10
-64.31546483069555
 20
37.78359348387888
 30
0.0
 11
-51.55659034416158
 21
50.54246797041253
 31
0.0
  0
LINE
  5
D9
330
70
100
AcDbEntity
  8
4
 62
    18
420
        0
370
    18
100
AcDbLine
 10
-60.77993092476266
 20
37.78359348387888
 30
0.0
 11
-51.55659034416158
 21
47.00693406447964
 31
0.0
  0
LINE
  5
DA
330
70
100
AcDbEntity
  8
4
 62
    18
420
        0
370
    18
100
AcDbLine
 10
-57.24439701883009
 20
37.78359348387888
 30
0.0
 11
-51.55659034416158
 21
43.47140015854676
 31
0.0
  0
LINE
  5
DB
330
70
100
AcDbEntity
  8
4
 62
    18
420
        0
370
    18
100
AcDbLine
 10
-53.7088631128972
 20
37.78359348387888
 30
0.0
 11
-51.55659034416158
 21
39.93586625261451
 31
0.0
  0
LINE
  5
DE
330
70
100
AcDbEntity
  8
7
 62
    18
420
        0
370
    30
100
AcDbLine
 10
-16.97491985671265
 20
78.03442013094393
 30
0.0
 11
140.2250801432874
 21
78.03442013094393
 31
0.0
  0
LINE
  5
DF
330
70
100
AcDbEntity
  8
7
 62
    18
420
        0
370
    30
100
AcDbLine
 10
140.2250801432874
 20
25.03442013094398
 30
0.0
 11
-16.97491985671265
 21
25.03442013094398
 31
0.0
  0
LINE
  5
E0
330
70
100
AcDbEntity
  8
7
 62
    18
420
        0
370
    30
100
AcDbLine
 10
-64.1565903441617
 20
74.7835934838789
 30
0.0
 11
-64.1565903441617
 21
53.7835934838788
 31
0.0
  0
LINE
  5
E1
330
70
100
AcDbEntity
  8
7
 62
    18
420
        0
370
    30
100
AcDbLine
 10
-51.55659034416158
 20
90.78359348387882
 30
0.0
 11
-51.55659034416158
 21
38.78359348387892
 31
0.0
  0
LINE
  5
E2
330
70
100
AcDbEntity
  8
7
 62
    18
420
        0
370
    30
100
AcDbLine
 10
-64.1565903441617
 20
53.7835934838788
 30
0.0
 11
-53.05659034416163
 21
53.7835934838788
 31
0.0
  0
LINE
  5
E3
330
70
100
AcDbEntity
  8
7
 62
    18
420
        0
370
    30
100
AcDbLine
 10
-52.55659034416193
 20
37.78359348387888
 30
0.0
 11
-68.55659034416186
 21
37.78359348387888
 31
0.0
  0
LINE
  5
E4
330
70
100
AcDbEntity
  8
7
 62
    18
420
        0
370
    30
100
AcDbLine
 10
-64.1565903441617
 20
57.78359348387862
 30
0.0
 11
-68.55659034416186
 21
57.78359348387862
 31
0.0
  0
LINE
  5
E5
330
70
100
AcDbEntity
  8
7
 62
    18
420
        0
370
    30
100
AcDbLine
 10
-68.55659034416186
 20
70.78359348387876
 30
0.0
 11
-64.1565903441617
 21
70.78359348387876
 31
0.0
  0
LINE
  5
E6
330
70
100
AcDbEntity
  8
7
 62
    18
420
        0
370
    30
100
AcDbLine
 10
-68.55659034416186
 20
90.78359348387882
 30
0.0
 11
-51.55659034416158
 21
90.78359348387882
 31
0.0
  0
CIRCLE
  5
E7
330
70
100
AcDbEntity
  8
7
 62
    18
420
        0
370
    30
100
AcDbCircle
 10
12.41508014328731
 20
51.53442013094394
 30
0.0
 40
6.500000000000027
  0
CIRCLE
  5
E8
330
70
100
AcDbEntity
  8
7
 62
    18
420
        0
370
    30
100
AcDbCircle
 10
12.41508014328739
 20
51.53442013094387
 30
0.0
 40
10.49999999999993
  0
CIRCLE
  5
E9
330
70
100
AcDbEntity
  8
7
 62
    18
420
        0
370
    30
100
AcDbCircle
 10
12.41508014328731
 20
51.53442013094378
 30
0.0
 40
11.99999999999998
  0
CIRCLE
  5
EA
330
70
100
AcDbEntity
  8
7
 62
    18
420
        0
370
    30
100
AcDbCircle
 10
110.8350801432871
 20
51.53442013094394
 30
0.0
 40
6.499999999999907
  0
LINE
  5
EB
330
70
100
AcDbEntity
  8
7
 62
    18
420
        0
370
    30
100
AcDbLine
 10
-64.1565903441617
 20
74.7835934838789
 30
0.0
 11
-53.05659034416163
 21
74.7835934838789
 31
0.0
  0
LINE
  5
EC
330
70
100
AcDbEntity
  8
7
 62
    18
420
        0
370
    30
100
AcDbLine
 10
-69.55659034416189
 20
38.78359348387892
 30
0.0
 11
-69.55659034416189
 21
89.78359348387879
 31
0.0
  0
LINE
  5
ED
330
70
100
AcDbEntity
  8
7
 62
    18
420
        0
370
    30
100
AcDbLine
 10
-68.55659034416186
 20
70.78359348387876
 30
0.0
 11
-69.55659034416189
 21
71.7835934838788
 31
0.0
  0
LINE
  5
EE
330
70
100
AcDbEntity
  8
7
 62
    18
420
        0
370
    30
100
AcDbLine
 10
-68.55659034416186
 20
57.78359348387862
 30
0.0
 11
-69.55659034416189
 21
56.78359348387891
 31
0.0
  0
LINE
  5
EF
330
70
100
AcDbEntity
  8
7
 62
    18
420
        0
370
    30
100
AcDbLine
 10
-53.05659034416163
 20
74.7835934838789
 30
0.0
 11
-53.05659034416163
 21
53.7835934838788
 31
0.0
  0
LINE
  5
F0
330
70
100
AcDbEntity
  8
7
 62
    18
420
        0
370
    30
100
AcDbLine
 10
-68.55659034416186
 20
70.78359348387876
 30
0.0
 11
-68.55659034416186
 21
57.78359348387862
 31
0.0
  0
LINE
  5
F1
330
70
100
AcDbEntity
  8
7
 62
    18
420
        0
370
    30
100
AcDbLine
 10
-53.05659034416163
 20
53.7835934838788
 30
0.0
 11
-51.55659034416158
 21
52.28359348387876
 31
0.0
  0
LINE
  5
F2
330
70
100
AcDbEntity
  8
7
 62
    18
420
        0
370
    30
100
AcDbLine
 10
-53.05659034416163
 20
74.7835934838789
 30
0.0
 11
-51.55659034416158
 21
76.28359348387864
 31
0.0
  0
LINE
  5
F3
330
70
100
AcDbEntity
  8
7
 62
    18
420
        0
370
    30
100
AcDbLine
 10
-51.55659034416158
 20
38.78359348387892
 30
0.0
 11
-52.55659034416193
 21
37.78359348387888
 31
0.0
  0
LINE
  5
F4
330
70
100
AcDbEntity
  8
7
 62
    18
420
        0
370
    30
100
AcDbLine
 10
-69.55659034416189
 20
38.78359348387892
 30
0.0
 11
-68.55659034416186
 21
37.78359348387888
 31
0.0
  0
LINE
  5
F5
330
70
100
AcDbEntity
  8
7
 62
    18
420
        0
370
    30
100
AcDbLine
 10
-68.55659034416186
 20
90.78359348387882
 30
0.0
 11
-69.55659034416189
 21
89.78359348387879
 31
0.0
  0
CIRCLE
  5
F6
330
70
100
AcDbEntity
  8
7
 62
    18
420
        0
370
    30
100
AcDbCircle
 10
110.8350801432871
 20
51.53442013094387
 30
0.0
 40
10.49999999999993
  0
CIRCLE
  5
F7
330
70
100
AcDbEntity
  8
7
 62
    18
420
        0
370
    30
100
AcDbCircle
 10
110.8350801432872
 20
51.53442013094378
 30
0.0
 40
11.99999999999994
  0
LINE
  5
F9
330
70
100
AcDbEntity
  8
3
  6
AI-Linetype-0
 62
    18
420
        0
370
    18
100
AcDbLine
 10
-1.342718568105742
 20
51.53442013094394
 30
0.0
 11
124.5928797277162
 21
51.53442013094394
 31
0.0
  0
LINE
  5
FB
330
70
100
AcDbEntity
  8
3
  6
AI-Linetype-1
 62
    18
420
        0
370
    18
100
AcDbLine
 10
-48.18651480980132
 20
64.28359348387886
 30
0.0
 11
-72.66901578080989
 21
64.28359348387886
 31
0.0
  0
LINE
  5
FD
330
70
100
AcDbEntity
  8
3
  6
AI-Linetype-2
 62
    18
420
        0
370
    18
100
AcDbLine
 10
12.41508014328739
 20
65.17279812279205
 30
0.0
 11
12.41508014328739
 21
37.89604213909584
 31
0.0
  0
LINE
  5
FF
330
70
100
AcDbEntity
  8
3
  6
AI-Linetype-3
 62
    18
420
        0
370
    18
100
AcDbLine
 10
61.62508014328724
 20
81.37225789345787
 30
0.0
 11
61.62508014328724
 21
20.77766326714812
 31
0.0
  0
LINE
  5
101
330
70
100
AcDbEntity
  8
3
  6
AI-Linetype-4
 62
    18
420
        0
370
    18
100
AcDbLine
 10
110.8350801432871
 20
65.17279812279205
 30
0.0
 11
110.8350801432871
 21
37.89604213909584
 31
0.0
  0
LINE
  5
103
330
70
100
AcDbEntity
  8
3
 62
    18
420
        0
370
    30
100
AcDbLine
 10
-17.97491985671268
 20
77.03442013094388
 30
0.0
 11
-17.97491985671268
 21
26.03442013094401
 31
0.0
  0
LINE
  5
104
330
70
100
AcDbEntity
  8
3
 62
    18
420
        0
370
    30
100
AcDbLine
 10
141.2250801432874
 20
77.03442013094388
 30
0.0
 11
141.2250801432874
 21
26.03442013094401
 31
0.0
  0
LINE
  5
106
330
70
100
AcDbEntity
  8
BART03
 62
    18
420
        0
370
    30
100
AcDbLine
 10
141.2250801432874
 20
26.03442013094401
 30
0.0
 11
140.2250801432874
 21
25.03442013094398
 31
0.0
  0
LINE
  5
107
330
70
100
AcDbEntity
  8
BART03
 62
    18
420
        0
370
    30
100
AcDbLine
 10
140.2250801432874
 20
78.03442013094393
 30
0.0
 11
141.2250801432874
 21
77.03442013094388
 31
0.0
  0
LINE
  5
108
330
70
100
AcDbEntity
  8
BART03
 62
    18
420
        0
370
    30
100
AcDbLine
 10
-16.97491985671265
 20
78.03442013094393
 30
0.0
 11
-17.97491985671268
 21
77.03442013094388
 31
0.0
  0
LINE
  5
109
330
70
100
AcDbEntity
  8
BART03
 62
    18
420
        0
370
    30
100
AcDbLine
 10
-17.97491985671268
 20
26.03442013094401
 30
0.0
 11
-16.97491985671265
 21
25.03442013094398
 31
0.0
  0
INSERT
  5
10B
330
70
100
AcDbEntity
  8
BART03
100
AcDbBlockReference
  2
Block_0
 10
0.0
 20
0.0
 30
0.0
  0
MTEXT
  5
111
330
70
100
AcDbEntity
  8
BART03
100
AcDbMText
 10
-48.9644315809121
 20
71.43582588105326
 30
0.0
 40
0.2
 41
0.0
 46
0.0
 71
     7
 72
     1
  1
\C18;\c0;\FMyriad Pro|b0|i0|c1;\H2.000000;\W1.000000;1.5C
 73
     1
 44
1.0
  0
MTEXT
  5
112
330
70
100
AcDbEntity
  8
BART03
100
AcDbMText
 10
119.2388888590791
 20
130.5277777451458
 30
0.0
 40
0.2
 41
0.0
 46
0.0
 71
     7
 72
     1
  1
\C18;\c0;\FMyriad Pro|b0|i0|c1;\H2.997200;\W1.000000;Z.KS.SA.AMP7401
 73
     1
 44
1.0
  0
LINE
  5
114
330
70
100
AcDbEntity
  8
ASHADE
 62
    18
420
        0
370
    18
100
AcDbLine
 10
-99.78194380694876
 20
-42.22903996964787
 30
0.0
 11
174.2180548994508
 21
-42.22903996964787
 31
0.0
  0
LINE
  5
115
330
70
100
AcDbEntity
  8
ASHADE
 62
    18
420
        0
370
    18
100
AcDbLine
 10
-94.93850948638066
 20
-37.38560564908041
 30
0.0
 11
169.374620578884
 21
-37.38560564908041
 31
0.0
  0
LINE
  5
116
330
70
100
AcDbEntity
  8
ASHADE
 62
    18
420
        0
370
    18
100
AcDbLine
 10
-99.78194380694876
 20
147.3568177211437
 30
0.0
 11
-99.78194380694876
 21
-42.22903996964787
 31
0.0
  0
LINE
  5
117
330
70
100
AcDbEntity
  8
ASHADE
 62
    18
420
        0
370
    18
100
AcDbLine
 10
174.2180548994508
 20
-42.22903996964787
 30
0.0
 11
174.2180548994508
 21
147.3568177211437
 31
0.0
  0
LINE
  5
118
330
70
100
AcDbEntity
  8
ASHADE
 62
    18
420
        0
370
    18
100
AcDbLine
 10
-94.93850948638066
 20
-37.38560564908041
 30
0.0
 11
-12.60012603673058
 21
-37.38560564908041
 31
0.0
  0
LINE
  5
119
330
70
100
AcDbEntity
  8
ASHADE
 62
    18
420
        0
370
    18
100
AcDbLine
 10
-94.93850948638066
 20
-12.4765148575896
 30
0.0
 11
-94.93850948638066
 21
-37.38560564908041
 31
0.0
  0
LINE
  5
11A
330
70
100
AcDbEntity
  8
ASHADE
 62
    18
420
        0
370
    18
100
AcDbLine
 10
169.374620578884
 20
-37.38560564908041
 30
0.0
 11
169.374620578884
 21
142.5133834005762
 31
0.0
  0
LINE
  5
11B
330
70
100
AcDbEntity
  8
ASHADE
 62
    18
420
        0
370
    18
100
AcDbLine
 10
-94.93850948638066
 20
142.5133834005762
 30
0.0
 11
-94.93850948638066
 21
-37.38560564908041
 31
0.0
  0
LINE
  5
11C
330
70
100
AcDbEntity
  8
ASHADE
 62
    18
420
        0
370
    18
100
AcDbLine
 10
-99.78194380694876
 20
147.3568177211437
 30
0.0
 11
174.2180548994508
 21
147.3568177211437
 31
0.0
  0
LINE
  5
11D
330
70
100
AcDbEntity
  8
ASHADE
 62
    18
420
        0
370
    18
100
AcDbLine
 10
-94.93850948638066
 20
142.5133834005762
 30
0.0
 11
169.374620578884
 21
142.5133834005762
 31
0.0
  0
MTEXT
  5
11E
330
70
100
AcDbEntity
  8
ASHADE
100
AcDbMText
 10
-98.86761938378462
 20
-16.45505045373468
 30
0.0
 40
0.2
 41
0.0
 46
0.0
 71
     7
 72
     1
  1
\C18;\c0;\FMyriad Pro|b0|i0|c1;\H3.113636;\W1.000000;A
 73
     1
 44
1.0
  0
LINE
  5
11F
330
70
100
AcDbEntity
  8
ASHADE
 62
    18
420
        0
370
    18
100
AcDbLine
 10
169.7205801732095
 20
-37.73156524340652
 30
0.0
 11
169.7205801732095
 21
142.8593429949023
 31
0.0
  0
LINE
  5
120
330
70
100
AcDbEntity
  8
ASHADE
 62
    18
420
        0
370
    18
100
AcDbLine
 10
-95.28446908070739
 20
-37.73156524340652
 30
0.0
 11
169.7205801732095
 21
-37.73156524340652
 31
0.0
  0
LINE
  5
121
330
70
100
AcDbEntity
  8
ASHADE
 62
    18
420
        0
370
    18
100
AcDbLine
 10
-95.28446908070739
 20
142.8593429949023
 30
0.0
 11
169.7205801732095
 21
142.8593429949023
 31
0.0
  0
LINE
  5
122
330
70
100
AcDbEntity
  8
ASHADE
 62
    18
420
        0
370
    18
100
AcDbLine
 10
-95.28446908070739
 20
142.8593429949023
 30
0.0
 11
-95.28446908070739
 21
-37.73156524340652
 31
0.0
  0
LINE
  5
123
330
70
100
AcDbEntity
  8
ASHADE
 62
    18
420
        0
370
    18
100
AcDbLine
 10
37.04507574908799
 20
-39.80732280936447
 30
0.0
 11
37.04507574908799
 21
-37.73156524340652
 31
0.0
  0
LINE
  5
124
330
70
100
AcDbEntity
  8
ASHADE
 62
    18
420
        0
370
    18
100
AcDbLine
 10
37.39103534341474
 20
-39.80732280936447
 30
0.0
 11
37.39103534341474
 21
-37.73156524340652
 31
0.0
  0
LWPOLYLINE
  5
125
330
70
100
AcDbEntity
  8
ASHADE
100
AcDbPolyline
 90
        4
 70
     1
 43
0.0
 10
37.39103534341474
 20
-37.73156524340652
 10
37.04507574908799
 20
-37.73156524340652
 10
37.04507574908799
 20
-39.80732280936447
 10
37.39103534341474
 20
-39.80732280936447
  0
HATCH
  5
126
330
70
100
AcDbEntity
  8
ASHADE
 62
    18
420
        0
440
 33554687
100
AcDbHatch
 10
0.0
 20
0.0
 30
0.0
210
0.0
220
0.0
230
1.0
  2
SOLID
 70
     1
 71
     1
 91
        1
 92
        1
 93
        4
 72
     1
 10
37.39103534341474
 20
-37.73156524340652
 11
37.04507574908799
 21
-37.73156524340652
 72
     1
 10
37.04507574908799
 20
-37.73156524340652
 11
37.04507574908799
 21
-39.80732280936447
 72
     1
 10
37.04507574908799
 20
-39.80732280936447
 11
37.39103534341474
 21
-39.80732280936447
 72
     1
 10
37.39103534341474
 20
-39.80732280936447
 11
37.39103534341474
 21
-37.73156524340652
 97
        1
330
125
 75
     2
 76
     1
 98
        1
 10
0.0
 20
0.0
450
        0
451
        0
460
0.0
461
0.0
452
        0
462
0.0
453
        0
470

  0
LINE
  5
127
330
70
100
AcDbEntity
  8
ASHADE
 62
    18
420
        0
370
    18
100
AcDbLine
 10
37.04507574908799
 20
-39.80732280936447
 30
0.0
 11
37.39103534341474
 21
-39.80732280936447
 31
0.0
  0
LINE
  5
128
330
70
100
AcDbEntity
  8
ASHADE
 62
    18
420
        0
370
    18
100
AcDbLine
 10
70.08421700724558
 20
-39.80732280936447
 30
0.0
 11
70.08421700724558
 21
-37.73156524340652
 31
0.0
  0
LINE
  5
129
330
70
100
AcDbEntity
  8
ASHADE
 62
    18
420
        0
370
    18
100
AcDbLine
 10
70.43017660157234
 20
-39.80732280936447
 30
0.0
 11
70.43017660157234
 21
-37.73156524340652
 31
0.0
  0
LWPOLYLINE
  5
12A
330
70
100
AcDbEntity
  8
ASHADE
100
AcDbPolyline
 90
        4
 70
     1
 43
0.0
 10
70.43017660157234
 20
-37.73156524340652
 10
70.08421700724558
 20
-37.73156524340652
 10
70.08421700724558
 20
-39.80732280936447
 10
70.43017660157234
 20
-39.80732280936447
  0
HATCH
  5
12B
330
70
100
AcDbEntity
  8
ASHADE
 62
    18
420
        0
440
 33554687
100
AcDbHatch
 10
0.0
 20
0.0
 30
0.0
210
0.0
220
0.0
230
1.0
  2
SOLID
 70
     1
 71
     1
 91
        1
 92
        1
 93
        4
 72
     1
 10
70.43017660157234
 20
-37.73156524340652
 11
70.08421700724558
 21
-37.73156524340652
 72
     1
 10
70.08421700724558
 20
-37.73156524340652
 11
70.08421700724558
 21
-39.80732280936447
 72
     1
 10
70.08421700724558
 20
-39.80732280936447
 11
70.43017660157234
 21
-39.80732280936447
 72
     1
 10
70.43017660157234
 20
-39.80732280936447
 11
70.43017660157234
 21
-37.73156524340652
 97
        1
330
12A
 75
     2
 76
     1
 98
        1
 10
0.0
 20
0.0
450
        0
451
        0
460
0.0
461
0.0
452
        0
462
0.0
453
        0
470

  0
LINE
  5
12C
330
70
100
AcDbEntity
  8
ASHADE
 62
    18
420
        0
370
    18
100
AcDbLine
 10
70.08421700724558
 20
-39.80732280936447
 30
0.0
 11
70.43017660157234
 21
-39.80732280936447
 31
0.0
  0
LINE
  5
12D
330
70
100
AcDbEntity
  8
ASHADE
 62
    18
420
        0
370
    18
100
AcDbLine
 10
103.1233582654038
 20
-39.94072810491296
 30
0.0
 11
103.4693178597306
 21
-39.94072810491296
 31
0.0
  0
LWPOLYLINE
  5
12E
330
70
100
AcDbEntity
  8
ASHADE
100
AcDbPolyline
 90
        4
 70
     1
 43
0.0
 10
103.4693178597306
 20
-37.86497053895502
 10
103.1233582654038
 20
-37.86497053895502
 10
103.1233582654038
 20
-39.94072810491296
 10
103.4693178597306
 20
-39.94072810491296
  0
HATCH
  5
12F
330
70
100
AcDbEntity
  8
ASHADE
 62
    18
420
        0
440
 33554687
100
AcDbHatch
 10
0.0
 20
0.0
 30
0.0
210
0.0
220
0.0
230
1.0
  2
SOLID
 70
     1
 71
     1
 91
        1
 92
        1
 93
        4
 72
     1
 10
103.4693178597306
 20
-37.86497053895502
 11
103.1233582654038
 21
-37.86497053895502
 72
     1
 10
103.1233582654038
 20
-37.86497053895502
 11
103.1233582654038
 21
-39.94072810491296
 72
     1
 10
103.1233582654038
 20
-39.94072810491296
 11
103.4693178597306
 21
-39.94072810491296
 72
     1
 10
103.4693178597306
 20
-39.94072810491296
 11
103.4693178597306
 21
-37.86497053895502
 97
        1
330
12E
 75
     2
 76
     1
 98
        1
 10
0.0
 20
0.0
450
        0
451
        0
460
0.0
461
0.0
452
        0
462
0.0
453
        0
470

  0
LINE
  5
130
330
70
100
AcDbEntity
  8
ASHADE
 62
    18
420
        0
370
    18
100
AcDbLine
 10
103.4693178597306
 20
-39.94072810491296
 30
0.0
 11
103.4693178597306
 21
-37.86497053895566
 31
0.0
  0
LINE
  5
131
330
70
100
AcDbEntity
  8
ASHADE
 62
    18
420
        0
370
    18
100
AcDbLine
 10
103.1233582654038
 20
-39.94072810491296
 30
0.0
 11
103.1233582654038
 21
-37.86497053895566
 31
0.0
  0
LINE
  5
132
330
70
100
AcDbEntity
  8
ASHADE
 62
    18
420
        0
370
    18
100
AcDbLine
 10
136.162499523562
 20
-39.80732280936447
 30
0.0
 11
136.162499523562
 21
-37.73156524340652
 31
0.0
  0
LINE
  5
133
330
70
100
AcDbEntity
  8
ASHADE
 62
    18
420
        0
370
    18
100
AcDbLine
 10
136.5084591178888
 20
-39.80732280936447
 30
0.0
 11
136.5084591178888
 21
-37.73156524340652
 31
0.0
  0
LWPOLYLINE
  5
134
330
70
100
AcDbEntity
  8
ASHADE
100
AcDbPolyline
 90
        4
 70
     1
 43
0.0
 10
136.5084591178888
 20
-37.73156524340652
 10
136.162499523562
 20
-37.73156524340652
 10
136.162499523562
 20
-39.80732280936447
 10
136.5084591178888
 20
-39.80732280936447
  0
HATCH
  5
135
330
70
100
AcDbEntity
  8
ASHADE
 62
    18
420
        0
440
 33554687
100
AcDbHatch
 10
0.0
 20
0.0
 30
0.0
210
0.0
220
0.0
230
1.0
  2
SOLID
 70
     1
 71
     1
 91
        1
 92
        1
 93
        4
 72
     1
 10
136.5084591178888
 20
-37.73156524340652
 11
136.162499523562
 21
-37.73156524340652
 72
     1
 10
136.162499523562
 20
-37.73156524340652
 11
136.162499523562
 21
-39.80732280936447
 72
     1
 10
136.162499523562
 20
-39.80732280936447
 11
136.5084591178888
 21
-39.80732280936447
 72
     1
 10
136.5084591178888
 20
-39.80732280936447
 11
136.5084591178888
 21
-37.73156524340652
 97
        1
330
134
 75
     2
 76
     1
 98
        1
 10
0.0
 20
0.0
450
        0
451
        0
460
0.0
461
0.0
452
        0
462
0.0
453
        0
470

  0
LINE
  5
136
330
70
100
AcDbEntity
  8
ASHADE
 62
    18
420
        0
370
    18
100
AcDbLine
 10
136.162499523562
 20
-39.80732280936447
 30
0.0
 11
136.5084591178888
 21
-39.80732280936447
 31
0.0
  0
MTEXT
  5
137
330
70
100
AcDbEntity
  8
ASHADE
100
AcDbMText
 10
52.18081040667322
 20
-41.53712061797265
 30
0.0
 40
0.2
 41
0.0
 46
0.0
 71
     7
 72
     1
  1
\C18;\c0;\FMyriad Pro|b0|i0|c1;\H3.113636;\W1.000000;4
 73
     1
 44
1.0
  0
MTEXT
  5
138
330
70
100
AcDbEntity
  8
ASHADE
100
AcDbMText
 10
85.29408312890435
 20
-41.53712061797265
 30
0.0
 40
0.2
 41
0.0
 46
0.0
 71
     7
 72
     1
  1
\C18;\c0;\FMyriad Pro|b0|i0|c1;\H3.113636;\W1.000000;3
 73
     1
 44
1.0
  0
MTEXT
  5
139
330
70
100
AcDbEntity
  8
ASHADE
100
AcDbMText
 10
151.5947734877632
 20
-41.67052655767725
 30
0.0
 40
0.2
 41
0.0
 46
0.0
 71
     7
 72
     1
  1
\C18;\c0;\FMyriad Pro|b0|i0|c1;\H3.113636;\W1.000000;1
 73
     1
 44
1.0
  0
MTEXT
  5
13A
330
70
100
AcDbEntity
  8
ASHADE
100
AcDbMText
 10
118.3332270856239
 20
-41.67052655767725
 30
0.0
 40
0.2
 41
0.0
 46
0.0
 71
     7
 72
     1
  1
\C18;\c0;\FMyriad Pro|b0|i0|c1;\H3.113636;\W1.000000;2
 73
     1
 44
1.0
  0
LINE
  5
13B
330
70
100
AcDbEntity
  8
ASHADE
 62
    18
420
        0
370
    18
100
AcDbLine
 10
-62.07234802538643
 20
-39.80732280936447
 30
0.0
 11
-62.07234802538643
 21
-37.73156524340652
 31
0.0
  0
LINE
  5
13C
330
70
100
AcDbEntity
  8
ASHADE
 62
    18
420
        0
370
    18
100
AcDbLine
 10
-61.72638843105968
 20
-39.80732280936447
 30
0.0
 11
-61.72638843105968
 21
-37.73156524340652
 31
0.0
  0
LWPOLYLINE
  5
13D
330
70
100
AcDbEntity
  8
ASHADE
100
AcDbPolyline
 90
        4
 70
     1
 43
0.0
 10
-61.72638843105968
 20
-37.73156524340652
 10
-62.07234802538643
 20
-37.73156524340652
 10
-62.07234802538643
 20
-39.80732280936447
 10
-61.72638843105968
 20
-39.80732280936447
  0
HATCH
  5
13E
330
70
100
AcDbEntity
  8
ASHADE
 62
    18
420
        0
440
 33554687
100
AcDbHatch
 10
0.0
 20
0.0
 30
0.0
210
0.0
220
0.0
230
1.0
  2
SOLID
 70
     1
 71
     1
 91
        1
 92
        1
 93
        4
 72
     1
 10
-61.72638843105968
 20
-37.73156524340652
 11
-62.07234802538643
 21
-37.73156524340652
 72
     1
 10
-62.07234802538643
 20
-37.73156524340652
 11
-62.07234802538643
 21
-39.80732280936447
 72
     1
 10
-62.07234802538643
 20
-39.80732280936447
 11
-61.72638843105968
 21
-39.80732280936447
 72
     1
 10
-61.72638843105968
 20
-39.80732280936447
 11
-61.72638843105968
 21
-37.73156524340652
 97
        1
330
13D
 75
     2
 76
     1
 98
        1
 10
0.0
 20
0.0
450
        0
451
        0
460
0.0
461
0.0
452
        0
462
0.0
453
        0
470

  0
LINE
  5
13F
330
70
100
AcDbEntity
  8
ASHADE
 62
    18
420
        0
370
    18
100
AcDbLine
 10
-62.07234802538643
 20
-39.80732280936447
 30
0.0
 11
-61.72638843105968
 21
-39.80732280936447
 31
0.0
  0
MTEXT
  5
140
330
70
100
AcDbEntity
  8
ASHADE
100
AcDbMText
 10
-46.86248193205066
 20
-41.53712061797265
 30
0.0
 40
0.2
 41
0.0
 46
0.0
 71
     7
 72
     1
  1
\C18;\c0;\FMyriad Pro|b0|i0|c1;\H3.113636;\W1.000000;7
 73
     1
 44
1.0
  0
LINE
  5
141
330
70
100
AcDbEntity
  8
ASHADE
 62
    18
420
        0
370
    18
100
AcDbLine
 10
-29.03320676722722
 20
-39.80732280936447
 30
0.0
 11
-28.68724717290175
 21
-39.80732280936447
 31
0.0
  0
LWPOLYLINE
  5
142
330
70
100
AcDbEntity
  8
ASHADE
100
AcDbPolyline
 90
        4
 70
     1
 43
0.0
 10
-28.68724717290175
 20
-37.73156524340652
 10
-29.03320676722722
 20
-37.73156524340652
 10
-29.03320676722722
 20
-39.80732280936447
 10
-28.68724717290175
 20
-39.80732280936447
  0
HATCH
  5
143
330
70
100
AcDbEntity
  8
ASHADE
 62
    18
420
        0
440
 33554687
100
AcDbHatch
 10
0.0
 20
0.0
 30
0.0
210
0.0
220
0.0
230
1.0
  2
SOLID
 70
     1
 71
     1
 91
        1
 92
        1
 93
        4
 72
     1
 10
-28.68724717290175
 20
-37.73156524340652
 11
-29.03320676722722
 21
-37.73156524340652
 72
     1
 10
-29.03320676722722
 20
-37.73156524340652
 11
-29.03320676722722
 21
-39.80732280936447
 72
     1
 10
-29.03320676722722
 20
-39.80732280936447
 11
-28.68724717290175
 21
-39.80732280936447
 72
     1
 10
-28.68724717290175
 20
-39.80732280936447
 11
-28.68724717290175
 21
-37.73156524340652
 97
        1
330
142
 75
     2
 76
     1
 98
        1
 10
0.0
 20
0.0
450
        0
451
        0
460
0.0
461
0.0
452
        0
462
0.0
453
        0
470

  0
LINE
  5
144
330
70
100
AcDbEntity
  8
ASHADE
 62
    18
420
        0
370
    18
100
AcDbLine
 10
-28.68724717290175
 20
-39.80732280936447
 30
0.0
 11
-28.68724717290175
 21
-37.73156524340652
 31
0.0
  0
LINE
  5
145
330
70
100
AcDbEntity
  8
ASHADE
 62
    18
420
        0
370
    18
100
AcDbLine
 10
-29.03320676722722
 20
-39.80732280936447
 30
0.0
 11
-29.03320676722722
 21
-37.73156524340652
 31
0.0
  0
MTEXT
  5
146
330
70
100
AcDbEntity
  8
ASHADE
100
AcDbMText
 10
-13.89747481528512
 20
-41.53712061797265
 30
0.0
 40
0.2
 41
0.0
 46
0.0
 71
     7
 72
     1
  1
\C18;\c0;\FMyriad Pro|b0|i0|c1;\H3.113636;\W1.000000;6
 73
     1
 44
1.0
  0
LINE
  5
147
330
70
100
AcDbEntity
  8
ASHADE
 62
    18
420
        0
370
    18
100
AcDbLine
 10
4.005934490929744
 20
-39.94072810491296
 30
0.0
 11
4.005934490929744
 21
-37.86497053895502
 31
0.0
  0
LINE
  5
148
330
70
100
AcDbEntity
  8
ASHADE
 62
    18
420
        0
370
    18
100
AcDbLine
 10
4.351894085256175
 20
-39.94072810491296
 30
0.0
 11
4.351894085256175
 21
-37.86497053895502
 31
0.0
  0
LWPOLYLINE
  5
149
330
70
100
AcDbEntity
  8
ASHADE
100
AcDbPolyline
 90
        4
 70
     1
 43
0.0
 10
4.351894085256175
 20
-37.86497053895502
 10
4.005934490929744
 20
-37.86497053895502
 10
4.005934490929744
 20
-39.94072810491296
 10
4.351894085256175
 20
-39.94072810491296
  0
HATCH
  5
14A
330
70
100
AcDbEntity
  8
ASHADE
 62
    18
420
        0
440
 33554687
100
AcDbHatch
 10
0.0
 20
0.0
 30
0.0
210
0.0
220
0.0
230
1.0
  2
SOLID
 70
     1
 71
     1
 91
        1
 92
        1
 93
        4
 72
     1
 10
4.351894085256175
 20
-37.86497053895502
 11
4.005934490929744
 21
-37.86497053895502
 72
     1
 10
4.005934490929744
 20
-37.86497053895502
 11
4.005934490929744
 21
-39.94072810491296
 72
     1
 10
4.005934490929744
 20
-39.94072810491296
 11
4.351894085256175
 21
-39.94072810491296
 72
     1
 10
4.351894085256175
 20
-39.94072810491296
 11
4.351894085256175
 21
-37.86497053895502
 97
        1
330
149
 75
     2
 76
     1
 98
        1
 10
0.0
 20
0.0
450
        0
451
        0
460
0.0
461
0.0
452
        0
462
0.0
453
        0
470

  0
LINE
  5
14B
330
70
100
AcDbEntity
  8
ASHADE
 62
    18
420
        0
370
    18
100
AcDbLine
 10
4.005934490929744
 20
-39.94072810491296
 30
0.0
 11
4.351894085256175
 21
-39.94072810491296
 31
0.0
  0
MTEXT
  5
14C
330
70
100
AcDbEntity
  8
ASHADE
100
AcDbMText
 10
19.21580059842684
 20
-41.67052655767725
 30
0.0
 40
0.2
 41
0.0
 46
0.0
 71
     7
 72
     1
  1
\C18;\c0;\FMyriad Pro|b0|i0|c1;\H3.113636;\W1.000000;5
 73
     1
 44
1.0
  0
MTEXT
  5
14D
330
70
100
AcDbEntity
  8
ASHADE
100
AcDbMText
 10
-79.90162050580856
 20
-41.53712061797265
 30
0.0
 40
0.2
 41
0.0
 46
0.0
 71
     7
 72
     1
  1
\C18;\c0;\FMyriad Pro|b0|i0|c1;\H3.113636;\W1.000000;8
 73
     1
 44
1.0
  0
LWPOLYLINE
  5
14E
330
70
100
AcDbEntity
  8
ASHADE
100
AcDbPolyline
 90
        4
 70
     1
 43
0.0
 10
-94.93850948638066
 20
142.5133834005762
 10
-95.28446908070739
 20
142.8593429949023
 10
169.7205801732095
 20
142.8593429949023
 10
169.374620578884
 20
142.5133834005762
  0
HATCH
  5
14F
330
70
100
AcDbEntity
  8
ASHADE
 62
    18
420
        0
440
 33554687
100
AcDbHatch
 10
0.0
 20
0.0
 30
0.0
210
0.0
220
0.0
230
1.0
  2
SOLID
 70
     1
 71
     1
 91
        1
 92
        1
 93
        4
 72
     1
 10
-94.93850948638066
 20
142.5133834005762
 11
-95.28446908070739
 21
142.8593429949023
 72
     1
 10
-95.28446908070739
 20
142.8593429949023
 11
169.7205801732095
 21
142.8593429949023
 72
     1
 10
169.7205801732095
 20
142.8593429949023
 11
169.374620578884
 21
142.5133834005762
 72
     1
 10
169.374620578884
 20
142.5133834005762
 11
-94.93850948638064
 21
142.5133834005762
 97
        1
330
14E
 75
     2
 76
     1
 98
        1
 10
0.0
 20
0.0
450
        0
451
        0
460
0.0
461
0.0
452
        0
462
0.0
453
        0
470

  0
LWPOLYLINE
  5
150
330
70
100
AcDbEntity
  8
ASHADE
100
AcDbPolyline
 90
        4
 70
     1
 43
0.0
 10
169.374620578884
 20
142.5133834005762
 10
169.7205801732095
 20
142.8593429949023
 10
169.7205801732095
 20
-37.73156524340652
 10
169.374620578884
 20
-37.38560564908041
  0
HATCH
  5
151
330
70
100
AcDbEntity
  8
ASHADE
 62
    18
420
        0
440
 33554687
100
AcDbHatch
 10
0.0
 20
0.0
 30
0.0
210
0.0
220
0.0
230
1.0
  2
SOLID
 70
     1
 71
     1
 91
        1
 92
        1
 93
        4
 72
     1
 10
169.374620578884
 20
142.5133834005762
 11
169.7205801732095
 21
142.8593429949023
 72
     1
 10
169.7205801732095
 20
142.8593429949023
 11
169.7205801732095
 21
-37.73156524340652
 72
     1
 10
169.7205801732095
 20
-37.73156524340652
 11
169.374620578884
 21
-37.38560564908041
 72
     1
 10
169.374620578884
 20
-37.38560564908041
 11
169.374620578884
 21
142.5133834005762
 97
        1
330
150
 75
     2
 76
     1
 98
        1
 10
0.0
 20
0.0
450
        0
451
        0
460
0.0
461
0.0
452
        0
462
0.0
453
        0
470

  0
LWPOLYLINE
  5
152
330
70
100
AcDbEntity
  8
ASHADE
100
AcDbPolyline
 90
        4
 70
     1
 43
0.0
 10
169.374620578884
 20
-37.38560564908041
 10
169.7205801732095
 20
-37.73156524340652
 10
-95.28446908070739
 20
-37.73156524340652
 10
-94.93850948638066
 20
-37.38560564908041
  0
HATCH
  5
153
330
70
100
AcDbEntity
  8
ASHADE
 62
    18
420
        0
440
 33554687
100
AcDbHatch
 10
0.0
 20
0.0
 30
0.0
210
0.0
220
0.0
230
1.0
  2
SOLID
 70
     1
 71
     1
 91
        1
 92
        1
 93
        4
 72
     1
 10
169.374620578884
 20
-37.38560564908041
 11
169.7205801732095
 21
-37.73156524340652
 72
     1
 10
169.7205801732095
 20
-37.73156524340652
 11
-95.28446908070742
 21
-37.73156524340652
 72
     1
 10
-95.28446908070739
 20
-37.73156524340652
 11
-94.93850948638066
 21
-37.38560564908041
 72
     1
 10
-94.93850948638066
 20
-37.38560564908041
 11
169.374620578884
 21
-37.38560564908041
 97
        1
330
152
 75
     2
 76
     1
 98
        1
 10
0.0
 20
0.0
450
        0
451
        0
460
0.0
461
0.0
452
        0
462
0.0
453
        0
470

  0
LWPOLYLINE
  5
154
330
70
100
AcDbEntity
  8
ASHADE
100
AcDbPolyline
 90
        4
 70
     1
 43
0.0
 10
-95.28446908070739
 20
-37.73156524340652
 10
-94.93850948638066
 20
-37.38560564908041
 10
-94.93850948638066
 20
142.5133834005762
 10
-95.28446908070739
 20
142.8593429949023
  0
HATCH
  5
155
330
70
100
AcDbEntity
  8
ASHADE
 62
    18
420
        0
440
 33554687
100
AcDbHatch
 10
0.0
 20
0.0
 30
0.0
210
0.0
220
0.0
230
1.0
  2
SOLID
 70
     1
 71
     1
 91
        1
 92
        1
 93
        4
 72
     1
 10
-95.28446908070739
 20
-37.73156524340652
 11
-94.93850948638066
 21
-37.38560564908041
 72
     1
 10
-94.93850948638066
 20
-37.38560564908041
 11
-94.93850948638066
 21
142.5133834005762
 72
     1
 10
-94.93850948638066
 20
142.5133834005762
 11
-95.28446908070739
 21
142.8593429949023
 72
     1
 10
-95.28446908070739
 20
142.8593429949023
 11
-95.28446908070739
 21
-37.73156524340652
 97
        1
330
154
 75
     2
 76
     1
 98
        1
 10
0.0
 20
0.0
450
        0
451
        0
460
0.0
461
0.0
452
        0
462
0.0
453
        0
470

  0
LINE
  5
156
330
70
100
AcDbEntity
  8
ASHADE
 62
    18
420
        0
370
    18
100
AcDbLine
 10
169.374620578884
 20
-12.4765148575896
 30
0.0
 11
169.374620578884
 21
-37.38560564908041
 31
0.0
  0
MTEXT
  5
157
330
70
100
AcDbEntity
  8
ASHADE
100
AcDbMText
 10
170.6349011312508
 20
-16.45505045373468
 30
0.0
 40
0.2
 41
0.0
 46
0.0
 71
     7
 72
     1
  1
\C18;\c0;\FMyriad Pro|b0|i0|c1;\H3.113636;\W1.000000;A
 73
     1
 44
1.0
  0
MTEXT
  5
158
330
70
100
AcDbEntity
  8
ASHADE
100
AcDbMText
 10
170.3383645373579
 20
118.469189932134
 30
0.0
 40
0.2
 41
0.0
 46
0.0
 71
     7
 72
     1
  1
\C18;\c0;\FMyriad Pro|b0|i0|c1;\H3.113636;\W1.000000;D
 73
     1
 44
1.0
  0
MTEXT
  5
159
330
70
100
AcDbEntity
  8
ASHADE
100
AcDbMText
 10
-46.86248193205066
 20
143.5512614421124
 30
0.0
 40
0.2
 41
0.0
 46
0.0
 71
     7
 72
     1
  1
\C18;\c0;\FMyriad Pro|b0|i0|c1;\H3.113636;\W1.000000;7
 73
     1
 44
1.0
  0
MTEXT
  5
15A
330
70
100
AcDbEntity
  8
ASHADE
100
AcDbMText
 10
-79.90162050580856
 20
143.6629471313748
 30
0.0
 40
0.2
 41
0.0
 46
0.0
 71
     7
 72
     1
  1
\C18;\c0;\FMyriad Pro|b0|i0|c1;\H3.113636;\W1.000000;8
 73
     1
 44
1.0
  0
LINE
  5
15B
330
70
100
AcDbEntity
  8
ASHADE
 62
    18
420
        0
370
    18
100
AcDbLine
 10
-62.07234802538643
 20
144.9351005608597
 30
0.0
 11
-61.72638843105968
 21
144.9351005608597
 31
0.0
  0
LWPOLYLINE
  5
15C
330
70
100
AcDbEntity
  8
ASHADE
100
AcDbPolyline
 90
        4
 70
     1
 43
0.0
 10
-61.72638843105968
 20
142.8593429949023
 10
-62.07234802538643
 20
142.8593429949023
 10
-62.07234802538643
 20
144.9351005608597
 10
-61.72638843105968
 20
144.9351005608597
  0
HATCH
  5
15D
330
70
100
AcDbEntity
  8
ASHADE
 62
    18
420
        0
440
 33554687
100
AcDbHatch
 10
0.0
 20
0.0
 30
0.0
210
0.0
220
0.0
230
1.0
  2
SOLID
 70
     1
 71
     1
 91
        1
 92
        1
 93
        4
 72
     1
 10
-61.72638843105968
 20
142.8593429949023
 11
-62.07234802538643
 21
142.8593429949023
 72
     1
 10
-62.07234802538643
 20
142.8593429949023
 11
-62.07234802538643
 21
144.9351005608597
 72
     1
 10
-62.07234802538643
 20
144.9351005608597
 11
-61.72638843105968
 21
144.9351005608597
 72
     1
 10
-61.72638843105968
 20
144.9351005608597
 11
-61.72638843105968
 21
142.8593429949023
 97
        1
330
15C
 75
     2
 76
     1
 98
        1
 10
0.0
 20
0.0
450
        0
451
        0
460
0.0
461
0.0
452
        0
462
0.0
453
        0
470

  0
LINE
  5
15E
330
70
100
AcDbEntity
  8
ASHADE
 62
    18
420
        0
370
    18
100
AcDbLine
 10
-61.72638843105968
 20
144.9351005608597
 30
0.0
 11
-61.72638843105968
 21
142.8593429949023
 31
0.0
  0
LINE
  5
15F
330
70
100
AcDbEntity
  8
ASHADE
 62
    18
420
        0
370
    18
100
AcDbLine
 10
-62.07234802538643
 20
144.9351005608597
 30
0.0
 11
-62.07234802538643
 21
142.8593429949023
 31
0.0
  0
LINE
  5
160
330
70
100
AcDbEntity
  8
ASHADE
 62
    18
420
        0
370
    18
100
AcDbLine
 10
-29.03320676722722
 20
144.9351005608597
 30
0.0
 11
-29.03320676722722
 21
142.8593429949023
 31
0.0
  0
LINE
  5
161
330
70
100
AcDbEntity
  8
ASHADE
 62
    18
420
        0
370
    18
100
AcDbLine
 10
-28.68724717290175
 20
144.9351005608597
 30
0.0
 11
-28.68724717290175
 21
142.8593429949023
 31
0.0
  0
LWPOLYLINE
  5
162
330
70
100
AcDbEntity
  8
ASHADE
100
AcDbPolyline
 90
        4
 70
     1
 43
0.0
 10
-28.68724717290175
 20
142.8593429949023
 10
-29.03320676722722
 20
142.8593429949023
 10
-29.03320676722722
 20
144.9351005608597
 10
-28.68724717290175
 20
144.9351005608597
  0
HATCH
  5
163
330
70
100
AcDbEntity
  8
ASHADE
 62
    18
420
        0
440
 33554687
100
AcDbHatch
 10
0.0
 20
0.0
 30
0.0
210
0.0
220
0.0
230
1.0
  2
SOLID
 70
     1
 71
     1
 91
        1
 92
        1
 93
        4
 72
     1
 10
-28.68724717290175
 20
142.8593429949023
 11
-29.03320676722722
 21
142.8593429949023
 72
     1
 10
-29.03320676722722
 20
142.8593429949023
 11
-29.03320676722722
 21
144.9351005608597
 72
     1
 10
-29.03320676722722
 20
144.9351005608597
 11
-28.68724717290175
 21
144.9351005608597
 72
     1
 10
-28.68724717290175
 20
144.9351005608597
 11
-28.68724717290175
 21
142.8593429949023
 97
        1
330
162
 75
     2
 76
     1
 98
        1
 10
0.0
 20
0.0
450
        0
451
        0
460
0.0
461
0.0
452
        0
462
0.0
453
        0
470

  0
LINE
  5
164
330
70
100
AcDbEntity
  8
ASHADE
 62
    18
420
        0
370
    18
100
AcDbLine
 10
-29.03320676722722
 20
144.9351005608597
 30
0.0
 11
-28.68724717290175
 21
144.9351005608597
 31
0.0
  0
MTEXT
  5
165
330
70
100
AcDbEntity
  8
ASHADE
100
AcDbMText
 10
-13.89747481528512
 20
143.4521072876775
 30
0.0
 40
0.2
 41
0.0
 46
0.0
 71
     7
 72
     1
  1
\C18;\c0;\FMyriad Pro|b0|i0|c1;\H3.113636;\W1.000000;6
 73
     1
 44
1.0
  0
LWPOLYLINE
  5
166
330
70
100
AcDbEntity
  8
ASHADE
100
AcDbPolyline
 90
        4
 70
     1
 43
0.0
 10
4.351894085256175
 20
142.9927482904512
 10
4.005934490929744
 20
142.9927482904512
 10
4.005934490929744
 20
145.0685058564085
 10
4.351894085256175
 20
145.0685058564085
  0
HATCH
  5
167
330
70
100
AcDbEntity
  8
ASHADE
 62
    18
420
        0
440
 33554687
100
AcDbHatch
 10
0.0
 20
0.0
 30
0.0
210
0.0
220
0.0
230
1.0
  2
SOLID
 70
     1
 71
     1
 91
        1
 92
        1
 93
        4
 72
     1
 10
4.351894085256175
 20
142.9927482904512
 11
4.005934490929744
 21
142.9927482904512
 72
     1
 10
4.005934490929744
 20
142.9927482904512
 11
4.005934490929744
 21
145.0685058564085
 72
     1
 10
4.005934490929744
 20
145.0685058564085
 11
4.351894085256175
 21
145.0685058564085
 72
     1
 10
4.351894085256175
 20
145.0685058564085
 11
4.351894085256175
 21
142.9927482904512
 97
        1
330
166
 75
     2
 76
     1
 98
        1
 10
0.0
 20
0.0
450
        0
451
        0
460
0.0
461
0.0
452
        0
462
0.0
453
        0
470

  0
LINE
  5
168
330
70
100
AcDbEntity
  8
ASHADE
 62
    18
420
        0
370
    18
100
AcDbLine
 10
4.351894085256175
 20
145.0685058564085
 30
0.0
 11
4.351894085256175
 21
142.9927482904512
 31
0.0
  0
LINE
  5
169
330
70
100
AcDbEntity
  8
ASHADE
 62
    18
420
        0
370
    18
100
AcDbLine
 10
4.005934490929744
 20
145.0685058564085
 30
0.0
 11
4.005934490929744
 21
142.9927482904512
 31
0.0
  0
LINE
  5
16A
330
70
100
AcDbEntity
  8
ASHADE
 62
    18
420
        0
370
    18
100
AcDbLine
 10
4.005934490929744
 20
145.0685058564085
 30
0.0
 11
4.351894085256175
 21
145.0685058564085
 31
0.0
  0
MTEXT
  5
16B
330
70
100
AcDbEntity
  8
ASHADE
100
AcDbMText
 10
19.21580059842684
 20
143.83940061576
 30
0.0
 40
0.2
 41
0.0
 46
0.0
 71
     7
 72
     1
  1
\C18;\c0;\FMyriad Pro|b0|i0|c1;\H3.113636;\W1.000000;5
 73
     1
 44
1.0
  0
LINE
  5
16C
330
70
100
AcDbEntity
  8
ASHADE
 62
    18
420
        0
370
    18
100
AcDbLine
 10
37.04507574908799
 20
144.9351005608597
 30
0.0
 11
37.04507574908799
 21
142.8593429949023
 31
0.0
  0
LINE
  5
16D
330
70
100
AcDbEntity
  8
ASHADE
 62
    18
420
        0
370
    18
100
AcDbLine
 10
37.39103534341474
 20
144.9351005608597
 30
0.0
 11
37.39103534341474
 21
142.8593429949023
 31
0.0
  0
LWPOLYLINE
  5
16E
330
70
100
AcDbEntity
  8
ASHADE
100
AcDbPolyline
 90
        4
 70
     1
 43
0.0
 10
37.39103534341474
 20
142.8593429949023
 10
37.04507574908799
 20
142.8593429949023
 10
37.04507574908799
 20
144.9351005608597
 10
37.39103534341474
 20
144.9351005608597
  0
HATCH
  5
16F
330
70
100
AcDbEntity
  8
ASHADE
 62
    18
420
        0
440
 33554687
100
AcDbHatch
 10
0.0
 20
0.0
 30
0.0
210
0.0
220
0.0
230
1.0
  2
SOLID
 70
     1
 71
     1
 91
        1
 92
        1
 93
        4
 72
     1
 10
37.39103534341474
 20
142.8593429949023
 11
37.04507574908799
 21
142.8593429949023
 72
     1
 10
37.04507574908799
 20
142.8593429949023
 11
37.04507574908799
 21
144.9351005608597
 72
     1
 10
37.04507574908799
 20
144.9351005608597
 11
37.39103534341474
 21
144.9351005608597
 72
     1
 10
37.39103534341474
 20
144.9351005608597
 11
37.39103534341474
 21
142.8593429949023
 97
        1
330
16E
 75
     2
 76
     1
 98
        1
 10
0.0
 20
0.0
450
        0
451
        0
460
0.0
461
0.0
452
        0
462
0.0
453
        0
470

  0
LINE
  5
170
330
70
100
AcDbEntity
  8
ASHADE
 62
    18
420
        0
370
    18
100
AcDbLine
 10
37.04507574908799
 20
144.9351005608597
 30
0.0
 11
37.39103534341474
 21
144.9351005608597
 31
0.0
  0
LWPOLYLINE
  5
171
330
70
100
AcDbEntity
  8
ASHADE
100
AcDbPolyline
 90
        4
 70
     1
 43
0.0
 10
136.5084591178888
 20
142.8593429949023
 10
136.162499523562
 20
142.8593429949023
 10
136.162499523562
 20
144.9351005608597
 10
136.5084591178888
 20
144.9351005608597
  0
HATCH
  5
172
330
70
100
AcDbEntity
  8
ASHADE
 62
    18
420
        0
440
 33554687
100
AcDbHatch
 10
0.0
 20
0.0
 30
0.0
210
0.0
220
0.0
230
1.0
  2
SOLID
 70
     1
 71
     1
 91
        1
 92
        1
 93
        4
 72
     1
 10
136.5084591178888
 20
142.8593429949023
 11
136.162499523562
 21
142.8593429949023
 72
     1
 10
136.162499523562
 20
142.8593429949023
 11
136.162499523562
 21
144.9351005608597
 72
     1
 10
136.162499523562
 20
144.9351005608597
 11
136.5084591178888
 21
144.9351005608597
 72
     1
 10
136.5084591178888
 20
144.9351005608597
 11
136.5084591178888
 21
142.8593429949023
 97
        1
330
171
 75
     2
 76
     1
 98
        1
 10
0.0
 20
0.0
450
        0
451
        0
460
0.0
461
0.0
452
        0
462
0.0
453
        0
470

  0
LINE
  5
173
330
70
100
AcDbEntity
  8
ASHADE
 62
    18
420
        0
370
    18
100
AcDbLine
 10
136.162499523562
 20
144.9351005608597
 30
0.0
 11
136.5084591178888
 21
144.9351005608597
 31
0.0
  0
MTEXT
  5
174
330
70
100
AcDbEntity
  8
ASHADE
100
AcDbMText
 10
52.18081040667322
 20
143.5512614421124
 30
0.0
 40
0.2
 41
0.0
 46
0.0
 71
     7
 72
     1
  1
\C18;\c0;\FMyriad Pro|b0|i0|c1;\H3.113636;\W1.000000;4
 73
     1
 44
1.0
  0
LINE
  5
175
330
70
100
AcDbEntity
  8
ASHADE
 62
    18
420
        0
370
    18
100
AcDbLine
 10
70.08421700724558
 20
144.9351005608597
 30
0.0
 11
70.43017660157234
 21
144.9351005608597
 31
0.0
  0
LWPOLYLINE
  5
176
330
70
100
AcDbEntity
  8
ASHADE
100
AcDbPolyline
 90
        4
 70
     1
 43
0.0
 10
70.43017660157234
 20
142.8593429949023
 10
70.08421700724558
 20
142.8593429949023
 10
70.08421700724558
 20
144.9351005608597
 10
70.43017660157234
 20
144.9351005608597
  0
HATCH
  5
177
330
70
100
AcDbEntity
  8
ASHADE
 62
    18
420
        0
440
 33554687
100
AcDbHatch
 10
0.0
 20
0.0
 30
0.0
210
0.0
220
0.0
230
1.0
  2
SOLID
 70
     1
 71
     1
 91
        1
 92
        1
 93
        4
 72
     1
 10
70.43017660157234
 20
142.8593429949023
 11
70.08421700724558
 21
142.8593429949023
 72
     1
 10
70.08421700724558
 20
142.8593429949023
 11
70.08421700724558
 21
144.9351005608597
 72
     1
 10
70.08421700724558
 20
144.9351005608597
 11
70.43017660157234
 21
144.9351005608597
 72
     1
 10
70.43017660157234
 20
144.9351005608597
 11
70.43017660157234
 21
142.8593429949023
 97
        1
330
176
 75
     2
 76
     1
 98
        1
 10
0.0
 20
0.0
450
        0
451
        0
460
0.0
461
0.0
452
        0
462
0.0
453
        0
470

  0
LINE
  5
178
330
70
100
AcDbEntity
  8
ASHADE
 62
    18
420
        0
370
    18
100
AcDbLine
 10
70.43017660157234
 20
144.9351005608597
 30
0.0
 11
70.43017660157234
 21
142.8593429949023
 31
0.0
  0
LINE
  5
179
330
70
100
AcDbEntity
  8
ASHADE
 62
    18
420
        0
370
    18
100
AcDbLine
 10
70.08421700724558
 20
144.9351005608597
 30
0.0
 11
70.08421700724558
 21
142.8593429949023
 31
0.0
  0
MTEXT
  5
17A
330
70
100
AcDbEntity
  8
ASHADE
100
AcDbMText
 10
85.29408312890435
 20
143.5430901062583
 30
0.0
 40
0.2
 41
0.0
 46
0.0
 71
     7
 72
     1
  1
\C18;\c0;\FMyriad Pro|b0|i0|c1;\H3.113636;\W1.000000;3
 73
     1
 44
1.0
  0
MTEXT
  5
17B
330
70
100
AcDbEntity
  8
ASHADE
100
AcDbMText
 10
118.3332270856239
 20
143.5457385234126
 30
0.0
 40
0.2
 41
0.0
 46
0.0
 71
     7
 72
     1
  1
\C18;\c0;\FMyriad Pro|b0|i0|c1;\H3.113636;\W1.000000;2
 73
     1
 44
1.0
  0
LINE
  5
17C
330
70
100
AcDbEntity
  8
ASHADE
 62
    18
420
        0
370
    18
100
AcDbLine
 10
136.162499523562
 20
144.9351005608597
 30
0.0
 11
136.162499523562
 21
142.8593429949023
 31
0.0
  0
LINE
  5
17D
330
70
100
AcDbEntity
  8
ASHADE
 62
    18
420
        0
370
    18
100
AcDbLine
 10
136.5084591178888
 20
144.9351005608597
 30
0.0
 11
136.5084591178888
 21
142.8593429949023
 31
0.0
  0
MTEXT
  5
17E
330
70
100
AcDbEntity
  8
ASHADE
100
AcDbMText
 10
151.5947734877632
 20
143.6846727647787
 30
0.0
 40
0.2
 41
0.0
 46
0.0
 71
     7
 72
     1
  1
\C18;\c0;\FMyriad Pro|b0|i0|c1;\H3.113636;\W1.000000;1
 73
     1
 44
1.0
  0
LINE
  5
17F
330
70
100
AcDbEntity
  8
ASHADE
 62
    18
420
        0
370
    18
100
AcDbLine
 10
-94.93850948638066
 20
-37.38560564908041
 30
0.0
 11
-12.60012603673058
 21
-37.38560564908041
 31
0.0
  0
LINE
  5
180
330
70
100
AcDbEntity
  8
ASHADE
 62
    18
420
        0
370
    18
100
AcDbLine
 10
-94.93850948638066
 20
-16.62802998950484
 30
0.0
 11
-94.93850948638066
 21
-37.38560564908041
 31
0.0
  0
LWPOLYLINE
  5
181
330
70
100
AcDbEntity
  8
ASHADE
100
AcDbPolyline
 90
        4
 70
     1
 43
0.0
 10
-97.36022664666471
 20
7.762121410496808
 10
-97.36022664666471
 20
7.416161816170698
 10
-95.28446908070739
 20
7.416161816170698
 10
-95.28446908070739
 20
7.762121410496808
  0
HATCH
  5
182
330
70
100
AcDbEntity
  8
ASHADE
 62
    18
420
        0
440
 33554687
100
AcDbHatch
 10
0.0
 20
0.0
 30
0.0
210
0.0
220
0.0
230
1.0
  2
SOLID
 70
     1
 71
     1
 91
        1
 92
        1
 93
        4
 72
     1
 10
-97.36022664666471
 20
7.762121410496808
 11
-97.36022664666471
 21
7.416161816170698
 72
     1
 10
-97.36022664666471
 20
7.416161816170698
 11
-95.28446908070739
 21
7.416161816170698
 72
     1
 10
-95.28446908070739
 20
7.416161816170698
 11
-95.28446908070739
 21
7.762121410496808
 72
     1
 10
-95.28446908070739
 20
7.762121410496808
 11
-97.36022664666471
 21
7.762121410496808
 97
        1
330
181
 75
     2
 76
     1
 98
        1
 10
0.0
 20
0.0
450
        0
451
        0
460
0.0
461
0.0
452
        0
462
0.0
453
        0
470

  0
LINE
  5
183
330
70
100
AcDbEntity
  8
ASHADE
 62
    18
420
        0
370
    18
100
AcDbLine
 10
-95.28446908070739
 20
7.416161816170698
 30
0.0
 11
-97.36022664666471
 21
7.416161816170698
 31
0.0
  0
LINE
  5
184
330
70
100
AcDbEntity
  8
ASHADE
 62
    18
420
        0
370
    18
100
AcDbLine
 10
-95.28446908070739
 20
7.762121410496808
 30
0.0
 11
-97.36022664666471
 21
7.762121410496808
 31
0.0
  0
MTEXT
  5
185
330
70
100
AcDbEntity
  8
ASHADE
100
AcDbMText
 10
-99.02577079840437
 20
28.51969813587545
 30
0.0
 40
0.2
 41
0.0
 46
0.0
 71
     7
 72
     1
  1
\C18;\c0;\FMyriad Pro|b0|i0|c1;\H3.113636;\W1.000000;B
 73
     1
 44
1.0
  0
LWPOLYLINE
  5
186
330
70
100
AcDbEntity
  8
ASHADE
100
AcDbPolyline
 90
        4
 70
     1
 43
0.0
 10
-97.36022664666471
 20
52.73686867291097
 10
-97.36022664666471
 20
52.39090907858454
 10
-95.28446908070739
 20
52.39090907858454
 10
-95.28446908070739
 20
52.73686867291097
  0
HATCH
  5
187
330
70
100
AcDbEntity
  8
ASHADE
 62
    18
420
        0
440
 33554687
100
AcDbHatch
 10
0.0
 20
0.0
 30
0.0
210
0.0
220
0.0
230
1.0
  2
SOLID
 70
     1
 71
     1
 91
        1
 92
        1
 93
        4
 72
     1
 10
-97.36022664666471
 20
52.73686867291097
 11
-97.36022664666471
 21
52.39090907858454
 72
     1
 10
-97.36022664666471
 20
52.39090907858454
 11
-95.28446908070739
 21
52.39090907858454
 72
     1
 10
-95.28446908070739
 20
52.39090907858454
 11
-95.28446908070739
 21
52.73686867291097
 72
     1
 10
-95.28446908070739
 20
52.73686867291097
 11
-97.36022664666471
 21
52.73686867291097
 97
        1
330
186
 75
     2
 76
     1
 98
        1
 10
0.0
 20
0.0
450
        0
451
        0
460
0.0
461
0.0
452
        0
462
0.0
453
        0
470

  0
LINE
  5
188
330
70
100
AcDbEntity
  8
ASHADE
 62
    18
420
        0
370
    18
100
AcDbLine
 10
-95.28446908070739
 20
52.39090907858454
 30
0.0
 11
-97.36022664666471
 21
52.39090907858454
 31
0.0
  0
LINE
  5
189
330
70
100
AcDbEntity
  8
ASHADE
 62
    18
420
        0
370
    18
100
AcDbLine
 10
-95.28446908070739
 20
52.73686867291097
 30
0.0
 11
-97.36022664666471
 21
52.73686867291097
 31
0.0
  0
MTEXT
  5
18A
330
70
100
AcDbEntity
  8
ASHADE
100
AcDbMText
 10
-99.04970344610347
 20
73.4944426882643
 30
0.0
 40
0.2
 41
0.0
 46
0.0
 71
     7
 72
     1
  1
\C18;\c0;\FMyriad Pro|b0|i0|c1;\H3.113636;\W1.000000;C
 73
     1
 44
1.0
  0
LWPOLYLINE
  5
18B
330
70
100
AcDbEntity
  8
ASHADE
100
AcDbPolyline
 90
        4
 70
     1
 43
0.0
 10
-97.36022664666471
 20
97.71161593532482
 10
-97.36022664666471
 20
97.36565634099871
 10
-95.28446908070739
 20
97.36565634099871
 10
-95.28446908070739
 20
97.71161593532482
  0
HATCH
  5
18C
330
70
100
AcDbEntity
  8
ASHADE
 62
    18
420
        0
440
 33554687
100
AcDbHatch
 10
0.0
 20
0.0
 30
0.0
210
0.0
220
0.0
230
1.0
  2
SOLID
 70
     1
 71
     1
 91
        1
 92
        1
 93
        4
 72
     1
 10
-97.36022664666471
 20
97.71161593532482
 11
-97.36022664666471
 21
97.36565634099871
 72
     1
 10
-97.36022664666471
 20
97.36565634099871
 11
-95.28446908070739
 21
97.36565634099871
 72
     1
 10
-95.28446908070739
 20
97.36565634099871
 11
-95.28446908070739
 21
97.71161593532482
 72
     1
 10
-95.28446908070739
 20
97.71161593532482
 11
-97.36022664666471
 21
97.71161593532482
 97
        1
330
18B
 75
     2
 76
     1
 98
        1
 10
0.0
 20
0.0
450
        0
451
        0
460
0.0
461
0.0
452
        0
462
0.0
453
        0
470

  0
LINE
  5
18D
330
70
100
AcDbEntity
  8
ASHADE
 62
    18
420
        0
370
    18
100
AcDbLine
 10
-95.28446908070739
 20
97.36565634099871
 30
0.0
 11
-97.36022664666471
 21
97.36565634099871
 31
0.0
  0
LINE
  5
18E
330
70
100
AcDbEntity
  8
ASHADE
 62
    18
420
        0
370
    18
100
AcDbLine
 10
-95.28446908070739
 20
97.71161593532482
 30
0.0
 11
-97.36022664666471
 21
97.71161593532482
 31
0.0
  0
MTEXT
  5
18F
330
70
100
AcDbEntity
  8
ASHADE
100
AcDbMText
 10
-99.02577079840437
 20
118.469189932134
 30
0.0
 40
0.2
 41
0.0
 46
0.0
 71
     7
 72
     1
  1
\C18;\c0;\FMyriad Pro|b0|i0|c1;\H3.113636;\W1.000000;D
 73
     1
 44
1.0
  0
LINE
  5
190
330
70
100
AcDbEntity
  8
ASHADE
 62
    18
420
        0
370
    18
100
AcDbLine
 10
169.7205801732095
 20
7.762121410496808
 30
0.0
 11
171.7963377391674
 21
7.762121410496808
 31
0.0
  0
LINE
  5
191
330
70
100
AcDbEntity
  8
ASHADE
 62
    18
420
        0
370
    18
100
AcDbLine
 10
169.7205801732095
 20
7.416161816170698
 30
0.0
 11
171.7963377391674
 21
7.416161816170698
 31
0.0
  0
LWPOLYLINE
  5
192
330
70
100
AcDbEntity
  8
ASHADE
100
AcDbPolyline
 90
        4
 70
     1
 43
0.0
 10
171.7963377391674
 20
7.762121410496808
 10
171.7963377391674
 20
7.416161816170698
 10
169.7205801732095
 20
7.416161816170698
 10
169.7205801732095
 20
7.762121410496808
  0
HATCH
  5
193
330
70
100
AcDbEntity
  8
ASHADE
 62
    18
420
        0
440
 33554687
100
AcDbHatch
 10
0.0
 20
0.0
 30
0.0
210
0.0
220
0.0
230
1.0
  2
SOLID
 70
     1
 71
     1
 91
        1
 92
        1
 93
        4
 72
     1
 10
171.7963377391674
 20
7.762121410496808
 11
171.7963377391674
 21
7.416161816170698
 72
     1
 10
171.7963377391674
 20
7.416161816170698
 11
169.7205801732095
 21
7.416161816170698
 72
     1
 10
169.7205801732095
 20
7.416161816170698
 11
169.7205801732095
 21
7.762121410496808
 72
     1
 10
169.7205801732095
 20
7.762121410496808
 11
171.7963377391674
 21
7.762121410496808
 97
        1
330
192
 75
     2
 76
     1
 98
        1
 10
0.0
 20
0.0
450
        0
451
        0
460
0.0
461
0.0
452
        0
462
0.0
453
        0
470

  0
MTEXT
  5
194
330
70
100
AcDbEntity
  8
ASHADE
100
AcDbMText
 10
170.3383645373579
 20
28.51969813587545
 30
0.0
 40
0.2
 41
0.0
 46
0.0
 71
     7
 72
     1
  1
\C18;\c0;\FMyriad Pro|b0|i0|c1;\H3.113636;\W1.000000;B
 73
     1
 44
1.0
  0
LWPOLYLINE
  5
195
330
70
100
AcDbEntity
  8
ASHADE
100
AcDbPolyline
 90
        4
 70
     1
 43
0.0
 10
171.7963377391674
 20
52.73686867291097
 10
171.7963377391674
 20
52.39090907858454
 10
169.7205801732095
 20
52.39090907858454
 10
169.7205801732095
 20
52.73686867291097
  0
HATCH
  5
196
330
70
100
AcDbEntity
  8
ASHADE
 62
    18
420
        0
440
 33554687
100
AcDbHatch
 10
0.0
 20
0.0
 30
0.0
210
0.0
220
0.0
230
1.0
  2
SOLID
 70
     1
 71
     1
 91
        1
 92
        1
 93
        4
 72
     1
 10
171.7963377391674
 20
52.73686867291097
 11
171.7963377391674
 21
52.39090907858454
 72
     1
 10
171.7963377391674
 20
52.39090907858454
 11
169.7205801732095
 21
52.39090907858454
 72
     1
 10
169.7205801732095
 20
52.39090907858454
 11
169.7205801732095
 21
52.73686867291097
 72
     1
 10
169.7205801732095
 20
52.73686867291097
 11
171.7963377391674
 21
52.73686867291097
 97
        1
330
195
 75
     2
 76
     1
 98
        1
 10
0.0
 20
0.0
450
        0
451
        0
460
0.0
461
0.0
452
        0
462
0.0
453
        0
470

  0
LINE
  5
197
330
70
100
AcDbEntity
  8
ASHADE
 62
    18
420
        0
370
    18
100
AcDbLine
 10
169.7205801732095
 20
52.39090907858454
 30
0.0
 11
171.7963377391674
 21
52.39090907858454
 31
0.0
  0
LINE
  5
198
330
70
100
AcDbEntity
  8
ASHADE
 62
    18
420
        0
370
    18
100
AcDbLine
 10
169.7205801732095
 20
52.73686867291097
 30
0.0
 11
171.7963377391674
 21
52.73686867291097
 31
0.0
  0
MTEXT
  5
199
330
70
100
AcDbEntity
  8
ASHADE
100
AcDbMText
 10
170.4124986858311
 20
73.4944426882643
 30
0.0
 40
0.2
 41
0.0
 46
0.0
 71
     7
 72
     1
  1
\C18;\c0;\FMyriad Pro|b0|i0|c1;\H3.113636;\W1.000000;C
 73
     1
 44
1.0
  0
LINE
  5
19A
330
70
100
AcDbEntity
  8
ASHADE
 62
    18
420
        0
370
    18
100
AcDbLine
 10
169.7205801732095
 20
97.71161593532482
 30
0.0
 11
171.7963377391674
 21
97.71161593532482
 31
0.0
  0
LINE
  5
19B
330
70
100
AcDbEntity
  8
ASHADE
 62
    18
420
        0
370
    18
100
AcDbLine
 10
169.7205801732095
 20
97.36565634099871
 30
0.0
 11
171.7963377391674
 21
97.36565634099871
 31
0.0
  0
LWPOLYLINE
  5
19C
330
70
100
AcDbEntity
  8
ASHADE
100
AcDbPolyline
 90
        4
 70
     1
 43
0.0
 10
171.7963377391674
 20
97.71161593532482
 10
171.7963377391674
 20
97.36565634099871
 10
169.7205801732095
 20
97.36565634099871
 10
169.7205801732095
 20
97.71161593532482
  0
HATCH
  5
19D
330
70
100
AcDbEntity
  8
ASHADE
 62
    18
420
        0
440
 33554687
100
AcDbHatch
 10
0.0
 20
0.0
 30
0.0
210
0.0
220
0.0
230
1.0
  2
SOLID
 70
     1
 71
     1
 91
        1
 92
        1
 93
        4
 72
     1
 10
171.7963377391674
 20
97.71161593532482
 11
171.7963377391674
 21
97.36565634099871
 72
     1
 10
171.7963377391674
 20
97.36565634099871
 11
169.7205801732095
 21
97.36565634099871
 72
     1
 10
169.7205801732095
 20
97.36565634099871
 11
169.7205801732095
 21
97.71161593532482
 72
     1
 10
169.7205801732095
 20
97.71161593532482
 11
171.7963377391674
 21
97.71161593532482
 97
        1
330
19C
 75
     2
 76
     1
 98
        1
 10
0.0
 20
0.0
450
        0
451
        0
460
0.0
461
0.0
452
        0
462
0.0
453
        0
470

  0
MTEXT
  5
19E
330
70
100
AcDbEntity
  8
ASHADE
100
AcDbMText
 10
170.3383645373579
 20
118.469189932134
 30
0.0
 40
0.2
 41
0.0
 46
0.0
 71
     7
 72
     1
  1
\C18;\c0;\FMyriad Pro|b0|i0|c1;\H3.113636;\W1.000000;D
 73
     1
 44
1.0
  0
LINE
  5
19F
330
70
100
AcDbEntity
  8
ASHADE
 62
    18
420
        0
370
    18
100
AcDbLine
 10
103.2963380625669
 20
144.9351005608597
 30
0.0
 11
103.6422976568936
 21
144.9351005608597
 31
0.0
  0
LWPOLYLINE
  5
1A0
330
70
100
AcDbEntity
  8
ASHADE
100
AcDbPolyline
 90
        4
 70
     1
 43
0.0
 10
103.6422976568936
 20
142.8593429949023
 10
103.2963380625669
 20
142.8593429949023
 10
103.2963380625669
 20
144.9351005608597
 10
103.6422976568936
 20
144.9351005608597
  0
HATCH
  5
1A1
330
70
100
AcDbEntity
  8
ASHADE
 62
    18
420
        0
440
 33554687
100
AcDbHatch
 10
0.0
 20
0.0
 30
0.0
210
0.0
220
0.0
230
1.0
  2
SOLID
 70
     1
 71
     1
 91
        1
 92
        1
 93
        4
 72
     1
 10
103.6422976568936
 20
142.8593429949023
 11
103.2963380625669
 21
142.8593429949023
 72
     1
 10
103.2963380625669
 20
142.8593429949023
 11
103.2963380625669
 21
144.9351005608597
 72
     1
 10
103.2963380625669
 20
144.9351005608597
 11
103.6422976568936
 21
144.9351005608597
 72
     1
 10
103.6422976568936
 20
144.9351005608597
 11
103.6422976568936
 21
142.8593429949023
 97
        1
330
1A0
 75
     2
 76
     1
 98
        1
 10
0.0
 20
0.0
450
        0
451
        0
460
0.0
461
0.0
452
        0
462
0.0
453
        0
470

  0
LINE
  5
1A2
330
70
100
AcDbEntity
  8
ASHADE
 62
    18
420
        0
370
    18
100
AcDbLine
 10
103.6422976568936
 20
144.9351005608597
 30
0.0
 11
103.6422976568936
 21
142.8593429949023
 31
0.0
  0
LINE
  5
1A3
330
70
100
AcDbEntity
  8
ASHADE
 62
    18
420
        0
370
    18
100
AcDbLine
 10
103.2963380625669
 20
144.9351005608597
 30
0.0
 11
103.2963380625669
 21
142.8593429949023
 31
0.0
  0
ENDSEC
  0
SECTION
  2
OBJECTS
  0
DICTIONARY
  5
C
330
0
100
AcDbDictionary
281
     1
  3
ACAD_COLOR
350
63
  3
ACAD_DETAILVIEWSTYLE
350
6A
  3
ACAD_GROUP
350
D
  3
ACAD_LAYOUT
350
62
  3
ACAD_MATERIAL
350
10
  3
ACAD_MLEADERSTYLE
350
66
  3
ACAD_MLINESTYLE
350
5F
  3
ACAD_PLOTSETTINGS
350
61
  3
ACAD_PLOTSTYLENAME
350
E
  3
ACAD_SCALELIST
350
42
  3
ACAD_SECTIONVIEWSTYLE
350
68
  3
ACAD_TABLESTYLE
350
64
  3
ACAD_VISUALSTYLE
350
29
  3
ACDB_RECOMPOSE_DATA
350
1AE
  3
AcDbVariableDictionary
350
1A4
  0
DICTIONARY
  5
63
102
{ACAD_REACTORS
330
C
102
}
330
C
100
AcDbDictionary
281
     1
  0
DICTIONARY
  5
6A
102
{ACAD_REACTORS
330
C
102
}
330
C
100
AcDbDictionary
281
     1
  3
Imperial24
350
6B
  0
DICTIONARY
  5
D
102
{ACAD_REACTORS
330
C
102
}
330
C
100
AcDbDictionary
281
     1
  0
DICTIONARY
  5
62
102
{ACAD_REACTORS
330
C
102
}
330
C
100
AcDbDictionary
281
     1
  3
Layout1
350
6F
  3
Layout2
350
77
  3
Model
350
73
  0
DICTIONARY
  5
10
102
{ACAD_REACTORS
330
C
102
}
330
C
100
AcDbDictionary
281
     1
  3
ByBlock
350
19
  3
ByLayer
350
11
  3
Global
350
21
  0
DICTIONARY
  5
66
102
{ACAD_REACTORS
330
C
102
}
330
C
100
AcDbDictionary
281
     1
  3
Standard
350
67
  0
DICTIONARY
  5
5F
102
{ACAD_REACTORS
330
C
102
}
330
C
100
AcDbDictionary
281
     1
  3
Standard
350
60
  0
DICTIONARY
  5
61
102
{ACAD_REACTORS
330
C
102
}
330
C
100
AcDbDictionary
281
     1
  0
ACDBDICTIONARYWDFLT
  5
E
102
{ACAD_REACTORS
330
C
102
}
330
C
100
AcDbDictionary
281
     1
  3
Normal
350
F
100
AcDbDictionaryWithDefault
340
F
  0
DICTIONARY
  5
42
102
{ACAD_REACTORS
330
C
102
}
330
C
100
AcDbDictionary
281
     1
  3
A0
350
43
  3
A1
350
44
  3
A2
350
45
  3
A3
350
46
  3
A4
350
47
  3
A5
350
48
  3
A6
350
49
  3
A7
350
4A
  3
A8
350
4B
  3
A9
350
4C
  3
B0
350
4D
  3
B1
350
4E
  3
B2
350
4F
  3
B3
350
50
  3
B4
350
51
  3
B5
350
52
  3
B6
350
53
  0
DICTIONARY
  5
68
102
{ACAD_REACTORS
330
C
102
}
330
C
100
AcDbDictionary
281
     1
  3
Imperial24
350
69
  0
DICTIONARY
  5
64
102
{ACAD_REACTORS
330
C
102
}
330
C
100
AcDbDictionary
281
     1
  3
Standard
350
65
  0
DICTIONARY
  5
29
102
{ACAD_REACTORS
330
C
102
}
330
C
100
AcDbDictionary
281
     1
  3
2dWireframe
350
2F
  3
Basic
350
2E
  3
Brighten
350
35
  3
ColorChange
350
39
  3
Conceptual
350
32
  3
Dim
350
34
  3
EdgeColorOff
350
41
  3
Facepattern
350
38
  3
Flat
350
2A
  3
FlatWithEdges
350
2B
  3
Gouraud
350
2C
  3
GouraudWithEdges
350
2D
  3
Hidden
350
31
  3
JitterOff
350
3F
  3
Linepattern
350
37
  3
OverhangOff
350
40
  3
Realistic
350
33
  3
Shaded
350
3E
  3
Shaded with edges
350
3D
  3
Shades of Gray
350
3A
  3
Sketchy
350
3B
  3
Thicken
350
36
  3
Wireframe
350
30
  3
X-Ray
350
3C
  0
XRECORD
  5
1AE
102
{ACAD_REACTORS
330
C
102
}
330
C
100
AcDbXrecord
280
     1
 90
        1
330
65
  0
DICTIONARY
  5
1A4
102
{ACAD_REACTORS
330
C
102
}
330
C
100
AcDbDictionary
281
     1
  3
CANNOSCALE
350
1A9
  3
CMLEADERSTYLE
350
1A6
  3
CTABLESTYLE
350
1A5
  3
CVIEWDETAILSTYLE
350
1A7
  3
CVIEWSECTIONSTYLE
350
1A8
  0
ACDBDETAILVIEWSTYLE
  5
6B
102
{ACAD_XDICTIONARY
360
1E3
102
}
102
{ACAD_REACTORS
330
6A
102
}
330
6A
100
AcDbModelDocViewStyle
 70
     0
  3
Imperial24
290
     0
100
AcDbDetailViewStyle
 70
     0
 71
     0
 90
        3
 71
     1
340
55
 62
   256
 40
0.24
340
0
 62
   256
 40
0.24
300

 40
0.36
280
     3
 71
     2
340
5D
 90
       25
 62
   256
 71
     3
340
55
 62
   256
 40
0.24
 90
        1
 40
0.75
 90
        1
300
%<\AcVar ViewType \f "%tc1">% %<\AcVar ViewDetailId>%\PSCALE %<\AcVar ViewScale \f "%sn">%
 71
     4
340
5D
 90
       25
 62
   256
340
5D
 90
       25
 62
   256
280
     0
  0
LAYOUT
  5
6F
102
{ACAD_REACTORS
330
62
102
}
330
62
100
AcDbPlotSettings
  1

  2

  4

  6

 40
0.0
 41
0.0
 42
0.0
 43
0.0
 44
0.0
 45
0.0
 46
0.0
 47
0.0
 48
0.0
 49
0.0
140
0.0
141
0.0
142
1.0
143
1.0
 70
   688
 72
     0
 73
     0
 74
     5
  7

 75
    16
147
1.0
 76
     0
 77
     2
 78
   300
148
0.0
149
0.0
100
AcDbLayout
  1
Layout1
 70
     1
 71
     1
 10
0.0
 20
0.0
 11
12.0
 21
9.0
 12
0.0
 22
0.0
 32
0.0
 14
0.0
 24
0.0
 34
0.0
 15
0.0
 25
0.0
 35
0.0
146
0.0
 13
0.0
 23
0.0
 33
0.0
 16
1.0
 26
0.0
 36
0.0
 17
0.0
 27
1.0
 37
0.0
 76
     0
330
6C
  0
LAYOUT
  5
77
102
{ACAD_REACTORS
330
62
102
}
330
62
100
AcDbPlotSettings
  1

  2

  4

  6

 40
0.0
 41
0.0
 42
0.0
 43
0.0
 44
0.0
 45
0.0
 46
0.0
 47
0.0
 48
0.0
 49
0.0
140
0.0
141
0.0
142
1.0
143
1.0
 70
   688
 72
     0
 73
     0
 74
     5
  7

 75
    16
147
1.0
 76
     0
 77
     2
 78
   300
148
0.0
149
0.0
100
AcDbLayout
  1
Layout2
 70
     1
 71
     2
 10
0.0
 20
0.0
 11
12.0
 21
9.0
 12
0.0
 22
0.0
 32
0.0
 14
0.0
 24
0.0
 34
0.0
 15
0.0
 25
0.0
 35
0.0
146
0.0
 13
0.0
 23
0.0
 33
0.0
 16
1.0
 26
0.0
 36
0.0
 17
0.0
 27
1.0
 37
0.0
 76
     0
330
74
  0
LAYOUT
  5
73
102
{ACAD_REACTORS
330
62
102
}
330
62
100
AcDbPlotSettings
  1

  2

  4

  6

 40
0.0
 41
0.0
 42
0.0
 43
0.0
 44
0.0
 45
0.0
 46
0.0
 47
0.0
 48
0.0
 49
0.0
140
0.0
141
0.0
142
1.0
143
1.0
 70
  1712
 72
     0
 73
     0
 74
     0
  7

 75
     0
147
1.0
 76
     0
 77
     2
 78
   300
148
0.0
149
0.0
100
AcDbLayout
  1
Model
 70
     1
 71
     0
 10
0.0
 20
0.0
 11
12.0
 21
9.0
 12
0.0
 22
0.0
 32
0.0
 14
0.0
 24
0.0
 34
0.0
 15
0.0
 25
0.0
 35
0.0
146
0.0
 13
0.0
 23
0.0
 33
0.0
 16
1.0
 26
0.0
 36
0.0
 17
0.0
 27
1.0
 37
0.0
 76
     0
330
70
  0
MATERIAL
  5
19
102
{ACAD_XDICTIONARY
360
1A
102
}
102
{ACAD_REACTORS
330
10
102
}
330
10
100
AcDbMaterial
  1
ByBlock
 72
     0
 43
0.0208333333333333
 43
0.0
 43
0.0
 43
0.0
 43
0.0
 43
0.0208333333333333
 43
0.0
 43
0.0
 43
0.0
 43
0.0
 43
1.0
 43
0.0
 43
0.0
 43
0.0
 43
0.0
 43
1.0
 77
     0
 47
0.0208333333333333
 47
0.0
 47
0.0
 47
0.0
 47
0.0
 47
0.0208333333333333
 47
0.0
 47
0.0
 47
0.0
 47
0.0
 47
1.0
 47
0.0
 47
0.0
 47
0.0
 47
0.0
 47
1.0
171
     0
 49
0.0208333333333333
 49
0.0
 49
0.0
 49
0.0
 49
0.0
 49
0.0208333333333333
 49
0.0
 49
0.0
 49
0.0
 49
0.0
 49
1.0
 49
0.0
 49
0.0
 49
0.0
 49
0.0
 49
1.0
175
     0
142
0.0208333333333333
142
0.0
142
0.0
142
0.0
142
0.0
142
0.0208333333333333
142
0.0
142
0.0
142
0.0
142
0.0
142
1.0
142
0.0
142
0.0
142
0.0
142
0.0
142
1.0
179
     0
144
0.0208333333333333
144
0.0
144
0.0
144
0.0
144
0.0
144
0.0208333333333333
144
0.0
144
0.0
144
0.0
144
0.0
144
1.0
144
0.0
144
0.0
144
0.0
144
0.0
144
1.0
147
0.0208333333333333
147
0.0
147
0.0
147
0.0
147
0.0
147
0.0208333333333333
147
0.0
147
0.0
147
0.0
147
0.0
147
1.0
147
0.0
147
0.0
147
0.0
147
0.0
147
1.0
  0
MATERIAL
  5
11
102
{ACAD_XDICTIONARY
360
12
102
}
102
{ACAD_REACTORS
330
10
102
}
330
10
100
AcDbMaterial
  1
ByLayer
 72
     0
 43
0.0208333333333333
 43
0.0
 43
0.0
 43
0.0
 43
0.0
 43
0.0208333333333333
 43
0.0
 43
0.0
 43
0.0
 43
0.0
 43
1.0
 43
0.0
 43
0.0
 43
0.0
 43
0.0
 43
1.0
 77
     0
 47
0.0208333333333333
 47
0.0
 47
0.0
 47
0.0
 47
0.0
 47
0.0208333333333333
 47
0.0
 47
0.0
 47
0.0
 47
0.0
 47
1.0
 47
0.0
 47
0.0
 47
0.0
 47
0.0
 47
1.0
171
     0
 49
0.0208333333333333
 49
0.0
 49
0.0
 49
0.0
 49
0.0
 49
0.0208333333333333
 49
0.0
 49
0.0
 49
0.0
 49
0.0
 49
1.0
 49
0.0
 49
0.0
 49
0.0
 49
0.0
 49
1.0
175
     0
142
0.0208333333333333
142
0.0
142
0.0
142
0.0
142
0.0
142
0.0208333333333333
142
0.0
142
0.0
142
0.0
142
0.0
142
1.0
142
0.0
142
0.0
142
0.0
142
0.0
142
1.0
179
     0
144
0.0208333333333333
144
0.0
144
0.0
144
0.0
144
0.0
144
0.0208333333333333
144
0.0
144
0.0
144
0.0
144
0.0
144
1.0
144
0.0
144
0.0
144
0.0
144
0.0
144
1.0
147
0.0208333333333333
147
0.0
147
0.0
147
0.0
147
0.0
147
0.0208333333333333
147
0.0
147
0.0
147
0.0
147
0.0
147
1.0
147
0.0
147
0.0
147
0.0
147
0.0
147
1.0
  0
MATERIAL
  5
21
102
{ACAD_XDICTIONARY
360
22
102
}
102
{ACAD_REACTORS
330
10
102
}
330
10
100
AcDbMaterial
  1
Global
 72
     0
 43
0.0208333333333333
 43
0.0
 43
0.0
 43
0.0
 43
0.0
 43
0.0208333333333333
 43
0.0
 43
0.0
 43
0.0
 43
0.0
 43
1.0
 43
0.0
 43
0.0
 43
0.0
 43
0.0
 43
1.0
 77
     0
 47
0.0208333333333333
 47
0.0
 47
0.0
 47
0.0
 47
0.0
 47
0.0208333333333333
 47
0.0
 47
0.0
 47
0.0
 47
0.0
 47
1.0
 47
0.0
 47
0.0
 47
0.0
 47
0.0
 47
1.0
171
     0
 49
0.0208333333333333
 49
0.0
 49
0.0
 49
0.0
 49
0.0
 49
0.0208333333333333
 49
0.0
 49
0.0
 49
0.0
 49
0.0
 49
1.0
 49
0.0
 49
0.0
 49
0.0
 49
0.0
 49
1.0
175
     0
142
0.0208333333333333
142
0.0
142
0.0
142
0.0
142
0.0
142
0.0208333333333333
142
0.0
142
0.0
142
0.0
142
0.0
142
1.0
142
0.0
142
0.0
142
0.0
142
0.0
142
1.0
179
     0
144
0.0208333333333333
144
0.0
144
0.0
144
0.0
144
0.0
144
0.0208333333333333
144
0.0
144
0.0
144
0.0
144
0.0
144
1.0
144
0.0
144
0.0
144
0.0
144
0.0
144
1.0
147
0.0208333333333333
147
0.0
147
0.0
147
0.0
147
0.0
147
0.0208333333333333
147
0.0
147
0.0
147
0.0
147
0.0
147
1.0
147
0.0
147
0.0
147
0.0
147
0.0
147
1.0
  0
MLEADERSTYLE
  5
67
102
{ACAD_XDICTIONARY
360
1DF
102
}
102
{ACAD_REACTORS
330
66
102
}
330
66
100
AcDbMLeaderStyle
179
     2
170
     2
171
     1
172
     0
 90
        2
 40
0.0
 41
0.0
173
     1
 91
-1056964608
340
5B
 92
       -2
290
     1
 42
0.09
291
     1
 43
0.36
  3
Standard
 44
0.18
300

342
55
174
     1
178
     6
175
     1
176
     0
 93
-1056964608
 45
0.18
292
     0
297
     0
 46
0.18
 94
-1056964608
 47
1.0
 49
1.0
140
1.0
293
     1
141
0.0
294
     1
177
     0
142
1.0
295
     0
296
     0
143
0.125
271
     0
272
     9
273
     9
  0
MLINESTYLE
  5
60
102
{ACAD_REACTORS
330
5F
102
}
330
5F
100
AcDbMlineStyle
  2
STANDARD
 70
     0
  3

 62
   256
 51
90.0
 52
90.0
 71
     2
 49
0.5
 62
   256
  6
BYLAYER
 49
-0.5
 62
   256
  6
BYLAYER
  0
ACDBPLACEHOLDER
  5
F
102
{ACAD_REACTORS
330
E
102
}
330
E
  0
SCALE
  5
43
102
{ACAD_REACTORS
330
42
102
}
330
42
100
AcDbScale
 70
     0
300
1:1
140
1.0
141
1.0
290
     1
  0
SCALE
  5
44
102
{ACAD_REACTORS
330
42
102
}
330
42
100
AcDbScale
 70
     0
300
1/128" = 1'-0"
140
0.0078125
141
12.0
290
     0
  0
SCALE
  5
45
102
{ACAD_REACTORS
330
42
102
}
330
42
100
AcDbScale
 70
     0
300
1/64" = 1'-0"
140
0.015625
141
12.0
290
     0
  0
SCALE
  5
46
102
{ACAD_REACTORS
330
42
102
}
330
42
100
AcDbScale
 70
     0
300
1/32" = 1'-0"
140
0.03125
141
12.0
290
     0
  0
SCALE
  5
47
102
{ACAD_REACTORS
330
42
102
}
330
42
100
AcDbScale
 70
     0
300
1/16" = 1'-0"
140
0.0625
141
12.0
290
     0
  0
SCALE
  5
48
102
{ACAD_REACTORS
330
42
102
}
330
42
100
AcDbScale
 70
     0
300
3/32" = 1'-0"
140
0.09375
141
12.0
290
     0
  0
SCALE
  5
49
102
{ACAD_REACTORS
330
42
102
}
330
42
100
AcDbScale
 70
     0
300
1/8" = 1'-0"
140
0.125
141
12.0
290
     0
  0
SCALE
  5
4A
102
{ACAD_REACTORS
330
42
102
}
330
42
100
AcDbScale
 70
     0
300
3/16" = 1'-0"
140
0.1875
141
12.0
290
     0
  0
SCALE
  5
4B
102
{ACAD_REACTORS
330
42
102
}
330
42
100
AcDbScale
 70
     0
300
1/4" = 1'-0"
140
0.25
141
12.0
290
     0
  0
SCALE
  5
4C
102
{ACAD_REACTORS
330
42
102
}
330
42
100
AcDbScale
 70
     0
300
3/8" = 1'-0"
140
0.375
141
12.0
290
     0
  0
SCALE
  5
4D
102
{ACAD_REACTORS
330
42
102
}
330
42
100
AcDbScale
 70
     0
300
1/2" = 1'-0"
140
0.5
141
12.0
290
     0
  0
SCALE
  5
4E
102
{ACAD_REACTORS
330
42
102
}
330
42
100
AcDbScale
 70
     0
300
3/4" = 1'-0"
140
0.75
141
12.0
290
     0
  0
SCALE
  5
4F
102
{ACAD_REACTORS
330
42
102
}
330
42
100
AcDbScale
 70
     0
300
1" = 1'-0"
140
1.0
141
12.0
290
     0
  0
SCALE
  5
50
102
{ACAD_REACTORS
330
42
102
}
330
42
100
AcDbScale
 70
     0
300
1-1/2" = 1'-0"
140
1.5
141
12.0
290
     0
  0
SCALE
  5
51
102
{ACAD_REACTORS
330
42
102
}
330
42
100
AcDbScale
 70
     0
300
3" = 1'-0"
140
3.0
141
12.0
290
     0
  0
SCALE
  5
52
102
{ACAD_REACTORS
330
42
102
}
330
42
100
AcDbScale
 70
     0
300
6" = 1'-0"
140
6.0
141
12.0
290
     0
  0
SCALE
  5
53
102
{ACAD_REACTORS
330
42
102
}
330
42
100
AcDbScale
 70
     0
300
1'-0" = 1'-0"
140
12.0
141
12.0
290
     0
  0
ACDBSECTIONVIEWSTYLE
  5
69
102
{ACAD_XDICTIONARY
360
1E1
102
}
102
{ACAD_REACTORS
330
68
102
}
330
68
100
AcDbModelDocViewStyle
 70
     0
  3
Imperial24
290
     0
100
AcDbSectionViewStyle
 70
     0
 71
     0
 90
       78
 71
     1
340
55
 62
   256
 40
0.24
340
0
340
0
 62
   256
 40
0.24
300
I, O, Q, S, X, Z
 40
0.48
 90
        3
 40
0.18
 90
        1
 71
     2
340
5D
 90
       25
 62
   256
340
5D
 90
       50
 62
   256
 40
0.24
 40
0.0
 40
0.24
 71
     3
340
55
 62
   256
 40
0.24
 90
        1
 40
0.75
 90
        1
300
%<\AcVar ViewType \f "%tc1">% %<\AcVar ViewSectionStartId>%-%<\AcVar ViewSectionEndId>%\PSCALE %<\AcVar ViewScale \f "%sn">%
 71
     4
 62
   256
 62
   257
300
ANSI31
 40
1.0
 90
        0
290
     0
290
     0
 90
        6
 40
0.0
 40
1.570796326794896
 40
0.2617993877991494
 40
1.308996938995747
 40
-0.2617993877991494
 40
1.832595714594046
  0
TABLESTYLE
  5
65
102
{ACAD_XDICTIONARY
360
1AA
102
}
102
{ACAD_REACTORS
330
64
102
}
330
64
100
AcDbTableStyle
280
     0
  3
Standard
 70
     0
 71
     0
 40
0.06
 41
0.06
280
     0
281
     0
  7
Standard
140
0.18
170
     2
 62
     0
 63
     7
283
     0
 90
      512
 91
        0
  1

274
    -2
284
     1
 64
     0
275
    -2
285
     1
 65
     0
276
    -2
286
     1
 66
     0
277
    -2
287
     1
 67
     0
278
    -2
288
     1
 68
     0
279
    -2
289
     1
 69
     0
  7
Standard
140
0.25
170
     5
 62
     0
 63
     7
283
     0
 90
      512
 91
        0
  1

274
    -2
284
     1
 64
     0
275
    -2
285
     1
 65
     0
276
    -2
286
     1
 66
     0
277
    -2
287
     1
 67
     0
278
    -2
288
     1
 68
     0
279
    -2
289
     1
 69
     0
  7
Standard
140
0.18
170
     5
 62
     0
 63
     7
283
     0
 90
      512
 91
        0
  1

274
    -2
284
     1
 64
     0
275
    -2
285
     1
 65
     0
276
    -2
286
     1
 66
     0
277
    -2
287
     1
 67
     0
278
    -2
288
     1
 68
     0
279
    -2
289
     1
 69
     0
  0
VISUALSTYLE
  5
2F
102
{ACAD_XDICTIONARY
360
1B9
102
}
102
{ACAD_REACTORS
330
29
102
}
330
29
100
AcDbVisualStyle
  2
2dWireframe
 70
     4
177
     2
291
     0
 71
     0
176
     1
 72
     2
176
     1
 73
     0
176
     1
 90
        0
176
     1
 40
0.6
176
     1
 41
30.0
176
     1
 63
     7
421
 16777215
176
     1
 74
     1
176
     1
 91
        4
176
     1
 64
     7
176
     1
 65
   257
176
     1
 75
     1
176
     1
175
     1
176
     1
 42
1.0
176
     1
 92
        0
176
     1
 66
   257
176
     1
 43
1.0
176
     1
 76
     1
176
     1
 77
     6
176
     1
 78
     2
176
     1
 67
     7
176
     1
 79
     5
176
     1
170
     0
176
     1
171
     0
176
     1
290
     0
176
     1
 93
        1
176
     1
 44
0.0
176
     1
173
     0
176
     1
1001
ACAD
1000
AcDbSavedByObjectVersion
1070
     0
  0
VISUALSTYLE
  5
2E
102
{ACAD_XDICTIONARY
360
1B7
102
}
102
{ACAD_REACTORS
330
29
102
}
330
29
100
AcDbVisualStyle
  2
Basic
 70
     7
177
     2
291
     1
 71
     1
176
     1
 72
     0
176
     1
 73
     1
176
     1
 90
        0
176
     1
 40
0.6
176
     1
 41
30.0
176
     1
 63
     7
421
 16777215
176
     1
 74
     0
176
     1
 91
        4
176
     1
 64
     7
176
     1
 65
   257
176
     1
 75
     1
176
     1
175
     1
176
     1
 42
1.0
176
     1
 92
        8
176
     1
 66
     7
176
     1
 43
1.0
176
     1
 76
     1
176
     1
 77
     6
176
     1
 78
     2
176
     1
 67
     7
176
     1
 79
     5
176
     1
170
     0
176
     1
171
     0
176
     1
290
     0
176
     1
 93
        1
176
     1
 44
0.0
176
     1
173
     0
176
     1
1001
ACAD
1000
AcDbSavedByObjectVersion
1070
     0
  0
VISUALSTYLE
  5
35
102
{ACAD_XDICTIONARY
360
1C5
102
}
102
{ACAD_REACTORS
330
29
102
}
330
29
100
AcDbVisualStyle
  2
Brighten
 70
    12
177
     2
291
     1
 71
     2
176
     1
 72
     2
176
     1
 73
     0
176
     1
 90
        0
176
     1
 40
0.6
176
     1
 41
30.0
176
     1
 63
     7
421
 16777215
176
     1
 74
     1
176
     1
 91
        4
176
     1
 64
     7
176
     1
 65
   257
176
     1
 75
     1
176
     1
175
     1
176
     1
 42
1.0
176
     1
 92
        8
176
     1
 66
     7
176
     1
 43
1.0
176
     1
 76
     1
176
     1
 77
     6
176
     1
 78
     2
176
     1
 67
     7
176
     1
 79
     5
176
     1
170
     0
176
     1
171
     0
176
     1
290
     0
176
     1
 93
        1
176
     1
 44
50.0
176
     1
173
     0
176
     1
1001
ACAD
1000
AcDbSavedByObjectVersion
1070
     0
  0
VISUALSTYLE
  5
39
102
{ACAD_XDICTIONARY
360
1CD
102
}
102
{ACAD_REACTORS
330
29
102
}
330
29
100
AcDbVisualStyle
  2
ColorChange
 70
    16
177
     2
291
     1
 71
     2
176
     1
 72
     2
176
     1
 73
     3
176
     1
 90
        0
176
     1
 40
0.6
176
     1
 41
30.0
176
     1
 63
     8
421
  8421504
176
     1
 74
     1
176
     1
 91
        4
176
     1
 64
     7
176
     1
 65
   257
176
     1
 75
     1
176
     1
175
     1
176
     1
 42
1.0
176
     1
 92
        8
176
     1
 66
     8
424
  8421504
176
     1
 43
1.0
176
     1
 76
     1
176
     1
 77
     6
176
     1
 78
     2
176
     1
 67
     7
176
     1
 79
     5
176
     1
170
     0
176
     1
171
     0
176
     1
290
     0
176
     1
 93
        1
176
     1
 44
0.0
176
     1
173
     0
176
     1
1001
ACAD
1000
AcDbSavedByObjectVersion
1070
     0
  0
VISUALSTYLE
  5
32
102
{ACAD_XDICTIONARY
360
1BF
102
}
102
{ACAD_REACTORS
330
29
102
}
330
29
100
AcDbVisualStyle
  2
Conceptual
 70
     9
177
     2
291
     0
 71
     3
176
     1
 72
     2
176
     1
 73
     0
176
     1
 90
        0
176
     1
 40
0.6
176
     1
 41
30.0
176
     1
 63
     7
421
 16777215
176
     1
 74
     2
176
     1
 91
        2
176
     1
 64
     7
176
     1
 65
   257
176
     1
 75
     1
176
     1
175
     1
176
     1
 42
179.0
176
     1
 92
        8
176
     1
 66
     7
176
     1
 43
1.0
176
     1
 76
     1
176
     1
 77
     6
176
     1
 78
     2
176
     1
 67
     7
176
     1
 79
     3
176
     1
170
     0
176
     1
171
     0
176
     1
290
     0
176
     1
 93
        1
176
     1
 44
0.0
176
     1
173
     0
176
     1
1001
ACAD
1000
AcDbSavedByObjectVersion
1070
     0
  0
VISUALSTYLE
  5
34
102
{ACAD_XDICTIONARY
360
1C3
102
}
102
{ACAD_REACTORS
330
29
102
}
330
29
100
AcDbVisualStyle
  2
Dim
 70
    11
177
     2
291
     1
 71
     2
176
     1
 72
     2
176
     1
 73
     0
176
     1
 90
        0
176
     1
 40
0.6
176
     1
 41
30.0
176
     1
 63
     7
421
 16777215
176
     1
 74
     1
176
     1
 91
        4
176
     1
 64
     7
176
     1
 65
   257
176
     1
 75
     1
176
     1
175
     1
176
     1
 42
1.0
176
     1
 92
        8
176
     1
 66
     7
176
     1
 43
1.0
176
     1
 76
     1
176
     1
 77
     6
176
     1
 78
     2
176
     1
 67
     7
176
     1
 79
     5
176
     1
170
     0
176
     1
171
     0
176
     1
290
     0
176
     1
 93
        1
176
     1
 44
-50.0
176
     1
173
     0
176
     1
1001
ACAD
1000
AcDbSavedByObjectVersion
1070
     0
  0
VISUALSTYLE
  5
41
102
{ACAD_XDICTIONARY
360
1DD
102
}
102
{ACAD_REACTORS
330
29
102
}
330
29
100
AcDbVisualStyle
  2
EdgeColorOff
 70
    22
177
     2
291
     1
 71
     2
176
     0
 72
     2
176
     0
 73
     0
176
     0
 90
        0
176
     0
 40
0.6
176
     0
 41
30.0
176
     0
 63
     7
421
 16777215
176
     0
 74
     1
176
     0
 91
        4
176
     0
 64
     7
176
     0
 65
   257
176
     0
 75
     1
176
     0
175
     1
176
     0
 42
1.0
176
     0
 92
        8
176
     2
 66
     7
176
     0
 43
1.0
176
     0
 76
     1
176
     0
 77
     6
176
     0
 78
     2
176
     0
 67
     7
176
     0
 79
     5
176
     0
170
     0
176
     0
171
     0
176
     0
290
     0
176
     0
 93
        1
176
     0
 44
0.0
176
     0
173
     0
176
     0
1001
ACAD
1000
AcDbSavedByObjectVersion
1070
     0
  0
VISUALSTYLE
  5
38
102
{ACAD_XDICTIONARY
360
1CB
102
}
102
{ACAD_REACTORS
330
29
102
}
330
29
100
AcDbVisualStyle
  2
Facepattern
 70
    15
177
     2
291
     1
 71
     2
176
     1
 72
     2
176
     1
 73
     0
176
     1
 90
        0
176
     1
 40
0.6
176
     1
 41
30.0
176
     1
 63
     7
421
 16777215
176
     1
 74
     1
176
     1
 91
        4
176
     1
 64
     7
176
     1
 65
   257
176
     1
 75
     1
176
     1
175
     1
176
     1
 42
1.0
176
     1
 92
        8
176
     1
 66
     7
176
     1
 43
1.0
176
     1
 76
     1
176
     1
 77
     6
176
     1
 78
     2
176
     1
 67
     7
176
     1
 79
     5
176
     1
170
     0
176
     1
171
     0
176
     1
290
     0
176
     1
 93
        1
176
     1
 44
0.0
176
     1
173
     0
176
     1
1001
ACAD
1000
AcDbSavedByObjectVersion
1070
     0
  0
VISUALSTYLE
  5
2A
102
{ACAD_XDICTIONARY
360
1AF
102
}
102
{ACAD_REACTORS
330
29
102
}
330
29
100
AcDbVisualStyle
  2
Flat
 70
     0
177
     2
291
     1
 71
     2
176
     1
 72
     1
176
     1
 73
     1
176
     1
 90
        2
176
     1
 40
0.6
176
     1
 41
30.0
176
     1
 63
     7
421
 16777215
176
     1
 74
     0
176
     1
 91
        0
176
     1
 64
     7
176
     1
 65
   257
176
     1
 75
     1
176
     1
175
     1
176
     1
 42
1.0
176
     1
 92
        8
176
     1
 66
     7
176
     1
 43
1.0
176
     1
 76
     1
176
     1
 77
     6
176
     1
 78
     2
176
     1
 67
     7
176
     1
 79
     5
176
     1
170
     0
176
     1
171
     0
176
     1
290
     0
176
     1
 93
       13
176
     1
 44
0.0
176
     1
173
     0
176
     1
1001
ACAD
1000
AcDbSavedByObjectVersion
1070
     0
  0
VISUALSTYLE
  5
2B
102
{ACAD_XDICTIONARY
360
1B1
102
}
102
{ACAD_REACTORS
330
29
102
}
330
29
100
AcDbVisualStyle
  2
FlatWithEdges
 70
     1
177
     2
291
     1
 71
     2
176
     1
 72
     1
176
     1
 73
     1
176
     1
 90
        2
176
     1
 40
0.6
176
     1
 41
30.0
176
     1
 63
     7
421
 16777215
176
     1
 74
     1
176
     1
 91
        0
176
     1
 64
     7
176
     1
 65
   257
176
     1
 75
     1
176
     1
175
     1
176
     1
 42
1.0
176
     1
 92
        0
176
     1
 66
   257
176
     1
 43
1.0
176
     1
 76
     1
176
     1
 77
     6
176
     1
 78
     2
176
     1
 67
     7
176
     1
 79
     5
176
     1
170
     0
176
     1
171
     0
176
     1
290
     0
176
     1
 93
       13
176
     1
 44
0.0
176
     1
173
     0
176
     1
1001
ACAD
1000
AcDbSavedByObjectVersion
1070
     0
  0
VISUALSTYLE
  5
2C
102
{ACAD_XDICTIONARY
360
1B3
102
}
102
{ACAD_REACTORS
330
29
102
}
330
29
100
AcDbVisualStyle
  2
Gouraud
 70
     2
177
     2
291
     1
 71
     2
176
     1
 72
     2
176
     1
 73
     1
176
     1
 90
        2
176
     1
 40
0.6
176
     1
 41
30.0
176
     1
 63
     7
421
 16777215
176
     1
 74
     0
176
     1
 91
        0
176
     1
 64
     7
176
     1
 65
   257
176
     1
 75
     1
176
     1
175
     1
176
     1
 42
1.0
176
     1
 92
        0
176
     1
 66
     7
176
     1
 43
1.0
176
     1
 76
     1
176
     1
 77
     6
176
     1
 78
     2
176
     1
 67
     7
176
     1
 79
     5
176
     1
170
     0
176
     1
171
     0
176
     1
290
     0
176
     1
 93
       13
176
     1
 44
0.0
176
     1
173
     0
176
     1
1001
ACAD
1000
AcDbSavedByObjectVersion
1070
     0
  0
VISUALSTYLE
  5
2D
102
{ACAD_XDICTIONARY
360
1B5
102
}
102
{ACAD_REACTORS
330
29
102
}
330
29
100
AcDbVisualStyle
  2
GouraudWithEdges
 70
     3
177
     2
291
     1
 71
     2
176
     1
 72
     2
176
     1
 73
     1
176
     1
 90
        2
176
     1
 40
0.6
176
     1
 41
30.0
176
     1
 63
     7
421
 16777215
176
     1
 74
     1
176
     1
 91
        0
176
     1
 64
     7
176
     1
 65
   257
176
     1
 75
     1
176
     1
175
     1
176
     1
 42
1.0
176
     1
 92
        0
176
     1
 66
   257
176
     1
 43
1.0
176
     1
 76
     1
176
     1
 77
     6
176
     1
 78
     2
176
     1
 67
     7
176
     1
 79
     5
176
     1
170
     0
176
     1
171
     0
176
     1
290
     0
176
     1
 93
       13
176
     1
 44
0.0
176
     1
173
     0
176
     1
1001
ACAD
1000
AcDbSavedByObjectVersion
1070
     0
  0
VISUALSTYLE
  5
31
102
{ACAD_XDICTIONARY
360
1BD
102
}
102
{ACAD_REACTORS
330
29
102
}
330
29
100
AcDbVisualStyle
  2
Hidden
 70
     6
177
     2
291
     0
 71
     1
176
     1
 72
     2
176
     1
 73
     2
176
     1
 90
        0
176
     1
 40
0.6
176
     1
 41
30.0
176
     1
 63
     7
421
 16777215
176
     1
 74
     2
176
     1
 91
        2
176
     1
 64
     7
176
     1
 65
   257
176
     1
 75
     2
176
     1
175
     1
176
     1
 42
40.0
176
     1
 92
        0
176
     1
 66
   257
176
     1
 43
1.0
176
     1
 76
     1
176
     1
 77
     6
176
     1
 78
     2
176
     1
 67
     7
176
     1
 79
     3
176
     1
170
     0
176
     1
171
     0
176
     1
290
     0
176
     1
 93
        1
176
     1
 44
0.0
176
     1
173
     0
176
     1
1001
ACAD
1000
AcDbSavedByObjectVersion
1070
     0
  0
VISUALSTYLE
  5
3F
102
{ACAD_XDICTIONARY
360
1D9
102
}
102
{ACAD_REACTORS
330
29
102
}
330
29
100
AcDbVisualStyle
  2
JitterOff
 70
    20
177
     2
291
     1
 71
     2
176
     0
 72
     2
176
     0
 73
     0
176
     0
 90
        0
176
     0
 40
0.6
176
     0
 41
30.0
176
     0
 63
     7
421
 16777215
176
     0
 74
     1
176
     0
 91
        4
176
     0
 64
     7
176
     0
 65
   257
176
     0
 75
     1
176
     0
175
     1
176
     0
 42
1.0
176
     0
 92
       10
176
     2
 66
     7
176
     0
 43
1.0
176
     0
 76
     1
176
     0
 77
     6
176
     0
 78
     2
176
     0
 67
     7
176
     0
 79
     5
176
     0
170
     0
176
     0
171
     0
176
     0
290
     0
176
     0
 93
        1
176
     0
 44
0.0
176
     0
173
     0
176
     0
1001
ACAD
1000
AcDbSavedByObjectVersion
1070
     0
  0
VISUALSTYLE
  5
37
102
{ACAD_XDICTIONARY
360
1C9
102
}
102
{ACAD_REACTORS
330
29
102
}
330
29
100
AcDbVisualStyle
  2
Linepattern
 70
    14
177
     2
291
     1
 71
     2
176
     1
 72
     2
176
     1
 73
     0
176
     1
 90
        0
176
     1
 40
0.6
176
     1
 41
30.0
176
     1
 63
     7
421
 16777215
176
     1
 74
     1
176
     1
 91
        4
176
     1
 64
     7
176
     1
 65
   257
176
     1
 75
     7
176
     1
175
     7
176
     1
 42
1.0
176
     1
 92
        8
176
     1
 66
     7
176
     1
 43
1.0
176
     1
 76
     1
176
     1
 77
     6
176
     1
 78
     2
176
     1
 67
     7
176
     1
 79
     5
176
     1
170
     0
176
     1
171
     0
176
     1
290
     0
176
     1
 93
        1
176
     1
 44
0.0
176
     1
173
     0
176
     1
1001
ACAD
1000
AcDbSavedByObjectVersion
1070
     0
  0
VISUALSTYLE
  5
40
102
{ACAD_XDICTIONARY
360
1DB
102
}
102
{ACAD_REACTORS
330
29
102
}
330
29
100
AcDbVisualStyle
  2
OverhangOff
 70
    21
177
     2
291
     1
 71
     2
176
     0
 72
     2
176
     0
 73
     0
176
     0
 90
        0
176
     0
 40
0.6
176
     0
 41
30.0
176
     0
 63
     7
421
 16777215
176
     0
 74
     1
176
     0
 91
        4
176
     0
 64
     7
176
     0
 65
   257
176
     0
 75
     1
176
     0
175
     1
176
     0
 42
1.0
176
     0
 92
        9
176
     2
 66
     7
176
     0
 43
1.0
176
     0
 76
     1
176
     0
 77
     6
176
     0
 78
     2
176
     0
 67
     7
176
     0
 79
     5
176
     0
170
     0
176
     0
171
     0
176
     0
290
     0
176
     0
 93
        1
176
     0
 44
0.0
176
     0
173
     0
176
     0
1001
ACAD
1000
AcDbSavedByObjectVersion
1070
     0
  0
VISUALSTYLE
  5
33
102
{ACAD_XDICTIONARY
360
1C1
102
}
102
{ACAD_REACTORS
330
29
102
}
330
29
100
AcDbVisualStyle
  2
Realistic
 70
     8
177
     2
291
     0
 71
     2
176
     1
 72
     3
176
     1
 73
     0
176
     1
 90
        2
176
     1
 40
0.6
176
     1
 41
30.0
176
     1
 63
     7
421
 16777215
176
     1
 74
     0
176
     1
 91
        0
176
     1
 64
     7
176
     1
 65
   257
176
     1
 75
     1
176
     1
175
     1
176
     1
 42
1.0
176
     1
 92
        8
176
     1
 66
   257
176
     1
 43
1.0
176
     1
 76
     1
176
     1
 77
     6
176
     1
 78
     2
176
     1
 67
     7
176
     1
 79
     3
176
     1
170
     0
176
     1
171
     0
176
     1
290
     0
176
     1
 93
       13
176
     1
 44
0.0
176
     1
173
     0
176
     1
1001
ACAD
1000
AcDbSavedByObjectVersion
1070
     0
  0
VISUALSTYLE
  5
3E
102
{ACAD_XDICTIONARY
360
1D7
102
}
102
{ACAD_REACTORS
330
29
102
}
330
29
100
AcDbVisualStyle
  2
Shaded
 70
    27
177
     2
291
     0
 71
     2
176
     1
 72
     2
176
     1
 73
     1
176
     1
 90
        2
176
     1
 40
0.6
176
     1
 41
30.0
176
     1
 63
     7
421
 16777215
176
     1
 74
     0
176
     1
 91
        4
176
     1
 64
     7
176
     1
 65
   257
176
     1
 75
     1
176
     1
175
     1
176
     1
 42
1.0
176
     1
 92
        8
176
     1
 66
   257
176
     1
 43
1.0
176
     1
 76
     1
176
     1
 77
     6
176
     1
 78
     2
176
     1
 67
     8
425
  7895160
176
     1
 79
     3
176
     1
170
     0
176
     1
171
     0
176
     1
290
     0
176
     1
 93
        5
176
     1
 44
0.0
176
     1
173
     0
176
     1
1001
ACAD
1000
AcDbSavedByObjectVersion
1070
     0
  0
VISUALSTYLE
  5
3D
102
{ACAD_XDICTIONARY
360
1D5
102
}
102
{ACAD_REACTORS
330
29
102
}
330
29
100
AcDbVisualStyle
  2
Shaded with edges
 70
    26
177
     2
291
     0
 71
     2
176
     1
 72
     2
176
     1
 73
     1
176
     1
 90
        2
176
     1
 40
0.6
176
     1
 41
30.0
176
     1
 63
     7
421
 16777215
176
     1
 74
     1
176
     1
 91
        2
176
     1
 64
     7
176
     1
 65
   257
176
     1
 75
     2
176
     1
175
     1
176
     1
 42
1.0
176
     1
 92
        8
176
     1
 66
   257
176
     1
 43
1.0
176
     1
 76
     1
176
     1
 77
     6
176
     1
 78
     2
176
     1
 67
     7
176
     1
 79
     3
176
     1
170
     0
176
     1
171
     0
176
     1
290
     0
176
     1
 93
        5
176
     1
 44
0.0
176
     1
173
     0
176
     1
1001
ACAD
1000
AcDbSavedByObjectVersion
1070
     0
  0
VISUALSTYLE
  5
3A
102
{ACAD_XDICTIONARY
360
1CF
102
}
102
{ACAD_REACTORS
330
29
102
}
330
29
100
AcDbVisualStyle
  2
Shades of Gray
 70
    23
177
     2
291
     0
 71
     2
176
     1
 72
     2
176
     1
 73
     3
176
     1
 90
        0
176
     1
 40
0.6
176
     1
 41
30.0
176
     1
 63
     7
421
 16777215
176
     1
 74
     2
176
     1
 91
        2
176
     1
 64
     7
176
     1
 65
     7
176
     1
 75
     1
176
     1
175
     1
176
     1
 42
40.0
176
     1
 92
        8
176
     1
 66
     7
176
     1
 43
1.0
176
     1
 76
     1
176
     1
 77
     6
176
     1
 78
     2
176
     1
 67
     7
176
     1
 79
     3
176
     1
170
     0
176
     1
171
     0
176
     1
290
     0
176
     1
 93
        1
176
     1
 44
0.0
176
     1
173
     0
176
     1
1001
ACAD
1000
AcDbSavedByObjectVersion
1070
     0
  0
VISUALSTYLE
  5
3B
102
{ACAD_XDICTIONARY
360
1D1
102
}
102
{ACAD_REACTORS
330
29
102
}
330
29
100
AcDbVisualStyle
  2
Sketchy
 70
    24
177
     2
291
     0
 71
     1
176
     1
 72
     2
176
     1
 73
     2
176
     1
 90
        0
176
     1
 40
0.6
176
     1
 41
30.0
176
     1
 63
     7
421
 16777215
176
     1
 74
     2
176
     1
 91
        2
176
     1
 64
     7
176
     1
 65
     7
176
     1
 75
     1
176
     1
175
     1
176
     1
 42
40.0
176
     1
 92
       11
176
     1
 66
     7
176
     1
 43
1.0
176
     1
 76
     1
176
     1
 77
     6
176
     1
 78
     2
176
     1
 67
     7
176
     1
 79
     6
176
     1
170
     0
176
     1
171
     0
176
     1
290
     0
176
     1
 93
        1
176
     1
 44
0.0
176
     1
173
     0
176
     1
1001
ACAD
1000
AcDbSavedByObjectVersion
1070
     0
  0
VISUALSTYLE
  5
36
102
{ACAD_XDICTIONARY
360
1C7
102
}
102
{ACAD_REACTORS
330
29
102
}
330
29
100
AcDbVisualStyle
  2
Thicken
 70
    13
177
     2
291
     1
 71
     2
176
     1
 72
     2
176
     1
 73
     0
176
     1
 90
        0
176
     1
 40
0.6
176
     1
 41
30.0
176
     1
 63
     7
421
 16777215
176
     1
 74
     1
176
     1
 91
        4
176
     1
 64
     7
176
     1
 65
   257
176
     1
 75
     1
176
     1
175
     1
176
     1
 42
1.0
176
     1
 92
       12
176
     1
 66
     7
176
     1
 43
1.0
176
     1
 76
     1
176
     1
 77
     6
176
     1
 78
     2
176
     1
 67
     7
176
     1
 79
     5
176
     1
170
     0
176
     1
171
     0
176
     1
290
     0
176
     1
 93
        1
176
     1
 44
0.0
176
     1
173
     0
176
     1
1001
ACAD
1000
AcDbSavedByObjectVersion
1070
     0
  0
VISUALSTYLE
  5
30
102
{ACAD_XDICTIONARY
360
1BB
102
}
102
{ACAD_REACTORS
330
29
102
}
330
29
100
AcDbVisualStyle
  2
Wireframe
 70
     5
177
     2
291
     0
 71
     0
176
     1
 72
     2
176
     1
 73
     0
176
     1
 90
        0
176
     1
 40
0.6
176
     1
 41
30.0
176
     1
 63
     7
421
 16777215
176
     1
 74
     1
176
     1
 91
        4
176
     1
 64
     7
176
     1
 65
   257
176
     1
 75
     1
176
     1
175
     1
176
     1
 42
1.0
176
     1
 92
        0
176
     1
 66
   257
176
     1
 43
1.0
176
     1
 76
     1
176
     1
 77
     6
176
     1
 78
     2
176
     1
 67
     7
176
     1
 79
     3
176
     1
170
     0
176
     1
171
     0
176
     1
290
     0
176
     1
 93
        1
176
     1
 44
0.0
176
     1
173
     0
176
     1
1001
ACAD
1000
AcDbSavedByObjectVersion
1070
     0
  0
VISUALSTYLE
  5
3C
102
{ACAD_XDICTIONARY
360
1D3
102
}
102
{ACAD_REACTORS
330
29
102
}
330
29
100
AcDbVisualStyle
  2
X-Ray
 70
    25
177
     2
291
     0
 71
     2
176
     1
 72
     2
176
     1
 73
     1
176
     1
 90
        1
176
     1
 40
0.5
176
     1
 41
30.0
176
     1
 63
     7
421
 16777215
176
     1
 74
     1
176
     1
 91
        0
176
     1
 64
     7
176
     1
 65
   257
176
     1
 75
     1
176
     1
175
     1
176
     1
 42
1.0
176
     1
 92
        8
176
     1
 66
     7
176
     1
 43
1.0
176
     1
 76
     1
176
     1
 77
     6
176
     1
 78
     2
176
     1
 67
     7
176
     1
 79
     3
176
     1
170
     0
176
     1
171
     0
176
     1
290
     0
176
     1
 93
       13
176
     1
 44
0.0
176
     1
173
     0
176
     1
1001
ACAD
1000
AcDbSavedByObjectVersion
1070
     0
  0
DICTIONARYVAR
  5
1A9
102
{ACAD_REACTORS
330
1A4
102
}
330
1A4
100
DictionaryVariables
280
     0
  1
1:1
  0
DICTIONARYVAR
  5
1A6
102
{ACAD_REACTORS
330
1A4
102
}
330
1A4
100
DictionaryVariables
280
     0
  1
STANDARD
  0
DICTIONARYVAR
  5
1A5
102
{ACAD_REACTORS
330
1A4
102
}
330
1A4
100
DictionaryVariables
280
     0
  1
STANDARD
  0
DICTIONARYVAR
  5
1A7
102
{ACAD_REACTORS
330
1A4
102
}
330
1A4
100
DictionaryVariables
280
     0
  1
Imperial24
  0
DICTIONARYVAR
  5
1A8
102
{ACAD_REACTORS
330
1A4
102
}
330
1A4
100
DictionaryVariables
280
     0
  1
Imperial24
  0
DICTIONARY
  5
1E3
330
6B
100
AcDbDictionary
280
     1
281
     1
  3
ACAD_XREC_ROUNDTRIP
360
1E4
  0
DICTIONARY
  5
1A
330
19
100
AcDbDictionary
280
     1
281
     1
  3
BUMPTILE
360
1C
  3
DIFFUSETILE
360
1B
  3
OPACITYTILE
360
1F
  3
REFLECTIONTILE
360
1E
  3
REFRACTIONTILE
360
20
  3
SPECULARTILE
360
1D
  0
DICTIONARY
  5
12
330
11
100
AcDbDictionary
280
     1
281
     1
  3
BUMPTILE
360
14
  3
DIFFUSETILE
360
13
  3
OPACITYTILE
360
17
  3
REFLECTIONTILE
360
16
  3
REFRACTIONTILE
360
18
  3
SPECULARTILE
360
15
  0
DICTIONARY
  5
22
330
21
100
AcDbDictionary
280
     1
281
     1
  3
BUMPTILE
360
24
  3
DIFFUSETILE
360
23
  3
OPACITYTILE
360
27
  3
REFLECTIONTILE
360
26
  3
REFRACTIONTILE
360
28
  3
SPECULARTILE
360
25
  0
DICTIONARY
  5
1DF
330
67
100
AcDbDictionary
280
     1
281
     1
  3
ACAD_XREC_ROUNDTRIP
360
1E0
  0
DICTIONARY
  5
1E1
330
69
100
AcDbDictionary
280
     1
281
     1
  3
ACAD_XREC_ROUNDTRIP
360
1E2
  0
DICTIONARY
  5
1AA
330
65
100
AcDbDictionary
280
     1
281
     1
  3
ACAD_ROUNDTRIP_2008_TABLESTYLE_CELLSTYLEMAP
360
1AB
  0
DICTIONARY
  5
1B9
330
2F
100
AcDbDictionary
280
     1
281
     1
  3
ACAD_XREC_ROUNDTRIP
360
1BA
  0
DICTIONARY
  5
1B7
330
2E
100
AcDbDictionary
280
     1
281
     1
  3
ACAD_XREC_ROUNDTRIP
360
1B8
  0
DICTIONARY
  5
1C5
330
35
100
AcDbDictionary
280
     1
281
     1
  3
ACAD_XREC_ROUNDTRIP
360
1C6
  0
DICTIONARY
  5
1CD
330
39
100
AcDbDictionary
280
     1
281
     1
  3
ACAD_XREC_ROUNDTRIP
360
1CE
  0
DICTIONARY
  5
1BF
330
32
100
AcDbDictionary
280
     1
281
     1
  3
ACAD_XREC_ROUNDTRIP
360
1C0
  0
DICTIONARY
  5
1C3
330
34
100
AcDbDictionary
280
     1
281
     1
  3
ACAD_XREC_ROUNDTRIP
360
1C4
  0
DICTIONARY
  5
1DD
330
41
100
AcDbDictionary
280
     1
281
     1
  3
ACAD_XREC_ROUNDTRIP
360
1DE
  0
DICTIONARY
  5
1CB
330
38
100
AcDbDictionary
280
     1
281
     1
  3
ACAD_XREC_ROUNDTRIP
360
1CC
  0
DICTIONARY
  5
1AF
330
2A
100
AcDbDictionary
280
     1
281
     1
  3
ACAD_XREC_ROUNDTRIP
360
1B0
  0
DICTIONARY
  5
1B1
330
2B
100
AcDbDictionary
280
     1
281
     1
  3
ACAD_XREC_ROUNDTRIP
360
1B2
  0
DICTIONARY
  5
1B3
330
2C
100
AcDbDictionary
280
     1
281
     1
  3
ACAD_XREC_ROUNDTRIP
360
1B4
  0
DICTIONARY
  5
1B5
330
2D
100
AcDbDictionary
280
     1
281
     1
  3
ACAD_XREC_ROUNDTRIP
360
1B6
  0
DICTIONARY
  5
1BD
330
31
100
AcDbDictionary
280
     1
281
     1
  3
ACAD_XREC_ROUNDTRIP
360
1BE
  0
DICTIONARY
  5
1D9
330
3F
100
AcDbDictionary
280
     1
281
     1
  3
ACAD_XREC_ROUNDTRIP
360
1DA
  0
DICTIONARY
  5
1C9
330
37
100
AcDbDictionary
280
     1
281
     1
  3
ACAD_XREC_ROUNDTRIP
360
1CA
  0
DICTIONARY
  5
1DB
330
40
100
AcDbDictionary
280
     1
281
     1
  3
ACAD_XREC_ROUNDTRIP
360
1DC
  0
DICTIONARY
  5
1C1
330
33
100
AcDbDictionary
280
     1
281
     1
  3
ACAD_XREC_ROUNDTRIP
360
1C2
  0
DICTIONARY
  5
1D7
330
3E
100
AcDbDictionary
280
     1
281
     1
  3
ACAD_XREC_ROUNDTRIP
360
1D8
  0
DICTIONARY
  5
1D5
330
3D
100
AcDbDictionary
280
     1
281
     1
  3
ACAD_XREC_ROUNDTRIP
360
1D6
  0
DICTIONARY
  5
1CF
330
3A
100
AcDbDictionary
280
     1
281
     1
  3
ACAD_XREC_ROUNDTRIP
360
1D0
  0
DICTIONARY
  5
1D1
330
3B
100
AcDbDictionary
280
     1
281
     1
  3
ACAD_XREC_ROUNDTRIP
360
1D2
  0
DICTIONARY
  5
1C7
330
36
100
AcDbDictionary
280
     1
281
     1
  3
ACAD_XREC_ROUNDTRIP
360
1C8
  0
DICTIONARY
  5
1BB
330
30
100
AcDbDictionary
280
     1
281
     1
  3
ACAD_XREC_ROUNDTRIP
360
1BC
  0
DICTIONARY
  5
1D3
330
3C
100
AcDbDictionary
280
     1
281
     1
  3
ACAD_XREC_ROUNDTRIP
360
1D4
  0
XRECORD
  5
1E4
102
{ACAD_REACTORS
330
1E3
102
}
330
1E3
100
AcDbXrecord
280
     1
102
DISPLAYNAME
  1
Imperial24
102
FLAGS
 90
        0
  0
XRECORD
  5
1C
102
{ACAD_REACTORS
330
1A
102
}
330
1A
100
AcDbXrecord
280
     1
270
     1
271
     1
  0
XRECORD
  5
1B
102
{ACAD_REACTORS
330
1A
102
}
330
1A
100
AcDbXrecord
280
     1
270
     1
271
     1
  0
XRECORD
  5
1F
102
{ACAD_REACTORS
330
1A
102
}
330
1A
100
AcDbXrecord
280
     1
270
     1
271
     1
  0
XRECORD
  5
1E
102
{ACAD_REACTORS
330
1A
102
}
330
1A
100
AcDbXrecord
280
     1
270
     1
271
     1
  0
XRECORD
  5
20
102
{ACAD_REACTORS
330
1A
102
}
330
1A
100
AcDbXrecord
280
     1
270
     1
271
     1
  0
XRECORD
  5
1D
102
{ACAD_REACTORS
330
1A
102
}
330
1A
100
AcDbXrecord
280
     1
270
     1
271
     1
  0
XRECORD
  5
14
102
{ACAD_REACTORS
330
12
102
}
330
12
100
AcDbXrecord
280
     1
270
     1
271
     1
  0
XRECORD
  5
13
102
{ACAD_REACTORS
330
12
102
}
330
12
100
AcDbXrecord
280
     1
270
     1
271
     1
  0
XRECORD
  5
17
102
{ACAD_REACTORS
330
12
102
}
330
12
100
AcDbXrecord
280
     1
270
     1
271
     1
  0
XRECORD
  5
16
102
{ACAD_REACTORS
330
12
102
}
330
12
100
AcDbXrecord
280
     1
270
     1
271
     1
  0
XRECORD
  5
18
102
{ACAD_REACTORS
330
12
102
}
330
12
100
AcDbXrecord
280
     1
270
     1
271
     1
  0
XRECORD
  5
15
102
{ACAD_REACTORS
330
12
102
}
330
12
100
AcDbXrecord
280
     1
270
     1
271
     1
  0
XRECORD
  5
24
102
{ACAD_REACTORS
330
22
102
}
330
22
100
AcDbXrecord
280
     1
270
     1
271
     1
  0
XRECORD
  5
23
102
{ACAD_REACTORS
330
22
102
}
330
22
100
AcDbXrecord
280
     1
270
     1
271
     1
  0
XRECORD
  5
27
102
{ACAD_REACTORS
330
22
102
}
330
22
100
AcDbXrecord
280
     1
270
     1
271
     1
  0
XRECORD
  5
26
102
{ACAD_REACTORS
330
22
102
}
330
22
100
AcDbXrecord
280
     1
270
     1
271
     1
  0
XRECORD
  5
28
102
{ACAD_REACTORS
330
22
102
}
330
22
100
AcDbXrecord
280
     1
270
     1
271
     1
  0
XRECORD
  5
25
102
{ACAD_REACTORS
330
22
102
}
330
22
100
AcDbXrecord
280
     1
270
     1
271
     1
  0
XRECORD
  5
1E0
102
{ACAD_REACTORS
330
1DF
102
}
330
1DF
100
AcDbXrecord
280
     1
102
ACAD_ROUNDTRIP_2012_MLEADER_STYLE
298
     1
  0
XRECORD
  5
1E2
102
{ACAD_REACTORS
330
1E1
102
}
330
1E1
100
AcDbXrecord
280
     1
102
DISPLAYNAME
  1
Imperial24
102
FLAGS
 90
        0
  0
CELLSTYLEMAP
  5
1AB
102
{ACAD_REACTORS
330
1AA
102
}
330
1AA
100
AcDbCellStyleMap
 90
        3
300
CELLSTYLE
  1
TABLEFORMAT_BEGIN
 90
        5
170
     1
 91
        0
 92
    32768
 62
   257
 93
        1
300
CONTENTFORMAT
  1
CONTENTFORMAT_BEGIN
 90
        0
 91
        0
 92
      512
 93
        0
300

 40
0.0
140
1.0
 94
        5
 62
     0
340
55
144
0.25
309
CONTENTFORMAT_END
171
     0
 94
        0
309
TABLEFORMAT_END
  1
CELLSTYLE_BEGIN
 90
        1
 91
        1
300
_TITLE
309
CELLSTYLE_END
300
CELLSTYLE
  1
TABLEFORMAT_BEGIN
 90
        5
170
     1
 91
        0
 92
        0
 62
   257
 93
        1
300
CONTENTFORMAT
  1
CONTENTFORMAT_BEGIN
 90
        0
 91
        0
 92
      512
 93
        0
300

 40
0.0
140
1.0
 94
        5
 62
     0
340
55
144
0.18
309
CONTENTFORMAT_END
171
     0
 94
        0
309
TABLEFORMAT_END
  1
CELLSTYLE_BEGIN
 90
        2
 91
        1
300
_HEADER
309
CELLSTYLE_END
300
CELLSTYLE
  1
TABLEFORMAT_BEGIN
 90
        5
170
     1
 91
        0
 92
        0
 62
   257
 93
        1
300
CONTENTFORMAT
  1
CONTENTFORMAT_BEGIN
 90
        0
 91
        0
 92
      512
 93
        0
300

 40
0.0
140
1.0
 94
        2
 62
     0
340
55
144
0.18
309
CONTENTFORMAT_END
171
     0
 94
        0
309
TABLEFORMAT_END
  1
CELLSTYLE_BEGIN
 90
        3
 91
        2
300
_DATA
309
CELLSTYLE_END
  0
XRECORD
  5
1BA
102
{ACAD_REACTORS
330
1B9
102
}
330
1B9
100
AcDbXrecord
280
     1
102
RTVSPost2010Prop28
280
     1
102
RTVSPost2010PropOp28
 70
     1
102
RTVSPost2010Prop29
280
     1
102
RTVSPost2010PropOp29
 70
     1
102
RTVSPost2010Prop30
280
     0
102
RTVSPost2010PropOp30
 70
     1
102
RTVSPost2010Prop31
280
     0
102
RTVSPost2010PropOp31
 70
     1
102
RTVSPost2010Prop32
280
     0
102
RTVSPost2010PropOp32
 70
     1
102
RTVSPost2010Prop33
280
     0
102
RTVSPost2010PropOp33
 70
     1
102
RTVSPost2010Prop34
280
     0
102
RTVSPost2010PropOp34
 70
     1
102
RTVSPost2010Prop35
280
     0
102
RTVSPost2010PropOp35
 70
     1
102
RTVSPost2010Prop36
280
     0
102
RTVSPost2010PropOp36
 70
     1
102
RTVSPost2010Prop37
 90
       50
102
RTVSPost2010PropOp37
 70
     1
102
RTVSPost2010Prop38
140
0.0
102
RTVSPost2010PropOp38
 70
     1
102
RTVSPost2010Prop39
140
1.0
102
RTVSPost2010PropOp39
 70
     1
102
RTVSPost2010Prop40
 90
        0
102
RTVSPost2010PropOp40
 70
     1
102
RTVSPost2010Prop41ColorIndex
 90
       18
102
RTVSPost2010Prop41ColorRGB
 90
        0
102
RTVSPost2010PropOp41
 70
     1
102
RTVSPost2010Prop42
 90
       50
102
RTVSPost2010PropOp42
 70
     1
102
RTVSPost2010Prop43
 90
        3
102
RTVSPost2010PropOp43
 70
     1
102
RTVSPost2010Prop44ColorIndex
 90
        5
102
RTVSPost2010Prop44ColorRGB
 90
      255
102
RTVSPost2010PropOp44
 70
     1
102
RTVSPost2010Prop45
280
     0
102
RTVSPost2010PropOp45
 70
     1
102
RTVSPost2010Prop46
 90
       50
102
RTVSPost2010PropOp46
 70
     1
102
RTVSPost2010Prop47
 90
       50
102
RTVSPost2010PropOp47
 70
     1
102
RTVSPost2010Prop48
 90
       50
102
RTVSPost2010PropOp48
 70
     1
102
RTVSPost2010Prop49
280
     0
102
RTVSPost2010PropOp49
 70
     1
102
RTVSPost2010Prop50
 90
       50
102
RTVSPost2010PropOp50
 70
     1
102
RTVSPost2010Prop51ColorIndex
 90
      256
102
RTVSPost2010Prop51ColorRGB
 90
-16777216
102
RTVSPost2010PropOp51
 70
     0
102
RTVSPost2010Prop52
140
1.0
102
RTVSPost2010PropOp52
 70
     0
102
RTVSPost2010Prop53
 90
        2
102
RTVSPost2010PropOp53
 70
     1
102
RTVSPost2010Prop54
  1
strokes_ogs.tif
102
RTVSPost2010PropOp54
 70
     1
102
RTVSPost2010Prop55
280
     0
102
RTVSPost2010PropOp55
 70
     1
102
RTVSPost2010Prop56
140
1.0
102
RTVSPost2010PropOp56
 70
     1
102
RTVSPost2010Prop57
140
1.0
102
RTVSPost2010PropOp57
 70
     1
  0
XRECORD
  5
1B8
102
{ACAD_REACTORS
330
1B7
102
}
330
1B7
100
AcDbXrecord
280
     1
102
RTVSPost2010Prop28
280
     0
102
RTVSPost2010PropOp28
 70
     1
102
RTVSPost2010Prop29
280
     1
102
RTVSPost2010PropOp29
 70
     1
102
RTVSPost2010Prop30
280
     1
102
RTVSPost2010PropOp30
 70
     1
102
RTVSPost2010Prop31
280
     0
102
RTVSPost2010PropOp31
 70
     1
102
RTVSPost2010Prop32
280
     0
102
RTVSPost2010PropOp32
 70
     1
102
RTVSPost2010Prop33
280
     0
102
RTVSPost2010PropOp33
 70
     1
102
RTVSPost2010Prop34
280
     0
102
RTVSPost2010PropOp34
 70
     1
102
RTVSPost2010Prop35
280
     0
102
RTVSPost2010PropOp35
 70
     1
102
RTVSPost2010Prop36
280
     0
102
RTVSPost2010PropOp36
 70
     1
102
RTVSPost2010Prop37
 90
       50
102
RTVSPost2010PropOp37
 70
     1
102
RTVSPost2010Prop38
140
0.0
102
RTVSPost2010PropOp38
 70
     1
102
RTVSPost2010Prop39
140
1.0
102
RTVSPost2010PropOp39
 70
     1
102
RTVSPost2010Prop40
 90
        0
102
RTVSPost2010PropOp40
 70
     1
102
RTVSPost2010Prop41ColorIndex
 90
       18
102
RTVSPost2010Prop41ColorRGB
 90
        0
102
RTVSPost2010PropOp41
 70
     1
102
RTVSPost2010Prop42
 90
       50
102
RTVSPost2010PropOp42
 70
     1
102
RTVSPost2010Prop43
 90
        3
102
RTVSPost2010PropOp43
 70
     1
102
RTVSPost2010Prop44ColorIndex
 90
        5
102
RTVSPost2010Prop44ColorRGB
 90
      255
102
RTVSPost2010PropOp44
 70
     1
102
RTVSPost2010Prop45
280
     0
102
RTVSPost2010PropOp45
 70
     1
102
RTVSPost2010Prop46
 90
       50
102
RTVSPost2010PropOp46
 70
     1
102
RTVSPost2010Prop47
 90
       50
102
RTVSPost2010PropOp47
 70
     1
102
RTVSPost2010Prop48
 90
       50
102
RTVSPost2010PropOp48
 70
     1
102
RTVSPost2010Prop49
280
     0
102
RTVSPost2010PropOp49
 70
     1
102
RTVSPost2010Prop50
 90
       50
102
RTVSPost2010PropOp50
 70
     1
102
RTVSPost2010Prop51ColorIndex
 90
      256
102
RTVSPost2010Prop51ColorRGB
 90
-16777216
102
RTVSPost2010PropOp51
 70
     0
102
RTVSPost2010Prop52
140
1.0
102
RTVSPost2010PropOp52
 70
     0
102
RTVSPost2010Prop53
 90
        2
102
RTVSPost2010PropOp53
 70
     1
102
RTVSPost2010Prop54
  1
strokes_ogs.tif
102
RTVSPost2010PropOp54
 70
     1
102
RTVSPost2010Prop55
280
     0
102
RTVSPost2010PropOp55
 70
     1
102
RTVSPost2010Prop56
140
1.0
102
RTVSPost2010PropOp56
 70
     1
102
RTVSPost2010Prop57
140
1.0
102
RTVSPost2010PropOp57
 70
     1
  0
XRECORD
  5
1C6
102
{ACAD_REACTORS
330
1C5
102
}
330
1C5
100
AcDbXrecord
280
     1
102
RTVSPost2010Prop28
280
     0
102
RTVSPost2010PropOp28
 70
     1
102
RTVSPost2010Prop29
280
     1
102
RTVSPost2010PropOp29
 70
     1
102
RTVSPost2010Prop30
280
     1
102
RTVSPost2010PropOp30
 70
     1
102
RTVSPost2010Prop31
280
     0
102
RTVSPost2010PropOp31
 70
     1
102
RTVSPost2010Prop32
280
     0
102
RTVSPost2010PropOp32
 70
     1
102
RTVSPost2010Prop33
280
     0
102
RTVSPost2010PropOp33
 70
     1
102
RTVSPost2010Prop34
280
     0
102
RTVSPost2010PropOp34
 70
     1
102
RTVSPost2010Prop35
280
     0
102
RTVSPost2010PropOp35
 70
     1
102
RTVSPost2010Prop36
280
     0
102
RTVSPost2010PropOp36
 70
     1
102
RTVSPost2010Prop37
 90
       50
102
RTVSPost2010PropOp37
 70
     1
102
RTVSPost2010Prop38
140
0.0
102
RTVSPost2010PropOp38
 70
     1
102
RTVSPost2010Prop39
140
1.0
102
RTVSPost2010PropOp39
 70
     1
102
RTVSPost2010Prop40
 90
        0
102
RTVSPost2010PropOp40
 70
     1
102
RTVSPost2010Prop41ColorIndex
 90
       18
102
RTVSPost2010Prop41ColorRGB
 90
        0
102
RTVSPost2010PropOp41
 70
     1
102
RTVSPost2010Prop42
 90
       50
102
RTVSPost2010PropOp42
 70
     1
102
RTVSPost2010Prop43
 90
        3
102
RTVSPost2010PropOp43
 70
     1
102
RTVSPost2010Prop44ColorIndex
 90
        5
102
RTVSPost2010Prop44ColorRGB
 90
      255
102
RTVSPost2010PropOp44
 70
     1
102
RTVSPost2010Prop45
280
     0
102
RTVSPost2010PropOp45
 70
     1
102
RTVSPost2010Prop46
 90
       50
102
RTVSPost2010PropOp46
 70
     1
102
RTVSPost2010Prop47
 90
       50
102
RTVSPost2010PropOp47
 70
     1
102
RTVSPost2010Prop48
 90
       50
102
RTVSPost2010PropOp48
 70
     1
102
RTVSPost2010Prop49
280
     0
102
RTVSPost2010PropOp49
 70
     1
102
RTVSPost2010Prop50
 90
       50
102
RTVSPost2010PropOp50
 70
     1
102
RTVSPost2010Prop51ColorIndex
 90
      256
102
RTVSPost2010Prop51ColorRGB
 90
-16777216
102
RTVSPost2010PropOp51
 70
     0
102
RTVSPost2010Prop52
140
1.0
102
RTVSPost2010PropOp52
 70
     0
102
RTVSPost2010Prop53
 90
        2
102
RTVSPost2010PropOp53
 70
     1
102
RTVSPost2010Prop54
  1
strokes_ogs.tif
102
RTVSPost2010PropOp54
 70
     1
102
RTVSPost2010Prop55
280
     0
102
RTVSPost2010PropOp55
 70
     1
102
RTVSPost2010Prop56
140
1.0
102
RTVSPost2010PropOp56
 70
     1
102
RTVSPost2010Prop57
140
1.0
102
RTVSPost2010PropOp57
 70
     1
  0
XRECORD
  5
1CE
102
{ACAD_REACTORS
330
1CD
102
}
330
1CD
100
AcDbXrecord
280
     1
102
RTVSPost2010Prop28
280
     0
102
RTVSPost2010PropOp28
 70
     1
102
RTVSPost2010Prop29
280
     1
102
RTVSPost2010PropOp29
 70
     1
102
RTVSPost2010Prop30
280
     1
102
RTVSPost2010PropOp30
 70
     1
102
RTVSPost2010Prop31
280
     0
102
RTVSPost2010PropOp31
 70
     1
102
RTVSPost2010Prop32
280
     0
102
RTVSPost2010PropOp32
 70
     1
102
RTVSPost2010Prop33
280
     0
102
RTVSPost2010PropOp33
 70
     1
102
RTVSPost2010Prop34
280
     0
102
RTVSPost2010PropOp34
 70
     1
102
RTVSPost2010Prop35
280
     0
102
RTVSPost2010PropOp35
 70
     1
102
RTVSPost2010Prop36
280
     0
102
RTVSPost2010PropOp36
 70
     1
102
RTVSPost2010Prop37
 90
       50
102
RTVSPost2010PropOp37
 70
     1
102
RTVSPost2010Prop38
140
0.0
102
RTVSPost2010PropOp38
 70
     1
102
RTVSPost2010Prop39
140
1.0
102
RTVSPost2010PropOp39
 70
     1
102
RTVSPost2010Prop40
 90
        0
102
RTVSPost2010PropOp40
 70
     1
102
RTVSPost2010Prop41ColorIndex
 90
       18
102
RTVSPost2010Prop41ColorRGB
 90
        0
102
RTVSPost2010PropOp41
 70
     1
102
RTVSPost2010Prop42
 90
       50
102
RTVSPost2010PropOp42
 70
     1
102
RTVSPost2010Prop43
 90
        3
102
RTVSPost2010PropOp43
 70
     1
102
RTVSPost2010Prop44ColorIndex
 90
        5
102
RTVSPost2010Prop44ColorRGB
 90
      255
102
RTVSPost2010PropOp44
 70
     1
102
RTVSPost2010Prop45
280
     0
102
RTVSPost2010PropOp45
 70
     1
102
RTVSPost2010Prop46
 90
       50
102
RTVSPost2010PropOp46
 70
     1
102
RTVSPost2010Prop47
 90
       50
102
RTVSPost2010PropOp47
 70
     1
102
RTVSPost2010Prop48
 90
       50
102
RTVSPost2010PropOp48
 70
     1
102
RTVSPost2010Prop49
280
     0
102
RTVSPost2010PropOp49
 70
     1
102
RTVSPost2010Prop50
 90
       50
102
RTVSPost2010PropOp50
 70
     1
102
RTVSPost2010Prop51ColorIndex
 90
      256
102
RTVSPost2010Prop51ColorRGB
 90
-16777216
102
RTVSPost2010PropOp51
 70
     0
102
RTVSPost2010Prop52
140
1.0
102
RTVSPost2010PropOp52
 70
     0
102
RTVSPost2010Prop53
 90
        2
102
RTVSPost2010PropOp53
 70
     1
102
RTVSPost2010Prop54
  1
strokes_ogs.tif
102
RTVSPost2010PropOp54
 70
     1
102
RTVSPost2010Prop55
280
     0
102
RTVSPost2010PropOp55
 70
     1
102
RTVSPost2010Prop56
140
1.0
102
RTVSPost2010PropOp56
 70
     1
102
RTVSPost2010Prop57
140
1.0
102
RTVSPost2010PropOp57
 70
     1
  0
XRECORD
  5
1C0
102
{ACAD_REACTORS
330
1BF
102
}
330
1BF
100
AcDbXrecord
280
     1
102
RTVSPost2010Prop28
280
     0
102
RTVSPost2010PropOp28
 70
     1
102
RTVSPost2010Prop29
280
     1
102
RTVSPost2010PropOp29
 70
     1
102
RTVSPost2010Prop30
280
     1
102
RTVSPost2010PropOp30
 70
     1
102
RTVSPost2010Prop31
280
     0
102
RTVSPost2010PropOp31
 70
     1
102
RTVSPost2010Prop32
280
     0
102
RTVSPost2010PropOp32
 70
     1
102
RTVSPost2010Prop33
280
     0
102
RTVSPost2010PropOp33
 70
     1
102
RTVSPost2010Prop34
280
     0
102
RTVSPost2010PropOp34
 70
     1
102
RTVSPost2010Prop35
280
     0
102
RTVSPost2010PropOp35
 70
     1
102
RTVSPost2010Prop36
280
     0
102
RTVSPost2010PropOp36
 70
     1
102
RTVSPost2010Prop37
 90
       50
102
RTVSPost2010PropOp37
 70
     1
102
RTVSPost2010Prop38
140
0.0
102
RTVSPost2010PropOp38
 70
     1
102
RTVSPost2010Prop39
140
1.0
102
RTVSPost2010PropOp39
 70
     1
102
RTVSPost2010Prop40
 90
        0
102
RTVSPost2010PropOp40
 70
     1
102
RTVSPost2010Prop41ColorIndex
 90
       18
102
RTVSPost2010Prop41ColorRGB
 90
        0
102
RTVSPost2010PropOp41
 70
     1
102
RTVSPost2010Prop42
 90
       50
102
RTVSPost2010PropOp42
 70
     1
102
RTVSPost2010Prop43
 90
        3
102
RTVSPost2010PropOp43
 70
     1
102
RTVSPost2010Prop44ColorIndex
 90
        5
102
RTVSPost2010Prop44ColorRGB
 90
      255
102
RTVSPost2010PropOp44
 70
     1
102
RTVSPost2010Prop45
280
     0
102
RTVSPost2010PropOp45
 70
     1
102
RTVSPost2010Prop46
 90
       50
102
RTVSPost2010PropOp46
 70
     1
102
RTVSPost2010Prop47
 90
       50
102
RTVSPost2010PropOp47
 70
     1
102
RTVSPost2010Prop48
 90
       50
102
RTVSPost2010PropOp48
 70
     1
102
RTVSPost2010Prop49
280
     0
102
RTVSPost2010PropOp49
 70
     1
102
RTVSPost2010Prop50
 90
       50
102
RTVSPost2010PropOp50
 70
     1
102
RTVSPost2010Prop51ColorIndex
 90
      256
102
RTVSPost2010Prop51ColorRGB
 90
-16777216
102
RTVSPost2010PropOp51
 70
     0
102
RTVSPost2010Prop52
140
1.0
102
RTVSPost2010PropOp52
 70
     0
102
RTVSPost2010Prop53
 90
        2
102
RTVSPost2010PropOp53
 70
     1
102
RTVSPost2010Prop54
  1
strokes_ogs.tif
102
RTVSPost2010PropOp54
 70
     1
102
RTVSPost2010Prop55
280
     0
102
RTVSPost2010PropOp55
 70
     1
102
RTVSPost2010Prop56
140
1.0
102
RTVSPost2010PropOp56
 70
     1
102
RTVSPost2010Prop57
140
1.0
102
RTVSPost2010PropOp57
 70
     1
  0
XRECORD
  5
1C4
102
{ACAD_REACTORS
330
1C3
102
}
330
1C3
100
AcDbXrecord
280
     1
102
RTVSPost2010Prop28
280
     0
102
RTVSPost2010PropOp28
 70
     1
102
RTVSPost2010Prop29
280
     1
102
RTVSPost2010PropOp29
 70
     1
102
RTVSPost2010Prop30
280
     1
102
RTVSPost2010PropOp30
 70
     1
102
RTVSPost2010Prop31
280
     0
102
RTVSPost2010PropOp31
 70
     1
102
RTVSPost2010Prop32
280
     0
102
RTVSPost2010PropOp32
 70
     1
102
RTVSPost2010Prop33
280
     0
102
RTVSPost2010PropOp33
 70
     1
102
RTVSPost2010Prop34
280
     0
102
RTVSPost2010PropOp34
 70
     1
102
RTVSPost2010Prop35
280
     0
102
RTVSPost2010PropOp35
 70
     1
102
RTVSPost2010Prop36
280
     0
102
RTVSPost2010PropOp36
 70
     1
102
RTVSPost2010Prop37
 90
       50
102
RTVSPost2010PropOp37
 70
     1
102
RTVSPost2010Prop38
140
0.0
102
RTVSPost2010PropOp38
 70
     1
102
RTVSPost2010Prop39
140
1.0
102
RTVSPost2010PropOp39
 70
     1
102
RTVSPost2010Prop40
 90
        0
102
RTVSPost2010PropOp40
 70
     1
102
RTVSPost2010Prop41ColorIndex
 90
       18
102
RTVSPost2010Prop41ColorRGB
 90
        0
102
RTVSPost2010PropOp41
 70
     1
102
RTVSPost2010Prop42
 90
       50
102
RTVSPost2010PropOp42
 70
     1
102
RTVSPost2010Prop43
 90
        3
102
RTVSPost2010PropOp43
 70
     1
102
RTVSPost2010Prop44ColorIndex
 90
        5
102
RTVSPost2010Prop44ColorRGB
 90
      255
102
RTVSPost2010PropOp44
 70
     1
102
RTVSPost2010Prop45
280
     0
102
RTVSPost2010PropOp45
 70
     1
102
RTVSPost2010Prop46
 90
       50
102
RTVSPost2010PropOp46
 70
     1
102
RTVSPost2010Prop47
 90
       50
102
RTVSPost2010PropOp47
 70
     1
102
RTVSPost2010Prop48
 90
       50
102
RTVSPost2010PropOp48
 70
     1
102
RTVSPost2010Prop49
280
     0
102
RTVSPost2010PropOp49
 70
     1
102
RTVSPost2010Prop50
 90
       50
102
RTVSPost2010PropOp50
 70
     1
102
RTVSPost2010Prop51ColorIndex
 90
      256
102
RTVSPost2010Prop51ColorRGB
 90
-16777216
102
RTVSPost2010PropOp51
 70
     0
102
RTVSPost2010Prop52
140
1.0
102
RTVSPost2010PropOp52
 70
     0
102
RTVSPost2010Prop53
 90
        2
102
RTVSPost2010PropOp53
 70
     1
102
RTVSPost2010Prop54
  1
strokes_ogs.tif
102
RTVSPost2010PropOp54
 70
     1
102
RTVSPost2010Prop55
280
     0
102
RTVSPost2010PropOp55
 70
     1
102
RTVSPost2010Prop56
140
1.0
102
RTVSPost2010PropOp56
 70
     1
102
RTVSPost2010Prop57
140
1.0
102
RTVSPost2010PropOp57
 70
     1
  0
XRECORD
  5
1DE
102
{ACAD_REACTORS
330
1DD
102
}
330
1DD
100
AcDbXrecord
280
     1
102
RTVSPost2010Prop28
280
     0
102
RTVSPost2010PropOp28
 70
     0
102
RTVSPost2010Prop29
280
     1
102
RTVSPost2010PropOp29
 70
     0
102
RTVSPost2010Prop30
280
     1
102
RTVSPost2010PropOp30
 70
     0
102
RTVSPost2010Prop31
280
     0
102
RTVSPost2010PropOp31
 70
     0
102
RTVSPost2010Prop32
280
     0
102
RTVSPost2010PropOp32
 70
     0
102
RTVSPost2010Prop33
280
     0
102
RTVSPost2010PropOp33
 70
     0
102
RTVSPost2010Prop34
280
     0
102
RTVSPost2010PropOp34
 70
     0
102
RTVSPost2010Prop35
280
     0
102
RTVSPost2010PropOp35
 70
     0
102
RTVSPost2010Prop36
280
     0
102
RTVSPost2010PropOp36
 70
     0
102
RTVSPost2010Prop37
 90
       50
102
RTVSPost2010PropOp37
 70
     0
102
RTVSPost2010Prop38
140
0.0
102
RTVSPost2010PropOp38
 70
     0
102
RTVSPost2010Prop39
140
1.0
102
RTVSPost2010PropOp39
 70
     0
102
RTVSPost2010Prop40
 90
        0
102
RTVSPost2010PropOp40
 70
     0
102
RTVSPost2010Prop41ColorIndex
 90
       18
102
RTVSPost2010Prop41ColorRGB
 90
        0
102
RTVSPost2010PropOp41
 70
     0
102
RTVSPost2010Prop42
 90
       50
102
RTVSPost2010PropOp42
 70
     0
102
RTVSPost2010Prop43
 90
        3
102
RTVSPost2010PropOp43
 70
     0
102
RTVSPost2010Prop44ColorIndex
 90
        5
102
RTVSPost2010Prop44ColorRGB
 90
      255
102
RTVSPost2010PropOp44
 70
     0
102
RTVSPost2010Prop45
280
     0
102
RTVSPost2010PropOp45
 70
     0
102
RTVSPost2010Prop46
 90
       50
102
RTVSPost2010PropOp46
 70
     0
102
RTVSPost2010Prop47
 90
       50
102
RTVSPost2010PropOp47
 70
     0
102
RTVSPost2010Prop48
 90
       50
102
RTVSPost2010PropOp48
 70
     0
102
RTVSPost2010Prop49
280
     0
102
RTVSPost2010PropOp49
 70
     0
102
RTVSPost2010Prop50
 90
       50
102
RTVSPost2010PropOp50
 70
     0
102
RTVSPost2010Prop51ColorIndex
 90
      256
102
RTVSPost2010Prop51ColorRGB
 90
-16777216
102
RTVSPost2010PropOp51
 70
     0
102
RTVSPost2010Prop52
140
1.0
102
RTVSPost2010PropOp52
 70
     0
102
RTVSPost2010Prop53
 90
        2
102
RTVSPost2010PropOp53
 70
     0
102
RTVSPost2010Prop54
  1
strokes_ogs.tif
102
RTVSPost2010PropOp54
 70
     0
102
RTVSPost2010Prop55
280
     0
102
RTVSPost2010PropOp55
 70
     0
102
RTVSPost2010Prop56
140
1.0
102
RTVSPost2010PropOp56
 70
     0
102
RTVSPost2010Prop57
140
1.0
102
RTVSPost2010PropOp57
 70
     0
  0
XRECORD
  5
1CC
102
{ACAD_REACTORS
330
1CB
102
}
330
1CB
100
AcDbXrecord
280
     1
102
RTVSPost2010Prop28
280
     0
102
RTVSPost2010PropOp28
 70
     1
102
RTVSPost2010Prop29
280
     1
102
RTVSPost2010PropOp29
 70
     1
102
RTVSPost2010Prop30
280
     1
102
RTVSPost2010PropOp30
 70
     1
102
RTVSPost2010Prop31
280
     0
102
RTVSPost2010PropOp31
 70
     1
102
RTVSPost2010Prop32
280
     0
102
RTVSPost2010PropOp32
 70
     1
102
RTVSPost2010Prop33
280
     0
102
RTVSPost2010PropOp33
 70
     1
102
RTVSPost2010Prop34
280
     0
102
RTVSPost2010PropOp34
 70
     1
102
RTVSPost2010Prop35
280
     0
102
RTVSPost2010PropOp35
 70
     1
102
RTVSPost2010Prop36
280
     0
102
RTVSPost2010PropOp36
 70
     1
102
RTVSPost2010Prop37
 90
       50
102
RTVSPost2010PropOp37
 70
     1
102
RTVSPost2010Prop38
140
0.0
102
RTVSPost2010PropOp38
 70
     1
102
RTVSPost2010Prop39
140
1.0
102
RTVSPost2010PropOp39
 70
     1
102
RTVSPost2010Prop40
 90
        0
102
RTVSPost2010PropOp40
 70
     1
102
RTVSPost2010Prop41ColorIndex
 90
       18
102
RTVSPost2010Prop41ColorRGB
 90
        0
102
RTVSPost2010PropOp41
 70
     1
102
RTVSPost2010Prop42
 90
       50
102
RTVSPost2010PropOp42
 70
     1
102
RTVSPost2010Prop43
 90
        3
102
RTVSPost2010PropOp43
 70
     1
102
RTVSPost2010Prop44ColorIndex
 90
        5
102
RTVSPost2010Prop44ColorRGB
 90
      255
102
RTVSPost2010PropOp44
 70
     1
102
RTVSPost2010Prop45
280
     0
102
RTVSPost2010PropOp45
 70
     1
102
RTVSPost2010Prop46
 90
       50
102
RTVSPost2010PropOp46
 70
     1
102
RTVSPost2010Prop47
 90
       50
102
RTVSPost2010PropOp47
 70
     1
102
RTVSPost2010Prop48
 90
       50
102
RTVSPost2010PropOp48
 70
     1
102
RTVSPost2010Prop49
280
     0
102
RTVSPost2010PropOp49
 70
     1
102
RTVSPost2010Prop50
 90
       50
102
RTVSPost2010PropOp50
 70
     1
102
RTVSPost2010Prop51ColorIndex
 90
      256
102
RTVSPost2010Prop51ColorRGB
 90
-16777216
102
RTVSPost2010PropOp51
 70
     0
102
RTVSPost2010Prop52
140
1.0
102
RTVSPost2010PropOp52
 70
     0
102
RTVSPost2010Prop53
 90
        2
102
RTVSPost2010PropOp53
 70
     1
102
RTVSPost2010Prop54
  1
strokes_ogs.tif
102
RTVSPost2010PropOp54
 70
     1
102
RTVSPost2010Prop55
280
     0
102
RTVSPost2010PropOp55
 70
     1
102
RTVSPost2010Prop56
140
1.0
102
RTVSPost2010PropOp56
 70
     1
102
RTVSPost2010Prop57
140
1.0
102
RTVSPost2010PropOp57
 70
     1
  0
XRECORD
  5
1B0
102
{ACAD_REACTORS
330
1AF
102
}
330
1AF
100
AcDbXrecord
280
     1
102
RTVSPost2010Prop28
280
     0
102
RTVSPost2010PropOp28
 70
     1
102
RTVSPost2010Prop29
280
     1
102
RTVSPost2010PropOp29
 70
     1
102
RTVSPost2010Prop30
280
     1
102
RTVSPost2010PropOp30
 70
     1
102
RTVSPost2010Prop31
280
     0
102
RTVSPost2010PropOp31
 70
     1
102
RTVSPost2010Prop32
280
     0
102
RTVSPost2010PropOp32
 70
     1
102
RTVSPost2010Prop33
280
     0
102
RTVSPost2010PropOp33
 70
     1
102
RTVSPost2010Prop34
280
     0
102
RTVSPost2010PropOp34
 70
     1
102
RTVSPost2010Prop35
280
     0
102
RTVSPost2010PropOp35
 70
     1
102
RTVSPost2010Prop36
280
     0
102
RTVSPost2010PropOp36
 70
     1
102
RTVSPost2010Prop37
 90
       50
102
RTVSPost2010PropOp37
 70
     1
102
RTVSPost2010Prop38
140
0.0
102
RTVSPost2010PropOp38
 70
     1
102
RTVSPost2010Prop39
140
1.0
102
RTVSPost2010PropOp39
 70
     1
102
RTVSPost2010Prop40
 90
        0
102
RTVSPost2010PropOp40
 70
     1
102
RTVSPost2010Prop41ColorIndex
 90
       18
102
RTVSPost2010Prop41ColorRGB
 90
        0
102
RTVSPost2010PropOp41
 70
     1
102
RTVSPost2010Prop42
 90
       50
102
RTVSPost2010PropOp42
 70
     1
102
RTVSPost2010Prop43
 90
        3
102
RTVSPost2010PropOp43
 70
     1
102
RTVSPost2010Prop44ColorIndex
 90
        5
102
RTVSPost2010Prop44ColorRGB
 90
      255
102
RTVSPost2010PropOp44
 70
     1
102
RTVSPost2010Prop45
280
     0
102
RTVSPost2010PropOp45
 70
     1
102
RTVSPost2010Prop46
 90
       50
102
RTVSPost2010PropOp46
 70
     1
102
RTVSPost2010Prop47
 90
       50
102
RTVSPost2010PropOp47
 70
     1
102
RTVSPost2010Prop48
 90
       50
102
RTVSPost2010PropOp48
 70
     1
102
RTVSPost2010Prop49
280
     0
102
RTVSPost2010PropOp49
 70
     1
102
RTVSPost2010Prop50
 90
       50
102
RTVSPost2010PropOp50
 70
     1
102
RTVSPost2010Prop51ColorIndex
 90
      256
102
RTVSPost2010Prop51ColorRGB
 90
-16777216
102
RTVSPost2010PropOp51
 70
     0
102
RTVSPost2010Prop52
140
1.0
102
RTVSPost2010PropOp52
 70
     0
102
RTVSPost2010Prop53
 90
        2
102
RTVSPost2010PropOp53
 70
     1
102
RTVSPost2010Prop54
  1
strokes_ogs.tif
102
RTVSPost2010PropOp54
 70
     1
102
RTVSPost2010Prop55
280
     0
102
RTVSPost2010PropOp55
 70
     1
102
RTVSPost2010Prop56
140
1.0
102
RTVSPost2010PropOp56
 70
     1
102
RTVSPost2010Prop57
140
1.0
102
RTVSPost2010PropOp57
 70
     1
  0
XRECORD
  5
1B2
102
{ACAD_REACTORS
330
1B1
102
}
330
1B1
100
AcDbXrecord
280
     1
102
RTVSPost2010Prop28
280
     0
102
RTVSPost2010PropOp28
 70
     1
102
RTVSPost2010Prop29
280
     1
102
RTVSPost2010PropOp29
 70
     1
102
RTVSPost2010Prop30
280
     1
102
RTVSPost2010PropOp30
 70
     1
102
RTVSPost2010Prop31
280
     0
102
RTVSPost2010PropOp31
 70
     1
102
RTVSPost2010Prop32
280
     0
102
RTVSPost2010PropOp32
 70
     1
102
RTVSPost2010Prop33
280
     0
102
RTVSPost2010PropOp33
 70
     1
102
RTVSPost2010Prop34
280
     0
102
RTVSPost2010PropOp34
 70
     1
102
RTVSPost2010Prop35
280
     0
102
RTVSPost2010PropOp35
 70
     1
102
RTVSPost2010Prop36
280
     0
102
RTVSPost2010PropOp36
 70
     1
102
RTVSPost2010Prop37
 90
       50
102
RTVSPost2010PropOp37
 70
     1
102
RTVSPost2010Prop38
140
0.0
102
RTVSPost2010PropOp38
 70
     1
102
RTVSPost2010Prop39
140
1.0
102
RTVSPost2010PropOp39
 70
     1
102
RTVSPost2010Prop40
 90
        0
102
RTVSPost2010PropOp40
 70
     1
102
RTVSPost2010Prop41ColorIndex
 90
       18
102
RTVSPost2010Prop41ColorRGB
 90
        0
102
RTVSPost2010PropOp41
 70
     1
102
RTVSPost2010Prop42
 90
       50
102
RTVSPost2010PropOp42
 70
     1
102
RTVSPost2010Prop43
 90
        3
102
RTVSPost2010PropOp43
 70
     1
102
RTVSPost2010Prop44ColorIndex
 90
        5
102
RTVSPost2010Prop44ColorRGB
 90
      255
102
RTVSPost2010PropOp44
 70
     1
102
RTVSPost2010Prop45
280
     0
102
RTVSPost2010PropOp45
 70
     1
102
RTVSPost2010Prop46
 90
       50
102
RTVSPost2010PropOp46
 70
     1
102
RTVSPost2010Prop47
 90
       50
102
RTVSPost2010PropOp47
 70
     1
102
RTVSPost2010Prop48
 90
       50
102
RTVSPost2010PropOp48
 70
     1
102
RTVSPost2010Prop49
280
     0
102
RTVSPost2010PropOp49
 70
     1
102
RTVSPost2010Prop50
 90
       50
102
RTVSPost2010PropOp50
 70
     1
102
RTVSPost2010Prop51ColorIndex
 90
      256
102
RTVSPost2010Prop51ColorRGB
 90
-16777216
102
RTVSPost2010PropOp51
 70
     0
102
RTVSPost2010Prop52
140
1.0
102
RTVSPost2010PropOp52
 70
     0
102
RTVSPost2010Prop53
 90
        2
102
RTVSPost2010PropOp53
 70
     1
102
RTVSPost2010Prop54
  1
strokes_ogs.tif
102
RTVSPost2010PropOp54
 70
     1
102
RTVSPost2010Prop55
280
     0
102
RTVSPost2010PropOp55
 70
     1
102
RTVSPost2010Prop56
140
1.0
102
RTVSPost2010PropOp56
 70
     1
102
RTVSPost2010Prop57
140
1.0
102
RTVSPost2010PropOp57
 70
     1
  0
XRECORD
  5
1B4
102
{ACAD_REACTORS
330
1B3
102
}
330
1B3
100
AcDbXrecord
280
     1
102
RTVSPost2010Prop28
280
     0
102
RTVSPost2010PropOp28
 70
     1
102
RTVSPost2010Prop29
280
     1
102
RTVSPost2010PropOp29
 70
     1
102
RTVSPost2010Prop30
280
     1
102
RTVSPost2010PropOp30
 70
     1
102
RTVSPost2010Prop31
280
     0
102
RTVSPost2010PropOp31
 70
     1
102
RTVSPost2010Prop32
280
     0
102
RTVSPost2010PropOp32
 70
     1
102
RTVSPost2010Prop33
280
     0
102
RTVSPost2010PropOp33
 70
     1
102
RTVSPost2010Prop34
280
     0
102
RTVSPost2010PropOp34
 70
     1
102
RTVSPost2010Prop35
280
     0
102
RTVSPost2010PropOp35
 70
     1
102
RTVSPost2010Prop36
280
     0
102
RTVSPost2010PropOp36
 70
     1
102
RTVSPost2010Prop37
 90
       50
102
RTVSPost2010PropOp37
 70
     1
102
RTVSPost2010Prop38
140
0.0
102
RTVSPost2010PropOp38
 70
     1
102
RTVSPost2010Prop39
140
1.0
102
RTVSPost2010PropOp39
 70
     1
102
RTVSPost2010Prop40
 90
        0
102
RTVSPost2010PropOp40
 70
     1
102
RTVSPost2010Prop41ColorIndex
 90
       18
102
RTVSPost2010Prop41ColorRGB
 90
        0
102
RTVSPost2010PropOp41
 70
     1
102
RTVSPost2010Prop42
 90
       50
102
RTVSPost2010PropOp42
 70
     1
102
RTVSPost2010Prop43
 90
        3
102
RTVSPost2010PropOp43
 70
     1
102
RTVSPost2010Prop44ColorIndex
 90
        5
102
RTVSPost2010Prop44ColorRGB
 90
      255
102
RTVSPost2010PropOp44
 70
     1
102
RTVSPost2010Prop45
280
     0
102
RTVSPost2010PropOp45
 70
     1
102
RTVSPost2010Prop46
 90
       50
102
RTVSPost2010PropOp46
 70
     1
102
RTVSPost2010Prop47
 90
       50
102
RTVSPost2010PropOp47
 70
     1
102
RTVSPost2010Prop48
 90
       50
102
RTVSPost2010PropOp48
 70
     1
102
RTVSPost2010Prop49
280
     0
102
RTVSPost2010PropOp49
 70
     1
102
RTVSPost2010Prop50
 90
       50
102
RTVSPost2010PropOp50
 70
     1
102
RTVSPost2010Prop51ColorIndex
 90
      256
102
RTVSPost2010Prop51ColorRGB
 90
-16777216
102
RTVSPost2010PropOp51
 70
     0
102
RTVSPost2010Prop52
140
1.0
102
RTVSPost2010PropOp52
 70
     0
102
RTVSPost2010Prop53
 90
        2
102
RTVSPost2010PropOp53
 70
     1
102
RTVSPost2010Prop54
  1
strokes_ogs.tif
102
RTVSPost2010PropOp54
 70
     1
102
RTVSPost2010Prop55
280
     0
102
RTVSPost2010PropOp55
 70
     1
102
RTVSPost2010Prop56
140
1.0
102
RTVSPost2010PropOp56
 70
     1
102
RTVSPost2010Prop57
140
1.0
102
RTVSPost2010PropOp57
 70
     1
  0
XRECORD
  5
1B6
102
{ACAD_REACTORS
330
1B5
102
}
330
1B5
100
AcDbXrecord
280
     1
102
RTVSPost2010Prop28
280
     0
102
RTVSPost2010PropOp28
 70
     1
102
RTVSPost2010Prop29
280
     1
102
RTVSPost2010PropOp29
 70
     1
102
RTVSPost2010Prop30
280
     1
102
RTVSPost2010PropOp30
 70
     1
102
RTVSPost2010Prop31
280
     0
102
RTVSPost2010PropOp31
 70
     1
102
RTVSPost2010Prop32
280
     0
102
RTVSPost2010PropOp32
 70
     1
102
RTVSPost2010Prop33
280
     0
102
RTVSPost2010PropOp33
 70
     1
102
RTVSPost2010Prop34
280
     0
102
RTVSPost2010PropOp34
 70
     1
102
RTVSPost2010Prop35
280
     0
102
RTVSPost2010PropOp35
 70
     1
102
RTVSPost2010Prop36
280
     0
102
RTVSPost2010PropOp36
 70
     1
102
RTVSPost2010Prop37
 90
       50
102
RTVSPost2010PropOp37
 70
     1
102
RTVSPost2010Prop38
140
0.0
102
RTVSPost2010PropOp38
 70
     1
102
RTVSPost2010Prop39
140
1.0
102
RTVSPost2010PropOp39
 70
     1
102
RTVSPost2010Prop40
 90
        0
102
RTVSPost2010PropOp40
 70
     1
102
RTVSPost2010Prop41ColorIndex
 90
       18
102
RTVSPost2010Prop41ColorRGB
 90
        0
102
RTVSPost2010PropOp41
 70
     1
102
RTVSPost2010Prop42
 90
       50
102
RTVSPost2010PropOp42
 70
     1
102
RTVSPost2010Prop43
 90
        3
102
RTVSPost2010PropOp43
 70
     1
102
RTVSPost2010Prop44ColorIndex
 90
        5
102
RTVSPost2010Prop44ColorRGB
 90
      255
102
RTVSPost2010PropOp44
 70
     1
102
RTVSPost2010Prop45
280
     0
102
RTVSPost2010PropOp45
 70
     1
102
RTVSPost2010Prop46
 90
       50
102
RTVSPost2010PropOp46
 70
     1
102
RTVSPost2010Prop47
 90
       50
102
RTVSPost2010PropOp47
 70
     1
102
RTVSPost2010Prop48
 90
       50
102
RTVSPost2010PropOp48
 70
     1
102
RTVSPost2010Prop49
280
     0
102
RTVSPost2010PropOp49
 70
     1
102
RTVSPost2010Prop50
 90
       50
102
RTVSPost2010PropOp50
 70
     1
102
RTVSPost2010Prop51ColorIndex
 90
      256
102
RTVSPost2010Prop51ColorRGB
 90
-16777216
102
RTVSPost2010PropOp51
 70
     0
102
RTVSPost2010Prop52
140
1.0
102
RTVSPost2010PropOp52
 70
     0
102
RTVSPost2010Prop53
 90
        2
102
RTVSPost2010PropOp53
 70
     1
102
RTVSPost2010Prop54
  1
strokes_ogs.tif
102
RTVSPost2010PropOp54
 70
     1
102
RTVSPost2010Prop55
280
     0
102
RTVSPost2010PropOp55
 70
     1
102
RTVSPost2010Prop56
140
1.0
102
RTVSPost2010PropOp56
 70
     1
102
RTVSPost2010Prop57
140
1.0
102
RTVSPost2010PropOp57
 70
     1
  0
XRECORD
  5
1BE
102
{ACAD_REACTORS
330
1BD
102
}
330
1BD
100
AcDbXrecord
280
     1
102
RTVSPost2010Prop28
280
     0
102
RTVSPost2010PropOp28
 70
     1
102
RTVSPost2010Prop29
280
     1
102
RTVSPost2010PropOp29
 70
     1
102
RTVSPost2010Prop30
280
     1
102
RTVSPost2010PropOp30
 70
     1
102
RTVSPost2010Prop31
280
     0
102
RTVSPost2010PropOp31
 70
     1
102
RTVSPost2010Prop32
280
     0
102
RTVSPost2010PropOp32
 70
     1
102
RTVSPost2010Prop33
280
     0
102
RTVSPost2010PropOp33
 70
     1
102
RTVSPost2010Prop34
280
     0
102
RTVSPost2010PropOp34
 70
     1
102
RTVSPost2010Prop35
280
     0
102
RTVSPost2010PropOp35
 70
     1
102
RTVSPost2010Prop36
280
     0
102
RTVSPost2010PropOp36
 70
     1
102
RTVSPost2010Prop37
 90
       50
102
RTVSPost2010PropOp37
 70
     1
102
RTVSPost2010Prop38
140
0.0
102
RTVSPost2010PropOp38
 70
     1
102
RTVSPost2010Prop39
140
1.0
102
RTVSPost2010PropOp39
 70
     1
102
RTVSPost2010Prop40
 90
        0
102
RTVSPost2010PropOp40
 70
     1
102
RTVSPost2010Prop41ColorIndex
 90
       18
102
RTVSPost2010Prop41ColorRGB
 90
        0
102
RTVSPost2010PropOp41
 70
     1
102
RTVSPost2010Prop42
 90
       50
102
RTVSPost2010PropOp42
 70
     1
102
RTVSPost2010Prop43
 90
        3
102
RTVSPost2010PropOp43
 70
     1
102
RTVSPost2010Prop44ColorIndex
 90
        5
102
RTVSPost2010Prop44ColorRGB
 90
      255
102
RTVSPost2010PropOp44
 70
     1
102
RTVSPost2010Prop45
280
     0
102
RTVSPost2010PropOp45
 70
     1
102
RTVSPost2010Prop46
 90
       50
102
RTVSPost2010PropOp46
 70
     1
102
RTVSPost2010Prop47
 90
       50
102
RTVSPost2010PropOp47
 70
     1
102
RTVSPost2010Prop48
 90
       50
102
RTVSPost2010PropOp48
 70
     1
102
RTVSPost2010Prop49
280
     0
102
RTVSPost2010PropOp49
 70
     1
102
RTVSPost2010Prop50
 90
       50
102
RTVSPost2010PropOp50
 70
     1
102
RTVSPost2010Prop51ColorIndex
 90
      256
102
RTVSPost2010Prop51ColorRGB
 90
-16777216
102
RTVSPost2010PropOp51
 70
     0
102
RTVSPost2010Prop52
140
1.0
102
RTVSPost2010PropOp52
 70
     0
102
RTVSPost2010Prop53
 90
        2
102
RTVSPost2010PropOp53
 70
     1
102
RTVSPost2010Prop54
  1
strokes_ogs.tif
102
RTVSPost2010PropOp54
 70
     1
102
RTVSPost2010Prop55
280
     0
102
RTVSPost2010PropOp55
 70
     1
102
RTVSPost2010Prop56
140
1.0
102
RTVSPost2010PropOp56
 70
     1
102
RTVSPost2010Prop57
140
1.0
102
RTVSPost2010PropOp57
 70
     1
  0
XRECORD
  5
1DA
102
{ACAD_REACTORS
330
1D9
102
}
330
1D9
100
AcDbXrecord
280
     1
102
RTVSPost2010Prop28
280
     0
102
RTVSPost2010PropOp28
 70
     0
102
RTVSPost2010Prop29
280
     1
102
RTVSPost2010PropOp29
 70
     0
102
RTVSPost2010Prop30
280
     1
102
RTVSPost2010PropOp30
 70
     0
102
RTVSPost2010Prop31
280
     0
102
RTVSPost2010PropOp31
 70
     0
102
RTVSPost2010Prop32
280
     0
102
RTVSPost2010PropOp32
 70
     0
102
RTVSPost2010Prop33
280
     0
102
RTVSPost2010PropOp33
 70
     0
102
RTVSPost2010Prop34
280
     0
102
RTVSPost2010PropOp34
 70
     0
102
RTVSPost2010Prop35
280
     0
102
RTVSPost2010PropOp35
 70
     0
102
RTVSPost2010Prop36
280
     0
102
RTVSPost2010PropOp36
 70
     0
102
RTVSPost2010Prop37
 90
       50
102
RTVSPost2010PropOp37
 70
     0
102
RTVSPost2010Prop38
140
0.0
102
RTVSPost2010PropOp38
 70
     0
102
RTVSPost2010Prop39
140
1.0
102
RTVSPost2010PropOp39
 70
     0
102
RTVSPost2010Prop40
 90
        0
102
RTVSPost2010PropOp40
 70
     0
102
RTVSPost2010Prop41ColorIndex
 90
       18
102
RTVSPost2010Prop41ColorRGB
 90
        0
102
RTVSPost2010PropOp41
 70
     0
102
RTVSPost2010Prop42
 90
       50
102
RTVSPost2010PropOp42
 70
     0
102
RTVSPost2010Prop43
 90
        3
102
RTVSPost2010PropOp43
 70
     0
102
RTVSPost2010Prop44ColorIndex
 90
        5
102
RTVSPost2010Prop44ColorRGB
 90
      255
102
RTVSPost2010PropOp44
 70
     0
102
RTVSPost2010Prop45
280
     0
102
RTVSPost2010PropOp45
 70
     0
102
RTVSPost2010Prop46
 90
       50
102
RTVSPost2010PropOp46
 70
     0
102
RTVSPost2010Prop47
 90
       50
102
RTVSPost2010PropOp47
 70
     0
102
RTVSPost2010Prop48
 90
       50
102
RTVSPost2010PropOp48
 70
     0
102
RTVSPost2010Prop49
280
     0
102
RTVSPost2010PropOp49
 70
     0
102
RTVSPost2010Prop50
 90
       50
102
RTVSPost2010PropOp50
 70
     0
102
RTVSPost2010Prop51ColorIndex
 90
      256
102
RTVSPost2010Prop51ColorRGB
 90
-16777216
102
RTVSPost2010PropOp51
 70
     0
102
RTVSPost2010Prop52
140
1.0
102
RTVSPost2010PropOp52
 70
     0
102
RTVSPost2010Prop53
 90
        2
102
RTVSPost2010PropOp53
 70
     0
102
RTVSPost2010Prop54
  1
strokes_ogs.tif
102
RTVSPost2010PropOp54
 70
     0
102
RTVSPost2010Prop55
280
     0
102
RTVSPost2010PropOp55
 70
     0
102
RTVSPost2010Prop56
140
1.0
102
RTVSPost2010PropOp56
 70
     0
102
RTVSPost2010Prop57
140
1.0
102
RTVSPost2010PropOp57
 70
     0
  0
XRECORD
  5
1CA
102
{ACAD_REACTORS
330
1C9
102
}
330
1C9
100
AcDbXrecord
280
     1
102
RTVSPost2010Prop28
280
     0
102
RTVSPost2010PropOp28
 70
     1
102
RTVSPost2010Prop29
280
     1
102
RTVSPost2010PropOp29
 70
     1
102
RTVSPost2010Prop30
280
     1
102
RTVSPost2010PropOp30
 70
     1
102
RTVSPost2010Prop31
280
     0
102
RTVSPost2010PropOp31
 70
     1
102
RTVSPost2010Prop32
280
     0
102
RTVSPost2010PropOp32
 70
     1
102
RTVSPost2010Prop33
280
     0
102
RTVSPost2010PropOp33
 70
     1
102
RTVSPost2010Prop34
280
     0
102
RTVSPost2010PropOp34
 70
     1
102
RTVSPost2010Prop35
280
     0
102
RTVSPost2010PropOp35
 70
     1
102
RTVSPost2010Prop36
280
     0
102
RTVSPost2010PropOp36
 70
     1
102
RTVSPost2010Prop37
 90
       50
102
RTVSPost2010PropOp37
 70
     1
102
RTVSPost2010Prop38
140
0.0
102
RTVSPost2010PropOp38
 70
     1
102
RTVSPost2010Prop39
140
1.0
102
RTVSPost2010PropOp39
 70
     1
102
RTVSPost2010Prop40
 90
        0
102
RTVSPost2010PropOp40
 70
     1
102
RTVSPost2010Prop41ColorIndex
 90
       18
102
RTVSPost2010Prop41ColorRGB
 90
        0
102
RTVSPost2010PropOp41
 70
     1
102
RTVSPost2010Prop42
 90
       50
102
RTVSPost2010PropOp42
 70
     1
102
RTVSPost2010Prop43
 90
        3
102
RTVSPost2010PropOp43
 70
     1
102
RTVSPost2010Prop44ColorIndex
 90
        5
102
RTVSPost2010Prop44ColorRGB
 90
      255
102
RTVSPost2010PropOp44
 70
     1
102
RTVSPost2010Prop45
280
     0
102
RTVSPost2010PropOp45
 70
     1
102
RTVSPost2010Prop46
 90
       50
102
RTVSPost2010PropOp46
 70
     1
102
RTVSPost2010Prop47
 90
       50
102
RTVSPost2010PropOp47
 70
     1
102
RTVSPost2010Prop48
 90
       50
102
RTVSPost2010PropOp48
 70
     1
102
RTVSPost2010Prop49
280
     0
102
RTVSPost2010PropOp49
 70
     1
102
RTVSPost2010Prop50
 90
       50
102
RTVSPost2010PropOp50
 70
     1
102
RTVSPost2010Prop51ColorIndex
 90
      256
102
RTVSPost2010Prop51ColorRGB
 90
-16777216
102
RTVSPost2010PropOp51
 70
     0
102
RTVSPost2010Prop52
140
1.0
102
RTVSPost2010PropOp52
 70
     0
102
RTVSPost2010Prop53
 90
        2
102
RTVSPost2010PropOp53
 70
     1
102
RTVSPost2010Prop54
  1
strokes_ogs.tif
102
RTVSPost2010PropOp54
 70
     1
102
RTVSPost2010Prop55
280
     0
102
RTVSPost2010PropOp55
 70
     1
102
RTVSPost2010Prop56
140
1.0
102
RTVSPost2010PropOp56
 70
     1
102
RTVSPost2010Prop57
140
1.0
102
RTVSPost2010PropOp57
 70
     1
  0
XRECORD
  5
1DC
102
{ACAD_REACTORS
330
1DB
102
}
330
1DB
100
AcDbXrecord
280
     1
102
RTVSPost2010Prop28
280
     0
102
RTVSPost2010PropOp28
 70
     0
102
RTVSPost2010Prop29
280
     1
102
RTVSPost2010PropOp29
 70
     0
102
RTVSPost2010Prop30
280
     1
102
RTVSPost2010PropOp30
 70
     0
102
RTVSPost2010Prop31
280
     0
102
RTVSPost2010PropOp31
 70
     0
102
RTVSPost2010Prop32
280
     0
102
RTVSPost2010PropOp32
 70
     0
102
RTVSPost2010Prop33
280
     0
102
RTVSPost2010PropOp33
 70
     0
102
RTVSPost2010Prop34
280
     0
102
RTVSPost2010PropOp34
 70
     0
102
RTVSPost2010Prop35
280
     0
102
RTVSPost2010PropOp35
 70
     0
102
RTVSPost2010Prop36
280
     0
102
RTVSPost2010PropOp36
 70
     0
102
RTVSPost2010Prop37
 90
       50
102
RTVSPost2010PropOp37
 70
     0
102
RTVSPost2010Prop38
140
0.0
102
RTVSPost2010PropOp38
 70
     0
102
RTVSPost2010Prop39
140
1.0
102
RTVSPost2010PropOp39
 70
     0
102
RTVSPost2010Prop40
 90
        0
102
RTVSPost2010PropOp40
 70
     0
102
RTVSPost2010Prop41ColorIndex
 90
       18
102
RTVSPost2010Prop41ColorRGB
 90
        0
102
RTVSPost2010PropOp41
 70
     0
102
RTVSPost2010Prop42
 90
       50
102
RTVSPost2010PropOp42
 70
     0
102
RTVSPost2010Prop43
 90
        3
102
RTVSPost2010PropOp43
 70
     0
102
RTVSPost2010Prop44ColorIndex
 90
        5
102
RTVSPost2010Prop44ColorRGB
 90
      255
102
RTVSPost2010PropOp44
 70
     0
102
RTVSPost2010Prop45
280
     0
102
RTVSPost2010PropOp45
 70
     0
102
RTVSPost2010Prop46
 90
       50
102
RTVSPost2010PropOp46
 70
     0
102
RTVSPost2010Prop47
 90
       50
102
RTVSPost2010PropOp47
 70
     0
102
RTVSPost2010Prop48
 90
       50
102
RTVSPost2010PropOp48
 70
     0
102
RTVSPost2010Prop49
280
     0
102
RTVSPost2010PropOp49
 70
     0
102
RTVSPost2010Prop50
 90
       50
102
RTVSPost2010PropOp50
 70
     0
102
RTVSPost2010Prop51ColorIndex
 90
      256
102
RTVSPost2010Prop51ColorRGB
 90
-16777216
102
RTVSPost2010PropOp51
 70
     0
102
RTVSPost2010Prop52
140
1.0
102
RTVSPost2010PropOp52
 70
     0
102
RTVSPost2010Prop53
 90
        2
102
RTVSPost2010PropOp53
 70
     0
102
RTVSPost2010Prop54
  1
strokes_ogs.tif
102
RTVSPost2010PropOp54
 70
     0
102
RTVSPost2010Prop55
280
     0
102
RTVSPost2010PropOp55
 70
     0
102
RTVSPost2010Prop56
140
1.0
102
RTVSPost2010PropOp56
 70
     0
102
RTVSPost2010Prop57
140
1.0
102
RTVSPost2010PropOp57
 70
     0
  0
XRECORD
  5
1C2
102
{ACAD_REACTORS
330
1C1
102
}
330
1C1
100
AcDbXrecord
280
     1
102
RTVSPost2010Prop28
280
     0
102
RTVSPost2010PropOp28
 70
     1
102
RTVSPost2010Prop29
280
     1
102
RTVSPost2010PropOp29
 70
     1
102
RTVSPost2010Prop30
280
     1
102
RTVSPost2010PropOp30
 70
     1
102
RTVSPost2010Prop31
280
     0
102
RTVSPost2010PropOp31
 70
     1
102
RTVSPost2010Prop32
280
     0
102
RTVSPost2010PropOp32
 70
     1
102
RTVSPost2010Prop33
280
     0
102
RTVSPost2010PropOp33
 70
     1
102
RTVSPost2010Prop34
280
     0
102
RTVSPost2010PropOp34
 70
     1
102
RTVSPost2010Prop35
280
     0
102
RTVSPost2010PropOp35
 70
     1
102
RTVSPost2010Prop36
280
     0
102
RTVSPost2010PropOp36
 70
     1
102
RTVSPost2010Prop37
 90
       50
102
RTVSPost2010PropOp37
 70
     1
102
RTVSPost2010Prop38
140
0.0
102
RTVSPost2010PropOp38
 70
     1
102
RTVSPost2010Prop39
140
1.0
102
RTVSPost2010PropOp39
 70
     1
102
RTVSPost2010Prop40
 90
        0
102
RTVSPost2010PropOp40
 70
     1
102
RTVSPost2010Prop41ColorIndex
 90
       18
102
RTVSPost2010Prop41ColorRGB
 90
        0
102
RTVSPost2010PropOp41
 70
     1
102
RTVSPost2010Prop42
 90
       50
102
RTVSPost2010PropOp42
 70
     1
102
RTVSPost2010Prop43
 90
        3
102
RTVSPost2010PropOp43
 70
     1
102
RTVSPost2010Prop44ColorIndex
 90
        5
102
RTVSPost2010Prop44ColorRGB
 90
      255
102
RTVSPost2010PropOp44
 70
     1
102
RTVSPost2010Prop45
280
     0
102
RTVSPost2010PropOp45
 70
     1
102
RTVSPost2010Prop46
 90
       50
102
RTVSPost2010PropOp46
 70
     1
102
RTVSPost2010Prop47
 90
       50
102
RTVSPost2010PropOp47
 70
     1
102
RTVSPost2010Prop48
 90
       50
102
RTVSPost2010PropOp48
 70
     1
102
RTVSPost2010Prop49
280
     0
102
RTVSPost2010PropOp49
 70
     1
102
RTVSPost2010Prop50
 90
       50
102
RTVSPost2010PropOp50
 70
     1
102
RTVSPost2010Prop51ColorIndex
 90
      256
102
RTVSPost2010Prop51ColorRGB
 90
-16777216
102
RTVSPost2010PropOp51
 70
     0
102
RTVSPost2010Prop52
140
1.0
102
RTVSPost2010PropOp52
 70
     0
102
RTVSPost2010Prop53
 90
        2
102
RTVSPost2010PropOp53
 70
     1
102
RTVSPost2010Prop54
  1
strokes_ogs.tif
102
RTVSPost2010PropOp54
 70
     1
102
RTVSPost2010Prop55
280
     0
102
RTVSPost2010PropOp55
 70
     1
102
RTVSPost2010Prop56
140
1.0
102
RTVSPost2010PropOp56
 70
     1
102
RTVSPost2010Prop57
140
1.0
102
RTVSPost2010PropOp57
 70
     1
  0
XRECORD
  5
1D8
102
{ACAD_REACTORS
330
1D7
102
}
330
1D7
100
AcDbXrecord
280
     1
102
RTVSPost2010Prop28
280
     0
102
RTVSPost2010PropOp28
 70
     1
102
RTVSPost2010Prop29
280
     1
102
RTVSPost2010PropOp29
 70
     1
102
RTVSPost2010Prop30
280
     1
102
RTVSPost2010PropOp30
 70
     1
102
RTVSPost2010Prop31
280
     0
102
RTVSPost2010PropOp31
 70
     1
102
RTVSPost2010Prop32
280
     0
102
RTVSPost2010PropOp32
 70
     1
102
RTVSPost2010Prop33
280
     0
102
RTVSPost2010PropOp33
 70
     1
102
RTVSPost2010Prop34
280
     0
102
RTVSPost2010PropOp34
 70
     1
102
RTVSPost2010Prop35
280
     0
102
RTVSPost2010PropOp35
 70
     1
102
RTVSPost2010Prop36
280
     0
102
RTVSPost2010PropOp36
 70
     1
102
RTVSPost2010Prop37
 90
       50
102
RTVSPost2010PropOp37
 70
     1
102
RTVSPost2010Prop38
140
0.0
102
RTVSPost2010PropOp38
 70
     1
102
RTVSPost2010Prop39
140
1.0
102
RTVSPost2010PropOp39
 70
     1
102
RTVSPost2010Prop40
 90
        0
102
RTVSPost2010PropOp40
 70
     1
102
RTVSPost2010Prop41ColorIndex
 90
       18
102
RTVSPost2010Prop41ColorRGB
 90
        0
102
RTVSPost2010PropOp41
 70
     1
102
RTVSPost2010Prop42
 90
       50
102
RTVSPost2010PropOp42
 70
     1
102
RTVSPost2010Prop43
 90
        3
102
RTVSPost2010PropOp43
 70
     1
102
RTVSPost2010Prop44ColorIndex
 90
        5
102
RTVSPost2010Prop44ColorRGB
 90
      255
102
RTVSPost2010PropOp44
 70
     1
102
RTVSPost2010Prop45
280
     0
102
RTVSPost2010PropOp45
 70
     1
102
RTVSPost2010Prop46
 90
       50
102
RTVSPost2010PropOp46
 70
     1
102
RTVSPost2010Prop47
 90
       50
102
RTVSPost2010PropOp47
 70
     1
102
RTVSPost2010Prop48
 90
       50
102
RTVSPost2010PropOp48
 70
     1
102
RTVSPost2010Prop49
280
     0
102
RTVSPost2010PropOp49
 70
     1
102
RTVSPost2010Prop50
 90
       50
102
RTVSPost2010PropOp50
 70
     1
102
RTVSPost2010Prop51ColorIndex
 90
      256
102
RTVSPost2010Prop51ColorRGB
 90
-16777216
102
RTVSPost2010PropOp51
 70
     0
102
RTVSPost2010Prop52
140
1.0
102
RTVSPost2010PropOp52
 70
     0
102
RTVSPost2010Prop53
 90
        2
102
RTVSPost2010PropOp53
 70
     1
102
RTVSPost2010Prop54
  1
strokes_ogs.tif
102
RTVSPost2010PropOp54
 70
     1
102
RTVSPost2010Prop55
280
     0
102
RTVSPost2010PropOp55
 70
     1
102
RTVSPost2010Prop56
140
1.0
102
RTVSPost2010PropOp56
 70
     1
102
RTVSPost2010Prop57
140
1.0
102
RTVSPost2010PropOp57
 70
     1
  0
XRECORD
  5
1D6
102
{ACAD_REACTORS
330
1D5
102
}
330
1D5
100
AcDbXrecord
280
     1
102
RTVSPost2010Prop28
280
     0
102
RTVSPost2010PropOp28
 70
     1
102
RTVSPost2010Prop29
280
     1
102
RTVSPost2010PropOp29
 70
     1
102
RTVSPost2010Prop30
280
     1
102
RTVSPost2010PropOp30
 70
     1
102
RTVSPost2010Prop31
280
     0
102
RTVSPost2010PropOp31
 70
     1
102
RTVSPost2010Prop32
280
     0
102
RTVSPost2010PropOp32
 70
     1
102
RTVSPost2010Prop33
280
     0
102
RTVSPost2010PropOp33
 70
     1
102
RTVSPost2010Prop34
280
     0
102
RTVSPost2010PropOp34
 70
     1
102
RTVSPost2010Prop35
280
     0
102
RTVSPost2010PropOp35
 70
     1
102
RTVSPost2010Prop36
280
     0
102
RTVSPost2010PropOp36
 70
     1
102
RTVSPost2010Prop37
 90
       50
102
RTVSPost2010PropOp37
 70
     1
102
RTVSPost2010Prop38
140
0.0
102
RTVSPost2010PropOp38
 70
     1
102
RTVSPost2010Prop39
140
1.0
102
RTVSPost2010PropOp39
 70
     1
102
RTVSPost2010Prop40
 90
        0
102
RTVSPost2010PropOp40
 70
     1
102
RTVSPost2010Prop41ColorIndex
 90
       18
102
RTVSPost2010Prop41ColorRGB
 90
        0
102
RTVSPost2010PropOp41
 70
     1
102
RTVSPost2010Prop42
 90
       50
102
RTVSPost2010PropOp42
 70
     1
102
RTVSPost2010Prop43
 90
        3
102
RTVSPost2010PropOp43
 70
     1
102
RTVSPost2010Prop44ColorIndex
 90
        5
102
RTVSPost2010Prop44ColorRGB
 90
      255
102
RTVSPost2010PropOp44
 70
     1
102
RTVSPost2010Prop45
280
     0
102
RTVSPost2010PropOp45
 70
     1
102
RTVSPost2010Prop46
 90
       50
102
RTVSPost2010PropOp46
 70
     1
102
RTVSPost2010Prop47
 90
       50
102
RTVSPost2010PropOp47
 70
     1
102
RTVSPost2010Prop48
 90
       50
102
RTVSPost2010PropOp48
 70
     1
102
RTVSPost2010Prop49
280
     0
102
RTVSPost2010PropOp49
 70
     1
102
RTVSPost2010Prop50
 90
       50
102
RTVSPost2010PropOp50
 70
     1
102
RTVSPost2010Prop51ColorIndex
 90
      256
102
RTVSPost2010Prop51ColorRGB
 90
-16777216
102
RTVSPost2010PropOp51
 70
     0
102
RTVSPost2010Prop52
140
1.0
102
RTVSPost2010PropOp52
 70
     0
102
RTVSPost2010Prop53
 90
        2
102
RTVSPost2010PropOp53
 70
     1
102
RTVSPost2010Prop54
  1
strokes_ogs.tif
102
RTVSPost2010PropOp54
 70
     1
102
RTVSPost2010Prop55
280
     0
102
RTVSPost2010PropOp55
 70
     1
102
RTVSPost2010Prop56
140
1.0
102
RTVSPost2010PropOp56
 70
     1
102
RTVSPost2010Prop57
140
1.0
102
RTVSPost2010PropOp57
 70
     1
  0
XRECORD
  5
1D0
102
{ACAD_REACTORS
330
1CF
102
}
330
1CF
100
AcDbXrecord
280
     1
102
RTVSPost2010Prop28
280
     0
102
RTVSPost2010PropOp28
 70
     1
102
RTVSPost2010Prop29
280
     1
102
RTVSPost2010PropOp29
 70
     1
102
RTVSPost2010Prop30
280
     1
102
RTVSPost2010PropOp30
 70
     1
102
RTVSPost2010Prop31
280
     0
102
RTVSPost2010PropOp31
 70
     1
102
RTVSPost2010Prop32
280
     0
102
RTVSPost2010PropOp32
 70
     1
102
RTVSPost2010Prop33
280
     0
102
RTVSPost2010PropOp33
 70
     1
102
RTVSPost2010Prop34
280
     0
102
RTVSPost2010PropOp34
 70
     1
102
RTVSPost2010Prop35
280
     0
102
RTVSPost2010PropOp35
 70
     1
102
RTVSPost2010Prop36
280
     0
102
RTVSPost2010PropOp36
 70
     1
102
RTVSPost2010Prop37
 90
       50
102
RTVSPost2010PropOp37
 70
     1
102
RTVSPost2010Prop38
140
0.0
102
RTVSPost2010PropOp38
 70
     1
102
RTVSPost2010Prop39
140
1.0
102
RTVSPost2010PropOp39
 70
     1
102
RTVSPost2010Prop40
 90
        0
102
RTVSPost2010PropOp40
 70
     1
102
RTVSPost2010Prop41ColorIndex
 90
       18
102
RTVSPost2010Prop41ColorRGB
 90
        0
102
RTVSPost2010PropOp41
 70
     1
102
RTVSPost2010Prop42
 90
       50
102
RTVSPost2010PropOp42
 70
     1
102
RTVSPost2010Prop43
 90
        3
102
RTVSPost2010PropOp43
 70
     1
102
RTVSPost2010Prop44ColorIndex
 90
        5
102
RTVSPost2010Prop44ColorRGB
 90
      255
102
RTVSPost2010PropOp44
 70
     1
102
RTVSPost2010Prop45
280
     0
102
RTVSPost2010PropOp45
 70
     1
102
RTVSPost2010Prop46
 90
       50
102
RTVSPost2010PropOp46
 70
     1
102
RTVSPost2010Prop47
 90
       50
102
RTVSPost2010PropOp47
 70
     1
102
RTVSPost2010Prop48
 90
       50
102
RTVSPost2010PropOp48
 70
     1
102
RTVSPost2010Prop49
280
     0
102
RTVSPost2010PropOp49
 70
     1
102
RTVSPost2010Prop50
 90
       50
102
RTVSPost2010PropOp50
 70
     1
102
RTVSPost2010Prop51ColorIndex
 90
      256
102
RTVSPost2010Prop51ColorRGB
 90
-16777216
102
RTVSPost2010PropOp51
 70
     0
102
RTVSPost2010Prop52
140
1.0
102
RTVSPost2010PropOp52
 70
     0
102
RTVSPost2010Prop53
 90
        2
102
RTVSPost2010PropOp53
 70
     1
102
RTVSPost2010Prop54
  1
strokes_ogs.tif
102
RTVSPost2010PropOp54
 70
     1
102
RTVSPost2010Prop55
280
     0
102
RTVSPost2010PropOp55
 70
     1
102
RTVSPost2010Prop56
140
1.0
102
RTVSPost2010PropOp56
 70
     1
102
RTVSPost2010Prop57
140
1.0
102
RTVSPost2010PropOp57
 70
     1
  0
XRECORD
  5
1D2
102
{ACAD_REACTORS
330
1D1
102
}
330
1D1
100
AcDbXrecord
280
     1
102
RTVSPost2010Prop28
280
     0
102
RTVSPost2010PropOp28
 70
     1
102
RTVSPost2010Prop29
280
     1
102
RTVSPost2010PropOp29
 70
     1
102
RTVSPost2010Prop30
280
     1
102
RTVSPost2010PropOp30
 70
     1
102
RTVSPost2010Prop31
280
     0
102
RTVSPost2010PropOp31
 70
     1
102
RTVSPost2010Prop32
280
     0
102
RTVSPost2010PropOp32
 70
     1
102
RTVSPost2010Prop33
280
     0
102
RTVSPost2010PropOp33
 70
     1
102
RTVSPost2010Prop34
280
     0
102
RTVSPost2010PropOp34
 70
     1
102
RTVSPost2010Prop35
280
     0
102
RTVSPost2010PropOp35
 70
     1
102
RTVSPost2010Prop36
280
     0
102
RTVSPost2010PropOp36
 70
     1
102
RTVSPost2010Prop37
 90
       50
102
RTVSPost2010PropOp37
 70
     1
102
RTVSPost2010Prop38
140
0.0
102
RTVSPost2010PropOp38
 70
     1
102
RTVSPost2010Prop39
140
1.0
102
RTVSPost2010PropOp39
 70
     1
102
RTVSPost2010Prop40
 90
        0
102
RTVSPost2010PropOp40
 70
     1
102
RTVSPost2010Prop41ColorIndex
 90
       18
102
RTVSPost2010Prop41ColorRGB
 90
        0
102
RTVSPost2010PropOp41
 70
     1
102
RTVSPost2010Prop42
 90
       50
102
RTVSPost2010PropOp42
 70
     1
102
RTVSPost2010Prop43
 90
        3
102
RTVSPost2010PropOp43
 70
     1
102
RTVSPost2010Prop44ColorIndex
 90
        5
102
RTVSPost2010Prop44ColorRGB
 90
      255
102
RTVSPost2010PropOp44
 70
     1
102
RTVSPost2010Prop45
280
     0
102
RTVSPost2010PropOp45
 70
     1
102
RTVSPost2010Prop46
 90
       50
102
RTVSPost2010PropOp46
 70
     1
102
RTVSPost2010Prop47
 90
       50
102
RTVSPost2010PropOp47
 70
     1
102
RTVSPost2010Prop48
 90
       50
102
RTVSPost2010PropOp48
 70
     1
102
RTVSPost2010Prop49
280
     0
102
RTVSPost2010PropOp49
 70
     1
102
RTVSPost2010Prop50
 90
       50
102
RTVSPost2010PropOp50
 70
     1
102
RTVSPost2010Prop51ColorIndex
 90
      256
102
RTVSPost2010Prop51ColorRGB
 90
-16777216
102
RTVSPost2010PropOp51
 70
     0
102
RTVSPost2010Prop52
140
1.0
102
RTVSPost2010PropOp52
 70
     0
102
RTVSPost2010Prop53
 90
        2
102
RTVSPost2010PropOp53
 70
     1
102
RTVSPost2010Prop54
  1
strokes_ogs.tif
102
RTVSPost2010PropOp54
 70
     1
102
RTVSPost2010Prop55
280
     0
102
RTVSPost2010PropOp55
 70
     1
102
RTVSPost2010Prop56
140
1.0
102
RTVSPost2010PropOp56
 70
     1
102
RTVSPost2010Prop57
140
1.0
102
RTVSPost2010PropOp57
 70
     1
  0
XRECORD
  5
1C8
102
{ACAD_REACTORS
330
1C7
102
}
330
1C7
100
AcDbXrecord
280
     1
102
RTVSPost2010Prop28
280
     0
102
RTVSPost2010PropOp28
 70
     1
102
RTVSPost2010Prop29
280
     1
102
RTVSPost2010PropOp29
 70
     1
102
RTVSPost2010Prop30
280
     1
102
RTVSPost2010PropOp30
 70
     1
102
RTVSPost2010Prop31
280
     0
102
RTVSPost2010PropOp31
 70
     1
102
RTVSPost2010Prop32
280
     0
102
RTVSPost2010PropOp32
 70
     1
102
RTVSPost2010Prop33
280
     0
102
RTVSPost2010PropOp33
 70
     1
102
RTVSPost2010Prop34
280
     0
102
RTVSPost2010PropOp34
 70
     1
102
RTVSPost2010Prop35
280
     0
102
RTVSPost2010PropOp35
 70
     1
102
RTVSPost2010Prop36
280
     0
102
RTVSPost2010PropOp36
 70
     1
102
RTVSPost2010Prop37
 90
       50
102
RTVSPost2010PropOp37
 70
     1
102
RTVSPost2010Prop38
140
0.0
102
RTVSPost2010PropOp38
 70
     1
102
RTVSPost2010Prop39
140
1.0
102
RTVSPost2010PropOp39
 70
     1
102
RTVSPost2010Prop40
 90
        0
102
RTVSPost2010PropOp40
 70
     1
102
RTVSPost2010Prop41ColorIndex
 90
       18
102
RTVSPost2010Prop41ColorRGB
 90
        0
102
RTVSPost2010PropOp41
 70
     1
102
RTVSPost2010Prop42
 90
       50
102
RTVSPost2010PropOp42
 70
     1
102
RTVSPost2010Prop43
 90
        3
102
RTVSPost2010PropOp43
 70
     1
102
RTVSPost2010Prop44ColorIndex
 90
        5
102
RTVSPost2010Prop44ColorRGB
 90
      255
102
RTVSPost2010PropOp44
 70
     1
102
RTVSPost2010Prop45
280
     0
102
RTVSPost2010PropOp45
 70
     1
102
RTVSPost2010Prop46
 90
       50
102
RTVSPost2010PropOp46
 70
     1
102
RTVSPost2010Prop47
 90
       50
102
RTVSPost2010PropOp47
 70
     1
102
RTVSPost2010Prop48
 90
       50
102
RTVSPost2010PropOp48
 70
     1
102
RTVSPost2010Prop49
280
     0
102
RTVSPost2010PropOp49
 70
     1
102
RTVSPost2010Prop50
 90
       50
102
RTVSPost2010PropOp50
 70
     1
102
RTVSPost2010Prop51ColorIndex
 90
      256
102
RTVSPost2010Prop51ColorRGB
 90
-16777216
102
RTVSPost2010PropOp51
 70
     0
102
RTVSPost2010Prop52
140
1.0
102
RTVSPost2010PropOp52
 70
     0
102
RTVSPost2010Prop53
 90
        2
102
RTVSPost2010PropOp53
 70
     1
102
RTVSPost2010Prop54
  1
strokes_ogs.tif
102
RTVSPost2010PropOp54
 70
     1
102
RTVSPost2010Prop55
280
     0
102
RTVSPost2010PropOp55
 70
     1
102
RTVSPost2010Prop56
140
1.0
102
RTVSPost2010PropOp56
 70
     1
102
RTVSPost2010Prop57
140
1.0
102
RTVSPost2010PropOp57
 70
     1
  0
XRECORD
  5
1BC
102
{ACAD_REACTORS
330
1BB
102
}
330
1BB
100
AcDbXrecord
280
     1
102
RTVSPost2010Prop28
280
     0
102
RTVSPost2010PropOp28
 70
     1
102
RTVSPost2010Prop29
280
     1
102
RTVSPost2010PropOp29
 70
     1
102
RTVSPost2010Prop30
280
     1
102
RTVSPost2010PropOp30
 70
     1
102
RTVSPost2010Prop31
280
     0
102
RTVSPost2010PropOp31
 70
     1
102
RTVSPost2010Prop32
280
     0
102
RTVSPost2010PropOp32
 70
     1
102
RTVSPost2010Prop33
280
     0
102
RTVSPost2010PropOp33
 70
     1
102
RTVSPost2010Prop34
280
     0
102
RTVSPost2010PropOp34
 70
     1
102
RTVSPost2010Prop35
280
     0
102
RTVSPost2010PropOp35
 70
     1
102
RTVSPost2010Prop36
280
     0
102
RTVSPost2010PropOp36
 70
     1
102
RTVSPost2010Prop37
 90
       50
102
RTVSPost2010PropOp37
 70
     1
102
RTVSPost2010Prop38
140
0.0
102
RTVSPost2010PropOp38
 70
     1
102
RTVSPost2010Prop39
140
1.0
102
RTVSPost2010PropOp39
 70
     1
102
RTVSPost2010Prop40
 90
        0
102
RTVSPost2010PropOp40
 70
     1
102
RTVSPost2010Prop41ColorIndex
 90
       18
102
RTVSPost2010Prop41ColorRGB
 90
        0
102
RTVSPost2010PropOp41
 70
     1
102
RTVSPost2010Prop42
 90
       50
102
RTVSPost2010PropOp42
 70
     1
102
RTVSPost2010Prop43
 90
        3
102
RTVSPost2010PropOp43
 70
     1
102
RTVSPost2010Prop44ColorIndex
 90
        5
102
RTVSPost2010Prop44ColorRGB
 90
      255
102
RTVSPost2010PropOp44
 70
     1
102
RTVSPost2010Prop45
280
     0
102
RTVSPost2010PropOp45
 70
     1
102
RTVSPost2010Prop46
 90
       50
102
RTVSPost2010PropOp46
 70
     1
102
RTVSPost2010Prop47
 90
       50
102
RTVSPost2010PropOp47
 70
     1
102
RTVSPost2010Prop48
 90
       50
102
RTVSPost2010PropOp48
 70
     1
102
RTVSPost2010Prop49
280
     0
102
RTVSPost2010PropOp49
 70
     1
102
RTVSPost2010Prop50
 90
       50
102
RTVSPost2010PropOp50
 70
     1
102
RTVSPost2010Prop51ColorIndex
 90
      256
102
RTVSPost2010Prop51ColorRGB
 90
-16777216
102
RTVSPost2010PropOp51
 70
     0
102
RTVSPost2010Prop52
140
1.0
102
RTVSPost2010PropOp52
 70
     0
102
RTVSPost2010Prop53
 90
        2
102
RTVSPost2010PropOp53
 70
     1
102
RTVSPost2010Prop54
  1
strokes_ogs.tif
102
RTVSPost2010PropOp54
 70
     1
102
RTVSPost2010Prop55
280
     0
102
RTVSPost2010PropOp55
 70
     1
102
RTVSPost2010Prop56
140
1.0
102
RTVSPost2010PropOp56
 70
     1
102
RTVSPost2010Prop57
140
1.0
102
RTVSPost2010PropOp57
 70
     1
  0
XRECORD
  5
1D4
102
{ACAD_REACTORS
330
1D3
102
}
330
1D3
100
AcDbXrecord
280
     1
102
RTVSPost2010Prop28
280
     0
102
RTVSPost2010PropOp28
 70
     1
102
RTVSPost2010Prop29
280
     1
102
RTVSPost2010PropOp29
 70
     1
102
RTVSPost2010Prop30
280
     1
102
RTVSPost2010PropOp30
 70
     1
102
RTVSPost2010Prop31
280
     0
102
RTVSPost2010PropOp31
 70
     1
102
RTVSPost2010Prop32
280
     0
102
RTVSPost2010PropOp32
 70
     1
102
RTVSPost2010Prop33
280
     0
102
RTVSPost2010PropOp33
 70
     1
102
RTVSPost2010Prop34
280
     0
102
RTVSPost2010PropOp34
 70
     1
102
RTVSPost2010Prop35
280
     0
102
RTVSPost2010PropOp35
 70
     1
102
RTVSPost2010Prop36
280
     0
102
RTVSPost2010PropOp36
 70
     1
102
RTVSPost2010Prop37
 90
       50
102
RTVSPost2010PropOp37
 70
     1
102
RTVSPost2010Prop38
140
0.0
102
RTVSPost2010PropOp38
 70
     1
102
RTVSPost2010Prop39
140
1.0
102
RTVSPost2010PropOp39
 70
     1
102
RTVSPost2010Prop40
 90
        0
102
RTVSPost2010PropOp40
 70
     1
102
RTVSPost2010Prop41ColorIndex
 90
       18
102
RTVSPost2010Prop41ColorRGB
 90
        0
102
RTVSPost2010PropOp41
 70
     1
102
RTVSPost2010Prop42
 90
       50
102
RTVSPost2010PropOp42
 70
     1
102
RTVSPost2010Prop43
 90
        3
102
RTVSPost2010PropOp43
 70
     1
102
RTVSPost2010Prop44ColorIndex
 90
        5
102
RTVSPost2010Prop44ColorRGB
 90
      255
102
RTVSPost2010PropOp44
 70
     1
102
RTVSPost2010Prop45
280
     0
102
RTVSPost2010PropOp45
 70
     1
102
RTVSPost2010Prop46
 90
       50
102
RTVSPost2010PropOp46
 70
     1
102
RTVSPost2010Prop47
 90
       50
102
RTVSPost2010PropOp47
 70
     1
102
RTVSPost2010Prop48
 90
       50
102
RTVSPost2010PropOp48
 70
     1
102
RTVSPost2010Prop49
280
     0
102
RTVSPost2010PropOp49
 70
     1
102
RTVSPost2010Prop50
 90
       50
102
RTVSPost2010PropOp50
 70
     1
102
RTVSPost2010Prop51ColorIndex
 90
      256
102
RTVSPost2010Prop51ColorRGB
 90
-16777216
102
RTVSPost2010PropOp51
 70
     0
102
RTVSPost2010Prop52
140
1.0
102
RTVSPost2010PropOp52
 70
     0
102
RTVSPost2010Prop53
 90
        2
102
RTVSPost2010PropOp53
 70
     1
102
RTVSPost2010Prop54
  1
strokes_ogs.tif
102
RTVSPost2010PropOp54
 70
     1
102
RTVSPost2010Prop55
280
     0
102
RTVSPost2010PropOp55
 70
     1
102
RTVSPost2010Prop56
140
1.0
102
RTVSPost2010PropOp56
 70
     1
102
RTVSPost2010Prop57
140
1.0
102
RTVSPost2010PropOp57
 70
     1
  0
ENDSEC
  0
EOF
