  0
SECTION
  2
HEADER
  9
$ACADVER
  1
AC1024
  9
$ACADMAINTVER
 70
   226
  9
$DWGCODEPAGE
  3
ANSI_1252
  9
$INSBASE
 10
0.0
 20
0.0
 30
0.0
  9
$EXTMIN
 10
1.000000000000000E+20
 20
1.000000000000000E+20
 30
1.000000000000000E+20
  9
$EXTMAX
 10
-1.000000000000000E+20
 20
-1.000000000000000E+20
 30
-1.000000000000000E+20
  9
$LIMMIN
 10
0.0
 20
0.0
  9
$LIMMAX
 10
12.0
 20
9.0
  9
$ORTHOMODE
 70
     0
  9
$REGENMODE
 70
     1
  9
$FILLMODE
 70
     1
  9
$QTEXTMODE
 70
     0
  9
$MIRRTEXT
 70
     0
  9
$LTSCALE
 40
1.0
  9
$ATTMODE
 70
     1
  9
$TEXTSIZE
 40
0.2
  9
$TRACEWID
 40
0.05
  9
$TEXTSTYLE
  7
Standard
  9
$CLAYER
  8
0
  9
$CELTYPE
  6
ByLayer
  9
$CECOLOR
 62
   256
  9
$CELTSCALE
 40
1.0
  9
$DISPSILH
 70
     0
  9
$DIMSCALE
 40
1.0
  9
$DIMASZ
 40
0.18
  9
$DIMEXO
 40
0.0625
  9
$DIMDLI
 40
0.38
  9
$DIMRND
 40
0.0
  9
$DIMDLE
 40
0.0
  9
$DIMEXE
 40
0.18
  9
$DIMTP
 40
0.0
  9
$DIMTM
 40
0.0
  9
$DIMTXT
 40
0.18
  9
$DIMCEN
 40
0.09
  9
$DIMTSZ
 40
0.0
  9
$DIMTOL
 70
     0
  9
$DIMLIM
 70
     0
  9
$DIMTIH
 70
     1
  9
$DIMTOH
 70
     1
  9
$DIMSE1
 70
     0
  9
$DIMSE2
 70
     0
  9
$DIMTAD
 70
     0
  9
$DIMZIN
 70
     0
  9
$DIMBLK
  1

  9
$DIMASO
 70
     1
  9
$DIMSHO
 70
     1
  9
$DIMPOST
  1

  9
$DIMAPOST
  1

  9
$DIMALT
 70
     0
  9
$DIMALTD
 70
     2
  9
$DIMALTF
 40
25.4
  9
$DIMLFAC
 40
1.0
  9
$DIMTOFL
 70
     0
  9
$DIMTVP
 40
0.0
  9
$DIMTIX
 70
     0
  9
$DIMSOXD
 70
     0
  9
$DIMSAH
 70
     0
  9
$DIMBLK1
  1

  9
$DIMBLK2
  1

  9
$DIMSTYLE
  2
Standard
  9
$DIMCLRD
 70
     0
  9
$DIMCLRE
 70
     0
  9
$DIMCLRT
 70
     0
  9
$DIMTFAC
 40
1.0
  9
$DIMGAP
 40
0.09
  9
$DIMJUST
 70
     0
  9
$DIMSD1
 70
     0
  9
$DIMSD2
 70
     0
  9
$DIMTOLJ
 70
     1
  9
$DIMTZIN
 70
     0
  9
$DIMALTZ
 70
     0
  9
$DIMALTTZ
 70
     0
  9
$DIMUPT
 70
     0
  9
$DIMDEC
 70
     4
  9
$DIMTDEC
 70
     4
  9
$DIMALTU
 70
     2
  9
$DIMALTTD
 70
     2
  9
$DIMTXSTY
  7
Standard
  9
$DIMAUNIT
 70
     0
  9
$DIMADEC
 70
     0
  9
$DIMALTRND
 40
0.0
  9
$DIMAZIN
 70
     0
  9
$DIMDSEP
 70
    46
  9
$DIMATFIT
 70
     3
  9
$DIMFRAC
 70
     0
  9
$DIMLDRBLK
  1

  9
$DIMLUNIT
 70
     2
  9
$DIMLWD
 70
    -2
  9
$DIMLWE
 70
    -2
  9
$DIMTMOVE
 70
     0
  9
$DIMFXL
 40
1.0
  9
$DIMFXLON
 70
     0
  9
$DIMJOGANG
 40
0.7853981633974483
  9
$DIMTFILL
 70
     0
  9
$DIMTFILLCLR
 70
     0
  9
$DIMARCSYM
 70
     0
  9
$DIMLTYPE
  6

  9
$DIMLTEX1
  6

  9
$DIMLTEX2
  6

  9
$DIMTXTDIRECTION
 70
     0
  9
$LUNITS
 70
     2
  9
$LUPREC
 70
     4
  9
$SKETCHINC
 40
0.1
  9
$FILLETRAD
 40
0.0
  9
$AUNITS
 70
     0
  9
$AUPREC
 70
     0
  9
$MENU
  1
.
  9
$ELEVATION
 40
0.0
  9
$PELEVATION
 40
0.0
  9
$THICKNESS
 40
0.0
  9
$LIMCHECK
 70
     0
  9
$CHAMFERA
 40
0.0
  9
$CHAMFERB
 40
0.0
  9
$CHAMFERC
 40
0.0
  9
$CHAMFERD
 40
0.0
  9
$SKPOLY
 70
     0
  9
$TDCREATE
 40
2459493.435092593
  9
$TDUCREATE
 40
2459493.351759260
  9
$TDUPDATE
 40
2459493.435092593
  9
$TDUUPDATE
 40
2459493.351759260
  9
$TDINDWG
 40
0.0000000000
  9
$TDUSRTIMER
 40
0.0000000000
  9
$USRTIMER
 70
     1
  9
$ANGBASE
 50
0.0
  9
$ANGDIR
 70
     0
  9
$PDMODE
 70
     0
  9
$PDSIZE
 40
0.0
  9
$PLINEWID
 40
0.0
  9
$SPLFRAME
 70
     0
  9
$SPLINETYPE
 70
     6
  9
$SPLINESEGS
 70
     8
  9
$HANDSEED
  5
1E3
  9
$SURFTAB1
 70
     6
  9
$SURFTAB2
 70
     6
  9
$SURFTYPE
 70
     6
  9
$SURFU
 70
     6
  9
$SURFV
 70
     6
  9
$UCSBASE
  2

  9
$UCSNAME
  2

  9
$UCSORG
 10
0.0
 20
0.0
 30
0.0
  9
$UCSXDIR
 10
1.0
 20
0.0
 30
0.0
  9
$UCSYDIR
 10
0.0
 20
1.0
 30
0.0
  9
$UCSORTHOREF
  2

  9
$UCSORTHOVIEW
 70
     0
  9
$UCSORGTOP
 10
0.0
 20
0.0
 30
0.0
  9
$UCSORGBOTTOM
 10
0.0
 20
0.0
 30
0.0
  9
$UCSORGLEFT
 10
0.0
 20
0.0
 30
0.0
  9
$UCSORGRIGHT
 10
0.0
 20
0.0
 30
0.0
  9
$UCSORGFRONT
 10
0.0
 20
0.0
 30
0.0
  9
$UCSORGBACK
 10
0.0
 20
0.0
 30
0.0
  9
$PUCSBASE
  2

  9
$PUCSNAME
  2

  9
$PUCSORG
 10
0.0
 20
0.0
 30
0.0
  9
$PUCSXDIR
 10
1.0
 20
0.0
 30
0.0
  9
$PUCSYDIR
 10
0.0
 20
1.0
 30
0.0
  9
$PUCSORTHOREF
  2

  9
$PUCSORTHOVIEW
 70
     0
  9
$PUCSORGTOP
 10
0.0
 20
0.0
 30
0.0
  9
$PUCSORGBOTTOM
 10
0.0
 20
0.0
 30
0.0
  9
$PUCSORGLEFT
 10
0.0
 20
0.0
 30
0.0
  9
$PUCSORGRIGHT
 10
0.0
 20
0.0
 30
0.0
  9
$PUCSORGFRONT
 10
0.0
 20
0.0
 30
0.0
  9
$PUCSORGBACK
 10
0.0
 20
0.0
 30
0.0
  9
$USERI1
 70
     0
  9
$USERI2
 70
     0
  9
$USERI3
 70
     0
  9
$USERI4
 70
     0
  9
$USERI5
 70
     0
  9
$USERR1
 40
0.0
  9
$USERR2
 40
0.0
  9
$USERR3
 40
0.0
  9
$USERR4
 40
0.0
  9
$USERR5
 40
0.0
  9
$WORLDVIEW
 70
     1
  9
$SHADEDGE
 70
     3
  9
$SHADEDIF
 70
    70
  9
$TILEMODE
 70
     1
  9
$MAXACTVP
 70
    64
  9
$PINSBASE
 10
0.0
 20
0.0
 30
0.0
  9
$PLIMCHECK
 70
     0
  9
$PEXTMIN
 10
1.000000000000000E+20
 20
1.000000000000000E+20
 30
1.000000000000000E+20
  9
$PEXTMAX
 10
-1.000000000000000E+20
 20
-1.000000000000000E+20
 30
-1.000000000000000E+20
  9
$PLIMMIN
 10
0.0
 20
0.0
  9
$PLIMMAX
 10
12.0
 20
9.0
  9
$UNITMODE
 70
     0
  9
$VISRETAIN
 70
     1
  9
$PLINEGEN
 70
     0
  9
$PSLTSCALE
 70
     1
  9
$TREEDEPTH
 70
  3020
  9
$CMLSTYLE
  2
Standard
  9
$CMLJUST
 70
     0
  9
$CMLSCALE
 40
1.0
  9
$PROXYGRAPHICS
 70
     1
  9
$MEASUREMENT
 70
     0
  9
$CELWEIGHT
370
    -1
  9
$ENDCAPS
280
     0
  9
$JOINSTYLE
280
     0
  9
$LWDISPLAY
290
     1
  9
$INSUNITS
 70
     4
  9
$HYPERLINKBASE
  1

  9
$STYLESHEET
  1

  9
$XEDIT
290
     1
  9
$CEPSNTYPE
380
     0
  9
$PSTYLEMODE
290
     1
  9
$FINGERPRINTGUID
  2
{C5282866-76DF-E34A-84E5-09BDDE80C508}
  9
$VERSIONGUID
  2
{E8F38A95-D984-5041-A444-0EA5C957CD10}
  9
$EXTNAMES
290
     1
  9
$PSVPSCALE
 40
0.0
  9
$OLESTARTUP
290
     0
  9
$SORTENTS
280
   127
  9
$INDEXCTL
280
     0
  9
$HIDETEXT
280
     1
  9
$XCLIPFRAME
280
     2
  9
$HALOGAP
280
     0
  9
$OBSCOLOR
 70
   257
  9
$OBSLTYPE
280
     0
  9
$INTERSECTIONDISPLAY
280
     0
  9
$INTERSECTIONCOLOR
 70
   257
  9
$DIMASSOC
280
     2
  9
$PROJECTNAME
  1

  9
$CAMERADISPLAY
290
     0
  9
$LENSLENGTH
 40
50.0
  9
$CAMERAHEIGHT
 40
0.0
  9
$STEPSPERSEC
 40
2.0
  9
$STEPSIZE
 40
6.0
  9
$3DDWFPREC
 40
2.0
  9
$PSOLWIDTH
 40
0.25
  9
$PSOLHEIGHT
 40
4.0
  9
$LOFTANG1
 40
1.570796326794896
  9
$LOFTANG2
 40
1.570796326794896
  9
$LOFTMAG1
 40
0.0
  9
$LOFTMAG2
 40
0.0
  9
$LOFTPARAM
 70
     7
  9
$LOFTNORMALS
280
     1
  9
$LATITUDE
 40
37.795
  9
$LONGITUDE
 40
-122.394
  9
$NORTHDIRECTION
 40
0.0
  9
$TIMEZONE
 70
 -8000
  9
$LIGHTGLYPHDISPLAY
280
     1
  9
$TILEMODELIGHTSYNCH
280
     1
  9
$CMATERIAL
347
11
  9
$SOLIDHIST
280
     0
  9
$SHOWHIST
280
     1
  9
$DWFFRAME
280
     2
  9
$DGNFRAME
280
     0
  9
$REALWORLDSCALE
290
     1
  9
$INTERFERECOLOR
 62
     1
  9
$INTERFEREOBJVS
345
33
  9
$INTERFEREVPVS
346
30
  9
$CSHADOW
280
     0
  9
$SHADOWPLANELOCATION
 40
0.0
  0
ENDSEC
  0
SECTION
  2
CLASSES
  0
CLASS
  1
ACDBDICTIONARYWDFLT
  2
AcDbDictionaryWithDefault
  3
ObjectDBX Classes
 90
        0
 91
        1
280
     0
281
     0
  0
CLASS
  1
MATERIAL
  2
AcDbMaterial
  3
ObjectDBX Classes
 90
     1153
 91
        3
280
     0
281
     0
  0
CLASS
  1
VISUALSTYLE
  2
AcDbVisualStyle
  3
ObjectDBX Classes
 90
     4095
 91
       24
280
     0
281
     0
  0
CLASS
  1
SCALE
  2
AcDbScale
  3
ObjectDBX Classes
 90
     1153
 91
       17
280
     0
281
     0
  0
CLASS
  1
TABLESTYLE
  2
AcDbTableStyle
  3
ObjectDBX Classes
 90
     4095
 91
        1
280
     0
281
     0
  0
CLASS
  1
MLEADERSTYLE
  2
AcDbMLeaderStyle
  3
ACDB_MLEADERSTYLE_CLASS
 90
     4095
 91
        1
280
     0
281
     0
  0
CLASS
  1
ACDBSECTIONVIEWSTYLE
  2
AcDbSectionViewStyle
  3
ObjectDBX Classes
 90
     1025
 91
        1
280
     0
281
     0
  0
CLASS
  1
ACDBDETAILVIEWSTYLE
  2
AcDbDetailViewStyle
  3
ObjectDBX Classes
 90
     1025
 91
        1
280
     0
281
     0
  0
CLASS
  1
DICTIONARYVAR
  2
AcDbDictionaryVar
  3
ObjectDBX Classes
 90
        0
 91
        5
280
     0
281
     0
  0
CLASS
  1
CELLSTYLEMAP
  2
AcDbCellStyleMap
  3
ObjectDBX Classes
 90
     1152
 91
        1
280
     0
281
     0
  0
ENDSEC
  0
SECTION
  2
TABLES
  0
TABLE
  2
VPORT
  5
8
330
0
100
AcDbSymbolTable
 70
     1
  0
VPORT
  5
57
330
8
100
AcDbSymbolTableRecord
100
AcDbViewportTableRecord
  2
*Active
 70
     0
 10
0.0
 20
0.0
 11
1.0
 21
1.0
 12
0.0
 22
0.0
 13
0.0
 23
0.0
 14
1.0
 24
1.0
 15
0.0
 25
0.0
 16
0.0
 26
0.0
 36
1.0
 17
334.6195384734277
 27
117.4193616785444
 37
0.0
 40
337.7763229949831
 41
2.624111178996419
 42
50.0
 43
0.0
 44
0.0
 50
0.0
 51
0.0
 71
     0
 72
   100
 73
     1
 74
     0
 75
     1
 76
     0
 77
     0
 78
     0
281
     0
 65
     1
110
0.0
120
0.0
130
0.0
111
1.0
121
0.0
131
0.0
112
0.0
122
1.0
132
0.0
 79
     0
146
0.0
 60
     3
 61
     5
292
     1
282
     1
141
0.0
142
0.0
 63
   250
421
  3355443
  0
ENDTAB
  0
TABLE
  2
LTYPE
  5
5
330
0
100
AcDbSymbolTable
 70
     6
  0
LTYPE
  5
5B
330
5
100
AcDbSymbolTableRecord
100
AcDbLinetypeTableRecord
  2
ByBlock
 70
     0
  3

 72
    65
 73
     0
 40
0.0
  0
LTYPE
  5
5C
330
5
100
AcDbSymbolTableRecord
100
AcDbLinetypeTableRecord
  2
ByLayer
 70
     0
  3

 72
    65
 73
     0
 40
0.0
  0
LTYPE
  5
5D
330
5
100
AcDbSymbolTableRecord
100
AcDbLinetypeTableRecord
  2
Continuous
 70
     0
  3
Solid line
 72
    65
 73
     0
 40
0.0
  0
LTYPE
  5
F4
330
5
100
AcDbSymbolTableRecord
100
AcDbLinetypeTableRecord
  2
AI-Linetype-0
 70
     0
  3
Adobe Illustrator Linetype No. 0
 72
    65
 73
     4
 40
14.00000021769946
 49
8.750000199143745
 74
     0
 49
-1.750000006185238
 74
     0
 49
1.750000006185238
 74
     0
 49
-1.750000006185238
 74
     0
  0
LTYPE
  5
F6
330
5
100
AcDbSymbolTableRecord
100
AcDbLinetypeTableRecord
  2
AI-Linetype-1
 70
     0
  3
Adobe Illustrator Linetype No. 1
 72
    65
 73
     4
 40
14.00000021769946
 49
8.750000199143745
 74
     0
 49
-1.750000006185238
 74
     0
 49
1.750000006185238
 74
     0
 49
-1.750000006185238
 74
     0
  0
LTYPE
  5
F8
330
5
100
AcDbSymbolTableRecord
100
AcDbLinetypeTableRecord
  2
AI-Linetype-2
 70
     0
  3
Adobe Illustrator Linetype No. 2
 72
    65
 73
     4
 40
14.00000021769946
 49
8.750000199143745
 74
     0
 49
-1.750000006185238
 74
     0
 49
1.750000006185238
 74
     0
 49
-1.750000006185238
 74
     0
  0
LTYPE
  5
FA
330
5
100
AcDbSymbolTableRecord
100
AcDbLinetypeTableRecord
  2
AI-Linetype-3
 70
     0
  3
Adobe Illustrator Linetype No. 3
 72
    65
 73
     4
 40
14.00000021769946
 49
8.750000199143745
 74
     0
 49
-1.750000006185238
 74
     0
 49
1.750000006185238
 74
     0
 49
-1.750000006185238
 74
     0
  0
LTYPE
  5
FC
330
5
100
AcDbSymbolTableRecord
100
AcDbLinetypeTableRecord
  2
AI-Linetype-4
 70
     0
  3
Adobe Illustrator Linetype No. 4
 72
    65
 73
     4
 40
14.00000021769946
 49
8.750000199143745
 74
     0
 49
-1.750000006185238
 74
     0
 49
1.750000006185238
 74
     0
 49
-1.750000006185238
 74
     0
  0
ENDTAB
  0
TABLE
  2
LAYER
  5
2
330
0
100
AcDbSymbolTable
 70
     7
  0
LAYER
  5
54
330
2
100
AcDbSymbolTableRecord
100
AcDbLayerTableRecord
  2
0
 70
     0
 62
     7
  6
Continuous
370
     0
390
F
347
21
  0
LAYER
  5
78
330
2
100
AcDbSymbolTableRecord
100
AcDbLayerTableRecord
  2
4
 70
     0
 62
     7
  6
Continuous
370
     0
390
F
347
21
  0
LAYER
  5
DA
330
2
100
AcDbSymbolTableRecord
100
AcDbLayerTableRecord
  2
A5
 70
     0
 62
     7
  6
Continuous
370
     0
390
F
347
21
  0
LAYER
  5
DB
330
2
100
AcDbSymbolTableRecord
100
AcDbLayerTableRecord
  2
7
 70
     0
 62
     7
  6
Continuous
370
     0
390
F
347
21
  0
LAYER
  5
F2
330
2
100
AcDbSymbolTableRecord
100
AcDbLayerTableRecord
  2
3
 70
     0
 62
     7
  6
Continuous
370
     0
390
F
347
21
  0
LAYER
  5
FF
330
2
100
AcDbSymbolTableRecord
100
AcDbLayerTableRecord
  2
BART03
 70
     0
 62
     7
  6
Continuous
370
     0
390
F
347
21
  0
LAYER
  5
110
330
2
100
AcDbSymbolTableRecord
100
AcDbLayerTableRecord
  2
ASHADE
 70
     0
 62
     7
  6
Continuous
370
     0
390
F
347
21
  0
ENDTAB
  0
TABLE
  2
STYLE
  5
3
330
0
100
AcDbSymbolTable
 70
     2
  0
STYLE
  5
55
330
3
100
AcDbSymbolTableRecord
100
AcDbTextStyleTableRecord
  2
Standard
 70
     0
 40
0.0
 41
1.0
 50
0.0
 71
     0
 42
0.2
  3
txt
  4

  0
STYLE
  5
5A
330
3
100
AcDbSymbolTableRecord
100
AcDbTextStyleTableRecord
  2
Annotative
 70
     0
 40
0.0
 41
1.0
 50
0.0
 71
     0
 42
0.2
  3
txt
  4

1001
AcadAnnotative
1000
AnnotativeData
1002
{
1070
     1
1070
     1
1002
}
  0
ENDTAB
  0
TABLE
  2
VIEW
  5
6
330
0
100
AcDbSymbolTable
 70
     0
  0
ENDTAB
  0
TABLE
  2
UCS
  5
7
330
0
100
AcDbSymbolTable
 70
     0
  0
ENDTAB
  0
TABLE
  2
APPID
  5
9
330
0
100
AcDbSymbolTable
 70
     2
  0
APPID
  5
56
330
9
100
AcDbSymbolTableRecord
100
AcDbRegAppTableRecord
  2
ACAD
 70
     0
  0
APPID
  5
5E
330
9
100
AcDbSymbolTableRecord
100
AcDbRegAppTableRecord
  2
AcadAnnotative
 70
     0
  0
ENDTAB
  0
TABLE
  2
DIMSTYLE
  5
A
330
0
100
AcDbSymbolTable
 70
     2
100
AcDbDimStyleTable
 71
     0
  0
DIMSTYLE
105
58
330
A
100
AcDbSymbolTableRecord
100
AcDbDimStyleTableRecord
  2
Standard
 70
     0
340
55
  0
DIMSTYLE
105
59
330
A
100
AcDbSymbolTableRecord
100
AcDbDimStyleTableRecord
  2
Annotative
 70
     0
340
55
1001
AcadAnnotative
1000
AnnotativeData
1002
{
1070
     1
1070
     1
1002
}
  0
ENDTAB
  0
TABLE
  2
BLOCK_RECORD
  5
1
330
0
100
AcDbSymbolTable
 70
     2
  0
BLOCK_RECORD
  5
70
330
1
100
AcDbSymbolTableRecord
100
AcDbBlockTableRecord
  2
*Model_Space
340
73
 70
     0
280
     1
281
     0
  0
BLOCK_RECORD
  5
6C
330
1
100
AcDbSymbolTableRecord
100
AcDbBlockTableRecord
  2
*Paper_Space
340
6F
 70
     0
280
     1
281
     0
  0
BLOCK_RECORD
  5
74
330
1
100
AcDbSymbolTableRecord
100
AcDbBlockTableRecord
  2
*Paper_Space0
340
77
 70
     0
280
     1
281
     0
  0
BLOCK_RECORD
  5
104
330
1
100
AcDbSymbolTableRecord
100
AcDbBlockTableRecord
  2
Block_0
340
0
102
{BLKREFS
331
105
102
}
 70
     0
280
     1
281
     0
  0
ENDTAB
  0
ENDSEC
  0
SECTION
  2
BLOCKS
  0
BLOCK
  5
71
330
70
100
AcDbEntity
  8
0
100
AcDbBlockBegin
  2
*Model_Space
 70
     0
 10
0.0
 20
0.0
 30
0.0
  3
*Model_Space
  1

  0
ENDBLK
  5
72
330
70
100
AcDbEntity
  8
0
100
AcDbBlockEnd
  0
BLOCK
  5
6D
330
6C
100
AcDbEntity
 67
     1
  8
0
100
AcDbBlockBegin
  2
*Paper_Space
 70
     0
 10
0.0
 20
0.0
 30
0.0
  3
*Paper_Space
  1

  0
ENDBLK
  5
6E
330
6C
100
AcDbEntity
 67
     1
  8
0
100
AcDbBlockEnd
  0
BLOCK
  5
75
330
74
100
AcDbEntity
 67
     1
  8
0
100
AcDbBlockBegin
  2
*Paper_Space0
 70
     0
 10
0.0
 20
0.0
 30
0.0
  3
*Paper_Space0
  1

  0
ENDBLK
  5
76
330
74
100
AcDbEntity
 67
     1
  8
0
100
AcDbBlockEnd
  0
BLOCK
  5
106
330
104
100
AcDbEntity
  8
0
100
AcDbBlockBegin
  2
Block_0
 70
     0
 10
0.0
 20
0.0
 30
0.0
  3
Block_0
  1

  0
LWPOLYLINE
  5
108
330
104
100
AcDbEntity
  8
BART03
100
AcDbPolyline
 90
        4
 70
     1
 43
0.0
 10
-42.50072127405103
 20
62.66888101882792
 10
-43.48755531631609
 20
65.00335519605485
 10
-41.79693689453261
 20
63.11512309616935
 10
-41.79693689453261
 20
63.11512309616935
  0
HATCH
  5
109
330
104
100
AcDbEntity
  8
BART03
 62
    18
420
        0
440
 33554687
100
AcDbHatch
 10
0.0
 20
0.0
 30
0.0
210
0.0
220
0.0
230
1.0
  2
SOLID
 70
     1
 71
     1
 91
        1
 92
        1
 93
        3
 72
     1
 10
-42.50072127405103
 20
62.66888101882792
 11
-43.48755531631609
 21
65.00335519605485
 72
     1
 10
-43.48755531631609
 20
65.00335519605485
 11
-41.79693689453261
 21
63.11512309616935
 72
     1
 10
-41.79693689453261
 20
63.11512309616935
 11
-42.50072127405103
 21
62.66888101882792
 97
        1
330
108
 75
     2
 76
     1
 98
        1
 10
0.0
 20
0.0
450
        0
451
        0
460
0.0
461
0.0
452
        0
462
0.0
453
        0
470

  0
LINE
  5
10A
330
104
100
AcDbEntity
  8
BART03
 62
    18
420
        0
370
    18
100
AcDbLine
 10
-42.14882908429182
 20
62.89200205749864
 30
0.0
 11
-40.45935962326616
 21
60.22747919710949
 31
0.0
  0
ENDBLK
  5
107
330
104
100
AcDbEntity
  8
0
100
AcDbBlockEnd
  0
ENDSEC
  0
SECTION
  2
ENTITIES
  0
LINE
  5
79
330
70
100
AcDbEntity
  8
4
 62
    18
420
        0
370
    18
100
AcDbLine
 10
8.199066013417271
 20
90.21281523564006
 30
0.0
 11
100.6190660134174
 21
90.21281523564006
 31
0.0
  0
LINE
  5
7A
330
70
100
AcDbEntity
  8
4
 62
    18
420
        0
370
    18
100
AcDbLine
 10
-9.589284722529793
 20
96.36146354995673
 30
0.0
 11
118.4074167493644
 21
96.36146354995673
 31
0.0
  0
LINE
  5
7B
330
70
100
AcDbEntity
  8
4
 62
    18
420
        0
370
    18
100
AcDbLine
 10
-9.589284722530114
 20
80.97615415142755
 30
0.0
 11
-9.589284722530114
 21
98.36146354995648
 31
0.0
  0
LWPOLYLINE
  5
7C
330
70
100
AcDbEntity
  8
4
100
AcDbPolyline
 90
        4
 70
     1
 43
0.0
 10
-6.589284722530329
 20
96.86146354995676
 10
-6.589284722530329
 20
95.86146354995671
 10
-9.589284722530114
 20
96.36146354995673
 10
-9.589284722530114
 20
96.36146354995673
  0
HATCH
  5
7D
330
70
100
AcDbEntity
  8
4
 62
    18
420
        0
440
 33554687
100
AcDbHatch
 10
0.0
 20
0.0
 30
0.0
210
0.0
220
0.0
230
1.0
  2
SOLID
 70
     1
 71
     1
 91
        1
 92
        1
 93
        3
 72
     1
 10
-6.589284722530329
 20
96.86146354995676
 11
-6.589284722530329
 21
95.86146354995671
 72
     1
 10
-6.589284722530329
 20
95.86146354995671
 11
-9.589284722530114
 21
96.36146354995673
 72
     1
 10
-9.589284722530114
 20
96.36146354995673
 11
-6.589284722530329
 21
96.86146354995676
 97
        1
330
7C
 75
     2
 76
     1
 98
        1
 10
0.0
 20
0.0
450
        0
451
        0
460
0.0
461
0.0
452
        0
462
0.0
453
        0
470

  0
LINE
  5
7E
330
70
100
AcDbEntity
  8
4
 62
    18
420
        0
370
    18
100
AcDbLine
 10
-70.45631023254799
 20
60.25335519605484
 30
0.0
 11
-70.45631023254799
 21
47.25335519605502
 31
0.0
  0
LINE
  5
7F
330
70
100
AcDbEntity
  8
4
 62
    18
420
        0
370
    18
100
AcDbLine
 10
-32.03285836792574
 20
61.25335519605489
 30
0.0
 11
-32.03285836792574
 21
46.25335519605498
 31
0.0
  0
LWPOLYLINE
  5
80
330
70
100
AcDbEntity
  8
4
100
AcDbPolyline
 90
        4
 70
     1
 43
0.0
 10
-45.73755531631601
 20
19.73039151384385
 10
-45.73755531631601
 20
18.73039151384381
 10
-42.7375553163159
 20
19.23039151384351
 10
-42.7375553163159
 20
19.23039151384351
  0
HATCH
  5
81
330
70
100
AcDbEntity
  8
4
 62
    18
420
        0
440
 33554687
100
AcDbHatch
 10
0.0
 20
0.0
 30
0.0
210
0.0
220
0.0
230
1.0
  2
SOLID
 70
     1
 71
     1
 91
        1
 92
        1
 93
        3
 72
     1
 10
-45.73755531631601
 20
19.73039151384385
 11
-45.73755531631601
 21
18.73039151384381
 72
     1
 10
-45.73755531631601
 20
18.73039151384381
 11
-42.7375553163159
 21
19.23039151384351
 72
     1
 10
-42.7375553163159
 20
19.23039151384351
 11
-45.73755531631601
 21
19.73039151384385
 97
        1
330
80
 75
     2
 76
     1
 98
        1
 10
0.0
 20
0.0
450
        0
451
        0
460
0.0
461
0.0
452
        0
462
0.0
453
        0
470

  0
LWPOLYLINE
  5
82
330
70
100
AcDbEntity
  8
4
100
AcDbPolyline
 90
        4
 70
     1
 43
0.0
 10
-45.73755531631601
 20
10.25087710071256
 10
-45.73755531631601
 20
9.250877100712523
 10
-42.7375553163159
 20
9.750877100712861
 10
-42.7375553163159
 20
9.750877100712861
  0
HATCH
  5
83
330
70
100
AcDbEntity
  8
4
 62
    18
420
        0
440
 33554687
100
AcDbHatch
 10
0.0
 20
0.0
 30
0.0
210
0.0
220
0.0
230
1.0
  2
SOLID
 70
     1
 71
     1
 91
        1
 92
        1
 93
        3
 72
     1
 10
-45.73755531631601
 20
10.25087710071256
 11
-45.73755531631601
 21
9.250877100712523
 72
     1
 10
-45.73755531631601
 20
9.250877100712523
 11
-42.7375553163159
 21
9.750877100712861
 72
     1
 10
-42.7375553163159
 20
9.750877100712861
 11
-45.73755531631601
 21
10.25087710071256
 97
        1
330
82
 75
     2
 76
     1
 98
        1
 10
0.0
 20
0.0
450
        0
451
        0
460
0.0
461
0.0
452
        0
462
0.0
453
        0
470

  0
LINE
  5
84
330
70
100
AcDbEntity
  8
4
 62
    18
420
        0
370
    18
100
AcDbLine
 10
-55.33755531631602
 20
41.75335519605451
 30
0.0
 11
-55.33755531631602
 21
17.23039151384344
 31
0.0
  0
LWPOLYLINE
  5
85
330
70
100
AcDbEntity
  8
4
100
AcDbPolyline
 90
        4
 70
     1
 43
0.0
 10
-57.73755531631611
 20
10.25087710071256
 10
-57.73755531631611
 20
9.250877100712523
 10
-60.7375553163159
 20
9.750877100712861
 10
-60.7375553163159
 20
9.750877100712861
  0
HATCH
  5
86
330
70
100
AcDbEntity
  8
4
 62
    18
420
        0
440
 33554687
100
AcDbHatch
 10
0.0
 20
0.0
 30
0.0
210
0.0
220
0.0
230
1.0
  2
SOLID
 70
     1
 71
     1
 91
        1
 92
        1
 93
        3
 72
     1
 10
-57.73755531631611
 20
10.25087710071256
 11
-57.73755531631611
 21
9.250877100712523
 72
     1
 10
-57.73755531631611
 20
9.250877100712523
 11
-60.7375553163159
 21
9.750877100712861
 72
     1
 10
-60.7375553163159
 20
9.750877100712861
 11
-57.73755531631611
 21
10.25087710071256
 97
        1
330
85
 75
     2
 76
     1
 98
        1
 10
0.0
 20
0.0
450
        0
451
        0
460
0.0
461
0.0
452
        0
462
0.0
453
        0
470

  0
LINE
  5
87
330
70
100
AcDbEntity
  8
4
 62
    18
420
        0
370
    18
100
AcDbLine
 10
-60.7375553163159
 20
27.03375856012812
 30
0.0
 11
-60.7375553163159
 21
7.750877100712791
 31
0.0
  0
MTEXT
  5
88
330
70
100
AcDbEntity
  8
4
100
AcDbMText
 10
-61.30480128980889
 20
11.59177199179878
 30
0.0
 40
0.2
 41
0.0
 46
0.0
 71
     7
 72
     1
  1
\C18;\c0;\FMyriad Pro|b0|i0|c1;\H3.000000;\W1.000000;15±0.01
 73
     1
 44
1.0
  0
LINE
  5
89
330
70
100
AcDbEntity
  8
4
 62
    18
420
        0
370
    18
100
AcDbLine
 10
-57.73755531631611
 20
9.750877100712861
 30
0.0
 11
-45.73755531631601
 21
9.750877100712861
 31
0.0
  0
LINE
  5
8A
330
70
100
AcDbEntity
  8
4
 62
    18
420
        0
370
    18
100
AcDbLine
 10
-45.73755531631601
 20
19.23039151384351
 30
0.0
 11
-52.33755531631592
 21
19.23039151384351
 31
0.0
  0
LWPOLYLINE
  5
8B
330
70
100
AcDbEntity
  8
4
100
AcDbPolyline
 90
        4
 70
     1
 43
0.0
 10
-52.33755531631592
 20
19.73039151384385
 10
-52.33755531631592
 20
18.73039151384381
 10
-55.33755531631602
 20
19.23039151384351
 10
-55.33755531631602
 20
19.23039151384351
  0
HATCH
  5
8C
330
70
100
AcDbEntity
  8
4
 62
    18
420
        0
440
 33554687
100
AcDbHatch
 10
0.0
 20
0.0
 30
0.0
210
0.0
220
0.0
230
1.0
  2
SOLID
 70
     1
 71
     1
 91
        1
 92
        1
 93
        3
 72
     1
 10
-52.33755531631592
 20
19.73039151384385
 11
-52.33755531631592
 21
18.73039151384381
 72
     1
 10
-52.33755531631592
 20
18.73039151384381
 11
-55.33755531631602
 21
19.23039151384351
 72
     1
 10
-55.33755531631602
 20
19.23039151384351
 11
-52.33755531631592
 21
19.73039151384385
 97
        1
330
8B
 75
     2
 76
     1
 98
        1
 10
0.0
 20
0.0
450
        0
451
        0
460
0.0
461
0.0
452
        0
462
0.0
453
        0
470

  0
LINE
  5
8D
330
70
100
AcDbEntity
  8
4
 62
    18
420
        0
370
    18
100
AcDbLine
 10
-62.23755531631595
 20
47.25335519605502
 30
0.0
 11
-72.45631023254806
 21
47.25335519605502
 31
0.0
  0
LWPOLYLINE
  5
8E
330
70
100
AcDbEntity
  8
4
100
AcDbPolyline
 90
        4
 70
     1
 43
0.0
 10
-70.956310232548
 20
57.25335519605474
 10
-69.95631023254796
 20
57.25335519605474
 10
-70.45631023254799
 20
60.25335519605484
 10
-70.45631023254799
 20
60.25335519605484
  0
HATCH
  5
8F
330
70
100
AcDbEntity
  8
4
 62
    18
420
        0
440
 33554687
100
AcDbHatch
 10
0.0
 20
0.0
 30
0.0
210
0.0
220
0.0
230
1.0
  2
SOLID
 70
     1
 71
     1
 91
        1
 92
        1
 93
        3
 72
     1
 10
-70.956310232548
 20
57.25335519605474
 11
-69.95631023254796
 21
57.25335519605474
 72
     1
 10
-69.95631023254796
 20
57.25335519605474
 11
-70.45631023254799
 21
60.25335519605484
 72
     1
 10
-70.45631023254799
 20
60.25335519605484
 11
-70.956310232548
 21
57.25335519605474
 97
        1
330
8E
 75
     2
 76
     1
 98
        1
 10
0.0
 20
0.0
450
        0
451
        0
460
0.0
461
0.0
452
        0
462
0.0
453
        0
470

  0
LINE
  5
90
330
70
100
AcDbEntity
  8
4
 62
    18
420
        0
370
    18
100
AcDbLine
 10
-42.7375553163159
 20
25.75335519605459
 30
0.0
 11
-42.7375553163159
 21
7.750877100712791
 31
0.0
  0
LINE
  5
91
330
70
100
AcDbEntity
  8
4
 62
    18
420
        0
370
    18
100
AcDbLine
 10
-42.7375553163159
 20
26.98321955846548
 30
0.0
 11
-42.7375553163159
 21
17.23039151384344
 31
0.0
  0
LINE
  5
92
330
70
100
AcDbEntity
  8
4
 62
    18
420
        0
370
    18
100
AcDbLine
 10
-41.23755531631585
 20
43.25335519605488
 30
0.0
 11
-30.03285836792567
 21
43.25335519605488
 31
0.0
  0
LWPOLYLINE
  5
93
330
70
100
AcDbEntity
  8
4
100
AcDbPolyline
 90
        4
 70
     1
 43
0.0
 10
-32.53285836792576
 20
46.25335519605498
 10
-31.53285836792572
 20
46.25335519605498
 10
-32.03285836792574
 20
43.25335519605488
 10
-32.03285836792574
 20
43.25335519605488
  0
HATCH
  5
94
330
70
100
AcDbEntity
  8
4
 62
    18
420
        0
440
 33554687
100
AcDbHatch
 10
0.0
 20
0.0
 30
0.0
210
0.0
220
0.0
230
1.0
  2
SOLID
 70
     1
 71
     1
 91
        1
 92
        1
 93
        3
 72
     1
 10
-32.53285836792576
 20
46.25335519605498
 11
-31.53285836792572
 21
46.25335519605498
 72
     1
 10
-31.53285836792572
 20
46.25335519605498
 11
-32.03285836792574
 21
43.25335519605488
 72
     1
 10
-32.03285836792574
 20
43.25335519605488
 11
-32.53285836792576
 21
46.25335519605498
 97
        1
330
93
 75
     2
 76
     1
 98
        1
 10
0.0
 20
0.0
450
        0
451
        0
460
0.0
461
0.0
452
        0
462
0.0
453
        0
470

  0
LWPOLYLINE
  5
95
330
70
100
AcDbEntity
  8
4
100
AcDbPolyline
 90
        4
 70
     1
 43
0.0
 10
-70.956310232548
 20
50.25335519605449
 10
-69.95631023254796
 20
50.25335519605449
 10
-70.45631023254799
 20
47.25335519605502
 10
-70.45631023254799
 20
47.25335519605502
  0
HATCH
  5
96
330
70
100
AcDbEntity
  8
4
 62
    18
420
        0
440
 33554687
100
AcDbHatch
 10
0.0
 20
0.0
 30
0.0
210
0.0
220
0.0
230
1.0
  2
SOLID
 70
     1
 71
     1
 91
        1
 92
        1
 93
        3
 72
     1
 10
-70.956310232548
 20
50.25335519605449
 11
-69.95631023254796
 21
50.25335519605449
 72
     1
 10
-69.95631023254796
 20
50.25335519605449
 11
-70.45631023254799
 21
47.25335519605502
 72
     1
 10
-70.45631023254799
 20
47.25335519605502
 11
-70.956310232548
 21
50.25335519605449
 97
        1
330
95
 75
     2
 76
     1
 98
        1
 10
0.0
 20
0.0
450
        0
451
        0
460
0.0
461
0.0
452
        0
462
0.0
453
        0
470

  0
LINE
  5
97
330
70
100
AcDbEntity
  8
4
 62
    18
420
        0
370
    18
100
AcDbLine
 10
-62.23755531631595
 20
60.25335519605484
 30
0.0
 11
-72.45631023254806
 21
60.25335519605484
 31
0.0
  0
MTEXT
  5
98
330
70
100
AcDbEntity
  8
4
100
AcDbMText
 10
-71.95630983037311
 20
49.53909503969921
 30
0.0
 40
0.2
 41
0.0
 46
0.0
 71
     7
 72
     1
  1
\C18;\c0;\FMyriad Pro|b0|i0|c1;\H3.000000;\W1.000000;Ø12
 11
-0.0000000000000002
 21
1.0
 31
0.0
 73
     1
 44
1.0
  0
LWPOLYLINE
  5
99
330
70
100
AcDbEntity
  8
4
100
AcDbPolyline
 90
        4
 70
     1
 43
0.0
 10
-32.53285836792576
 20
61.25335519605489
 10
-31.53285836792572
 20
61.25335519605489
 10
-32.03285836792574
 20
64.25335519605467
 10
-32.03285836792574
 20
64.25335519605467
  0
HATCH
  5
9A
330
70
100
AcDbEntity
  8
4
 62
    18
420
        0
440
 33554687
100
AcDbHatch
 10
0.0
 20
0.0
 30
0.0
210
0.0
220
0.0
230
1.0
  2
SOLID
 70
     1
 71
     1
 91
        1
 92
        1
 93
        3
 72
     1
 10
-32.53285836792576
 20
61.25335519605489
 11
-31.53285836792572
 21
61.25335519605489
 72
     1
 10
-31.53285836792572
 20
61.25335519605489
 11
-32.03285836792574
 21
64.25335519605467
 72
     1
 10
-32.03285836792574
 20
64.25335519605467
 11
-32.53285836792576
 21
61.25335519605489
 97
        1
330
99
 75
     2
 76
     1
 98
        1
 10
0.0
 20
0.0
450
        0
451
        0
460
0.0
461
0.0
452
        0
462
0.0
453
        0
470

  0
MTEXT
  5
9B
330
70
100
AcDbEntity
  8
4
100
AcDbMText
 10
-33.53285843752672
 20
49.53909503969921
 30
0.0
 40
0.2
 41
0.0
 46
0.0
 71
     7
 72
     1
  1
\C18;\c0;\FMyriad Pro|b0|i0|c1;\H3.000000;\W1.000000;Ø18
 11
-0.0000000000000002
 21
1.0
 31
0.0
 73
     1
 44
1.0
  0
LINE
  5
9C
330
70
100
AcDbEntity
  8
4
 62
    18
420
        0
370
    18
100
AcDbLine
 10
-41.23755531631585
 20
64.25335519605467
 30
0.0
 11
-30.03285836792567
 21
64.25335519605467
 31
0.0
  0
LINE
  5
9D
330
70
100
AcDbEntity
  8
4
 62
    18
420
        0
370
    18
100
AcDbLine
 10
-20.13222004331677
 20
30.25335519605443
 30
0.0
 11
-20.13222004331677
 21
50.75335519605483
 31
0.0
  0
MTEXT
  5
9E
330
70
100
AcDbEntity
  8
4
100
AcDbMText
 10
-21.99657939784894
 20
37.86780055476981
 30
0.0
 40
0.2
 41
0.0
 46
0.0
 71
     7
 72
     1
  1
\C18;\c0;\FMyriad Pro|b0|i0|c1;\H3.000000;\W1.000000;25
 11
-0.0000000000000002
 21
1.0
 31
0.0
 73
     1
 44
1.0
  0
LINE
  5
9F
330
70
100
AcDbEntity
  8
4
 62
    18
420
        0
370
    18
100
AcDbLine
 10
-10.06264446309358
 20
27.25335519605497
 30
0.0
 11
-13.21472672623592
 21
27.25335519605497
 31
0.0
  0
LWPOLYLINE
  5
A0
330
70
100
AcDbEntity
  8
4
100
AcDbPolyline
 90
        4
 70
     1
 43
0.0
 10
-20.63222004331678
 20
30.25335519605443
 10
-19.63222004331674
 20
30.25335519605443
 10
-20.13222004331677
 20
27.25335519605497
 10
-20.13222004331677
 20
27.25335519605497
  0
HATCH
  5
A1
330
70
100
AcDbEntity
  8
4
 62
    18
420
        0
440
 33554687
100
AcDbHatch
 10
0.0
 20
0.0
 30
0.0
210
0.0
220
0.0
230
1.0
  2
SOLID
 70
     1
 71
     1
 91
        1
 92
        1
 93
        3
 72
     1
 10
-20.63222004331678
 20
30.25335519605443
 11
-19.63222004331674
 21
30.25335519605443
 72
     1
 10
-19.63222004331674
 20
30.25335519605443
 11
-20.13222004331677
 21
27.25335519605497
 72
     1
 10
-20.13222004331677
 20
27.25335519605497
 11
-20.63222004331678
 21
30.25335519605443
 97
        1
330
A0
 75
     2
 76
     1
 98
        1
 10
0.0
 20
0.0
450
        0
451
        0
460
0.0
461
0.0
452
        0
462
0.0
453
        0
470

  0
LWPOLYLINE
  5
A2
330
70
100
AcDbEntity
  8
4
100
AcDbPolyline
 90
        4
 70
     1
 43
0.0
 10
-20.63222004331678
 20
50.75335519605483
 10
-19.63222004331674
 20
50.75335519605483
 10
-20.13222004331677
 20
53.75335519605461
 10
-20.13222004331677
 20
53.75335519605461
  0
HATCH
  5
A3
330
70
100
AcDbEntity
  8
4
 62
    18
420
        0
440
 33554687
100
AcDbHatch
 10
0.0
 20
0.0
 30
0.0
210
0.0
220
0.0
230
1.0
  2
SOLID
 70
     1
 71
     1
 91
        1
 92
        1
 93
        3
 72
     1
 10
-20.63222004331678
 20
50.75335519605483
 11
-19.63222004331674
 21
50.75335519605483
 72
     1
 10
-19.63222004331674
 20
50.75335519605483
 11
-20.13222004331677
 21
53.75335519605461
 72
     1
 10
-20.13222004331677
 20
53.75335519605461
 11
-20.63222004331678
 21
50.75335519605483
 97
        1
330
A2
 75
     2
 76
     1
 98
        1
 10
0.0
 20
0.0
450
        0
451
        0
460
0.0
461
0.0
452
        0
462
0.0
453
        0
470

  0
LINE
  5
A4
330
70
100
AcDbEntity
  8
4
 62
    18
420
        0
370
    18
100
AcDbLine
 10
5.199066013417165
 20
68.82335519605473
 30
0.0
 11
5.199066013417165
 21
92.21281523564014
 31
0.0
  0
LWPOLYLINE
  5
A5
330
70
100
AcDbEntity
  8
4
100
AcDbPolyline
 90
        4
 70
     1
 43
0.0
 10
8.199066013417271
 20
90.71281523564008
 10
8.199066013417271
 20
89.71281523564005
 10
5.199066013417165
 20
90.21281523564006
 10
5.199066013417165
 20
90.21281523564006
  0
HATCH
  5
A6
330
70
100
AcDbEntity
  8
4
 62
    18
420
        0
440
 33554687
100
AcDbHatch
 10
0.0
 20
0.0
 30
0.0
210
0.0
220
0.0
230
1.0
  2
SOLID
 70
     1
 71
     1
 91
        1
 92
        1
 93
        3
 72
     1
 10
8.199066013417271
 20
90.71281523564008
 11
8.199066013417271
 21
89.71281523564005
 72
     1
 10
8.199066013417271
 20
89.71281523564005
 11
5.199066013417165
 21
90.21281523564006
 72
     1
 10
5.199066013417165
 20
90.21281523564006
 11
8.199066013417271
 21
90.71281523564008
 97
        1
330
A5
 75
     2
 76
     1
 98
        1
 10
0.0
 20
0.0
450
        0
451
        0
460
0.0
461
0.0
452
        0
462
0.0
453
        0
470

  0
MTEXT
  5
A7
330
70
100
AcDbEntity
  8
4
100
AcDbMText
 10
53.0103732506363
 20
91.5796383098959
 30
0.0
 40
0.2
 41
0.0
 46
0.0
 71
     7
 72
     1
  1
\C18;\c0;\FMyriad Pro|b0|i0|c1;\H3.000000;\W1.000000;90
 73
     1
 44
1.0
  0
MTEXT
  5
A8
330
70
100
AcDbEntity
  8
4
100
AcDbMText
 10
43.05572947379417
 20
97.62206664293932
 30
0.0
 40
0.2
 41
0.0
 46
0.0
 71
     7
 72
     1
  1
\C18;\c0;\FMyriad Pro|b0|i0|c1;\H3.000000;\W1.000000;128±0.05
 73
     1
 44
1.0
  0
LINE
  5
A9
330
70
100
AcDbEntity
  8
4
 62
    18
420
        0
370
    18
100
AcDbLine
 10
118.4074167493644
 20
80.94399856158128
 30
0.0
 11
118.4074167493644
 21
98.36146354995648
 31
0.0
  0
LWPOLYLINE
  5
AA
330
70
100
AcDbEntity
  8
4
100
AcDbPolyline
 90
        4
 70
     1
 43
0.0
 10
115.4074167493643
 20
96.86146354995676
 10
115.4074167493643
 20
95.86146354995671
 10
118.4074167493644
 20
96.36146354995673
 10
118.4074167493644
 20
96.36146354995673
  0
HATCH
  5
AB
330
70
100
AcDbEntity
  8
4
 62
    18
420
        0
440
 33554687
100
AcDbHatch
 10
0.0
 20
0.0
 30
0.0
210
0.0
220
0.0
230
1.0
  2
SOLID
 70
     1
 71
     1
 91
        1
 92
        1
 93
        3
 72
     1
 10
115.4074167493643
 20
96.86146354995676
 11
115.4074167493643
 21
95.86146354995671
 72
     1
 10
115.4074167493643
 20
95.86146354995671
 11
118.4074167493644
 21
96.36146354995673
 72
     1
 10
118.4074167493644
 20
96.36146354995673
 11
115.4074167493643
 21
96.86146354995676
 97
        1
330
AA
 75
     2
 76
     1
 98
        1
 10
0.0
 20
0.0
450
        0
451
        0
460
0.0
461
0.0
452
        0
462
0.0
453
        0
470

  0
LINE
  5
AC
330
70
100
AcDbEntity
  8
4
 62
    18
420
        0
370
    18
100
AcDbLine
 10
135.8418355067353
 20
77.25335519605479
 30
0.0
 11
135.8418355067353
 21
30.25335519605443
 31
0.0
  0
LINE
  5
AD
330
70
100
AcDbEntity
  8
4
 62
    18
420
        0
370
    18
100
AcDbLine
 10
119.1672637316306
 20
27.25335519605497
 30
0.0
 11
137.8418355067354
 21
27.25335519605497
 31
0.0
  0
LWPOLYLINE
  5
AE
330
70
100
AcDbEntity
  8
4
100
AcDbPolyline
 90
        4
 70
     1
 43
0.0
 10
135.3418355067349
 20
30.25335519605443
 10
136.341835506735
 20
30.25335519605443
 10
135.8418355067353
 20
27.25335519605497
 10
135.8418355067353
 20
27.25335519605497
  0
HATCH
  5
AF
330
70
100
AcDbEntity
  8
4
 62
    18
420
        0
440
 33554687
100
AcDbHatch
 10
0.0
 20
0.0
 30
0.0
210
0.0
220
0.0
230
1.0
  2
SOLID
 70
     1
 71
     1
 91
        1
 92
        1
 93
        3
 72
     1
 10
135.3418355067349
 20
30.25335519605443
 11
136.341835506735
 21
30.25335519605443
 72
     1
 10
136.341835506735
 20
30.25335519605443
 11
135.8418355067353
 21
27.25335519605497
 72
     1
 10
135.8418355067353
 20
27.25335519605497
 11
135.3418355067349
 21
30.25335519605443
 97
        1
330
AE
 75
     2
 76
     1
 98
        1
 10
0.0
 20
0.0
450
        0
451
        0
460
0.0
461
0.0
452
        0
462
0.0
453
        0
470

  0
LINE
  5
B0
330
70
100
AcDbEntity
  8
4
 62
    18
420
        0
370
    18
100
AcDbLine
 10
103.6190660134168
 20
68.82335519605473
 30
0.0
 11
103.6190660134168
 21
92.21281523564014
 31
0.0
  0
LWPOLYLINE
  5
B1
330
70
100
AcDbEntity
  8
4
100
AcDbPolyline
 90
        4
 70
     1
 43
0.0
 10
100.6190660134174
 20
90.71281523564008
 10
100.6190660134174
 20
89.71281523564005
 10
103.6190660134168
 20
90.21281523564006
 10
103.6190660134168
 20
90.21281523564006
  0
HATCH
  5
B2
330
70
100
AcDbEntity
  8
4
 62
    18
420
        0
440
 33554687
100
AcDbHatch
 10
0.0
 20
0.0
 30
0.0
210
0.0
220
0.0
230
1.0
  2
SOLID
 70
     1
 71
     1
 91
        1
 92
        1
 93
        3
 72
     1
 10
100.6190660134174
 20
90.71281523564008
 11
100.6190660134174
 21
89.71281523564005
 72
     1
 10
100.6190660134174
 20
89.71281523564005
 11
103.6190660134168
 21
90.21281523564006
 72
     1
 10
103.6190660134168
 20
90.21281523564006
 11
100.6190660134174
 21
90.71281523564008
 97
        1
330
B1
 75
     2
 76
     1
 98
        1
 10
0.0
 20
0.0
450
        0
451
        0
460
0.0
461
0.0
452
        0
462
0.0
453
        0
470

  0
LINE
  5
B3
330
70
100
AcDbEntity
  8
4
 62
    18
420
        0
370
    18
100
AcDbLine
 10
118.9497189632048
 20
80.25335519605459
 30
0.0
 11
137.8418355067354
 21
80.25335519605459
 31
0.0
  0
LWPOLYLINE
  5
B4
330
70
100
AcDbEntity
  8
4
100
AcDbPolyline
 90
        4
 70
     1
 43
0.0
 10
135.3418355067349
 20
77.25335519605479
 10
136.341835506735
 20
77.25335519605479
 10
135.8418355067353
 20
80.25335519605459
 10
135.8418355067353
 20
80.25335519605459
  0
HATCH
  5
B5
330
70
100
AcDbEntity
  8
4
 62
    18
420
        0
440
 33554687
100
AcDbHatch
 10
0.0
 20
0.0
 30
0.0
210
0.0
220
0.0
230
1.0
  2
SOLID
 70
     1
 71
     1
 91
        1
 92
        1
 93
        3
 72
     1
 10
135.3418355067349
 20
77.25335519605479
 11
136.341835506735
 21
77.25335519605479
 72
     1
 10
136.341835506735
 20
77.25335519605479
 11
135.8418355067353
 21
80.25335519605459
 72
     1
 10
135.8418355067353
 20
80.25335519605459
 11
135.3418355067349
 21
77.25335519605479
 97
        1
330
B4
 75
     2
 76
     1
 98
        1
 10
0.0
 20
0.0
450
        0
451
        0
460
0.0
461
0.0
452
        0
462
0.0
453
        0
470

  0
MTEXT
  5
B6
330
70
100
AcDbEntity
  8
4
100
AcDbMText
 10
-54.599278203242
 20
20.38024421818172
 30
0.0
 40
0.2
 41
0.0
 46
0.0
 71
     7
 72
     1
  1
\C18;\c0;\FMyriad Pro|b0|i0|c1;\H3.000000;\W1.000000;11.5
 73
     1
 44
1.0
  0
LINE
  5
B7
330
70
100
AcDbEntity
  8
4
 62
    18
420
        0
370
    18
100
AcDbLine
 10
-59.73755531631586
 20
61.75335519605457
 30
0.0
 11
-59.73755531631586
 21
85.35497720420663
 31
0.0
  0
LINE
  5
B8
330
70
100
AcDbEntity
  8
4
 62
    18
420
        0
370
    18
100
AcDbLine
 10
-60.7375553163159
 20
81.25335519605462
 30
0.0
 11
-60.7375553163159
 21
85.35497720420663
 31
0.0
  0
LINE
  5
B9
330
70
100
AcDbEntity
  8
4
 62
    18
420
        0
370
    18
100
AcDbLine
 10
-56.73755531631607
 20
84.35497720420659
 30
0.0
 11
-53.73755531631597
 21
84.35497720420659
 31
0.0
  0
LINE
  5
BA
330
70
100
AcDbEntity
  8
4
 62
    18
420
        0
370
    18
100
AcDbLine
 10
-63.73755531631601
 20
84.35497720420659
 30
0.0
 11
-66.7375553163161
 21
84.35497720420659
 31
0.0
  0
MTEXT
  5
BB
330
70
100
AcDbEntity
  8
4
100
AcDbMText
 10
-66.73755538119701
 20
85.95497625109427
 30
0.0
 40
0.2
 41
0.0
 46
0.0
 71
     7
 72
     1
  1
\C18;\c0;\FMyriad Pro|b0|i0|c1;\H3.000000;\W1.000000;1X45°
 73
     1
 44
1.0
  0
LINE
  5
BC
330
70
100
AcDbEntity
  8
4
 62
    18
420
        0
370
    18
100
AcDbLine
 10
-59.73755531631586
 20
84.35497720420659
 30
0.0
 11
-60.7375553163159
 21
84.35497720420659
 31
0.0
  0
LWPOLYLINE
  5
BD
330
70
100
AcDbEntity
  8
4
100
AcDbPolyline
 90
        4
 70
     1
 43
0.0
 10
-56.73755531631607
 20
84.8549772042066
 10
-56.73755531631607
 20
83.85497720420657
 10
-59.73755531631586
 20
84.35497720420659
 10
-59.73755531631586
 20
84.35497720420659
  0
HATCH
  5
BE
330
70
100
AcDbEntity
  8
4
 62
    18
420
        0
440
 33554687
100
AcDbHatch
 10
0.0
 20
0.0
 30
0.0
210
0.0
220
0.0
230
1.0
  2
SOLID
 70
     1
 71
     1
 91
        1
 92
        1
 93
        3
 72
     1
 10
-56.73755531631607
 20
84.8549772042066
 11
-56.73755531631607
 21
83.85497720420657
 72
     1
 10
-56.73755531631607
 20
83.85497720420657
 11
-59.73755531631586
 21
84.35497720420659
 72
     1
 10
-59.73755531631586
 20
84.35497720420659
 11
-56.73755531631607
 21
84.8549772042066
 97
        1
330
BD
 75
     2
 76
     1
 98
        1
 10
0.0
 20
0.0
450
        0
451
        0
460
0.0
461
0.0
452
        0
462
0.0
453
        0
470

  0
LWPOLYLINE
  5
BF
330
70
100
AcDbEntity
  8
4
100
AcDbPolyline
 90
        4
 70
     1
 43
0.0
 10
-63.73755531631601
 20
84.8549772042066
 10
-63.73755531631601
 20
83.85497720420657
 10
-60.7375553163159
 20
84.35497720420659
 10
-60.7375553163159
 20
84.35497720420659
  0
HATCH
  5
C0
330
70
100
AcDbEntity
  8
4
 62
    18
420
        0
440
 33554687
100
AcDbHatch
 10
0.0
 20
0.0
 30
0.0
210
0.0
220
0.0
230
1.0
  2
SOLID
 70
     1
 71
     1
 91
        1
 92
        1
 93
        3
 72
     1
 10
-63.73755531631601
 20
84.8549772042066
 11
-63.73755531631601
 21
83.85497720420657
 72
     1
 10
-63.73755531631601
 20
83.85497720420657
 11
-60.7375553163159
 21
84.35497720420659
 72
     1
 10
-60.7375553163159
 20
84.35497720420659
 11
-63.73755531631601
 21
84.8549772042066
 97
        1
330
BF
 75
     2
 76
     1
 98
        1
 10
0.0
 20
0.0
450
        0
451
        0
460
0.0
461
0.0
452
        0
462
0.0
453
        0
470

  0
MTEXT
  5
C1
330
70
100
AcDbEntity
  8
4
100
AcDbMText
 10
133.7408514324251
 20
49.56217717945038
 30
0.0
 40
0.2
 41
0.0
 46
0.0
 71
     7
 72
     1
  1
\C18;\c0;\FMyriad Pro|b0|i0|c1;\H3.000000;\W1.000000;52
 11
-0.0000000000000002
 21
1.0
 31
0.0
 73
     1
 44
1.0
  0
LINE
  5
C2
330
70
100
AcDbEntity
  8
4
 62
    18
420
        0
370
    18
100
AcDbLine
 10
-11.33603189601068
 20
53.75335519605461
 30
0.0
 11
-22.13222004331651
 21
53.75335519605461
 31
0.0
  0
LINE
  5
C3
330
70
100
AcDbEntity
  8
4
 62
    18
420
        0
370
    18
100
AcDbLine
 10
-13.21472672623592
 20
27.25335519605497
 30
0.0
 11
-22.13222004331651
 21
27.25335519605497
 31
0.0
  0
LINE
  5
C4
330
70
100
AcDbEntity
  8
4
 62
    18
420
        0
370
    18
100
AcDbLine
 10
-60.7375553163159
 20
78.58077217751227
 30
0.0
 11
-59.06497229777358
 21
80.25335519605459
 31
0.0
  0
LINE
  5
C5
330
70
100
AcDbEntity
  8
4
 62
    18
420
        0
370
    18
100
AcDbLine
 10
-60.7375553163159
 20
75.04523827157939
 30
0.0
 11
-55.5294383918407
 21
80.25335519605459
 31
0.0
  0
LINE
  5
C6
330
70
100
AcDbEntity
  8
4
 62
    18
420
        0
370
    18
100
AcDbLine
 10
-60.7375553163159
 20
71.50970436564683
 30
0.0
 11
-51.99390448590813
 21
80.25335519605459
 31
0.0
  0
LINE
  5
C7
330
70
100
AcDbEntity
  8
4
 62
    18
420
        0
370
    18
100
AcDbLine
 10
-60.7375553163159
 20
67.97417045971393
 30
0.0
 11
-48.45837057997524
 21
80.25335519605459
 31
0.0
  0
LINE
  5
C8
330
70
100
AcDbEntity
  8
4
 62
    18
420
        0
370
    18
100
AcDbLine
 10
-60.7375553163159
 20
64.43863655378136
 30
0.0
 11
-44.92283667404267
 21
80.25335519605459
 31
0.0
  0
LINE
  5
C9
330
70
100
AcDbEntity
  8
4
 62
    18
420
        0
370
    18
100
AcDbLine
 10
-60.56242904221302
 20
61.07822892195168
 30
0.0
 11
-42.7375553163159
 21
78.90310264784847
 31
0.0
  0
LINE
  5
CA
330
70
100
AcDbEntity
  8
4
 62
    18
420
        0
370
    18
100
AcDbLine
 10
-57.85176886217696
 20
60.25335519605484
 30
0.0
 11
-55.33755531631602
 21
62.76756874191577
 31
0.0
  0
LINE
  5
CB
330
70
100
AcDbEntity
  8
4
 62
    18
420
        0
370
    18
100
AcDbLine
 10
-53.85176886217713
 20
64.25335519605467
 30
0.0
 11
-42.7375553163159
 21
75.3675687419159
 31
0.0
  0
LINE
  5
CC
330
70
100
AcDbEntity
  8
4
 62
    18
420
        0
370
    18
100
AcDbLine
 10
-50.31623495624425
 20
64.25335519605467
 30
0.0
 11
-42.7375553163159
 21
71.83203483598301
 31
0.0
  0
LINE
  5
CD
330
70
100
AcDbEntity
  8
4
 62
    18
420
        0
370
    18
100
AcDbLine
 10
-46.78070105031168
 20
64.25335519605467
 30
0.0
 11
-42.7375553163159
 21
68.29650093005044
 31
0.0
  0
LINE
  5
CE
330
70
100
AcDbEntity
  8
4
 62
    18
420
        0
370
    18
100
AcDbLine
 10
-60.7375553163159
 20
43.22543311818466
 30
0.0
 11
-56.70963323844618
 21
47.25335519605502
 31
0.0
  0
LINE
  5
CF
330
70
100
AcDbEntity
  8
4
 62
    18
420
        0
370
    18
100
AcDbLine
 10
-60.7375553163159
 20
39.68989921225242
 30
0.0
 11
-55.33755531631602
 21
45.08989921225197
 31
0.0
  0
LINE
  5
D0
330
70
100
AcDbEntity
  8
4
 62
    18
420
        0
370
    18
100
AcDbLine
 10
-60.7375553163159
 20
36.15436530631953
 30
0.0
 11
-53.63856542658055
 21
43.25335519605488
 31
0.0
  0
LINE
  5
D1
330
70
100
AcDbEntity
  8
4
 62
    18
420
        0
370
    18
100
AcDbLine
 10
-60.7375553163159
 20
32.61883140038665
 30
0.0
 11
-50.10303152064797
 21
43.25335519605488
 31
0.0
  0
LINE
  5
D2
330
70
100
AcDbEntity
  8
4
 62
    18
420
        0
370
    18
100
AcDbLine
 10
-60.7375553163159
 20
29.08329749445376
 30
0.0
 11
-46.56749761471508
 21
43.25335519605488
 31
0.0
  0
LINE
  5
D3
330
70
100
AcDbEntity
  8
4
 62
    18
420
        0
370
    18
100
AcDbLine
 10
-59.03196370878244
 20
27.25335519605497
 30
0.0
 11
-43.63475951254907
 21
42.65055939228768
 31
0.0
  0
LINE
  5
D4
330
70
100
AcDbEntity
  8
4
 62
    18
420
        0
370
    18
100
AcDbLine
 10
-55.49642980284955
 20
27.25335519605497
 30
0.0
 11
-42.7375553163159
 21
40.0122296825886
 31
0.0
  0
LINE
  5
D5
330
70
100
AcDbEntity
  8
4
 62
    18
420
        0
370
    18
100
AcDbLine
 10
-51.96089589691698
 20
27.25335519605497
 30
0.0
 11
-42.7375553163159
 21
36.47669577665573
 31
0.0
  0
LINE
  5
D6
330
70
100
AcDbEntity
  8
4
 62
    18
420
        0
370
    18
100
AcDbLine
 10
-48.4253619909841
 20
27.25335519605497
 30
0.0
 11
-42.7375553163159
 21
32.94116187072284
 31
0.0
  0
LINE
  5
D7
330
70
100
AcDbEntity
  8
4
 62
    18
420
        0
370
    18
100
AcDbLine
 10
-44.88982808505152
 20
27.25335519605497
 30
0.0
 11
-42.7375553163159
 21
29.40562796479059
 31
0.0
  0
MTEXT
  5
D8
330
70
100
AcDbEntity
  8
4
100
AcDbMText
 10
134.6248037213616
 20
55.61727700432549
 30
0.0
 40
0.2
 41
0.0
 46
0.0
 71
     7
 72
     1
  1
\C18;\c0;\FMyriad Pro|b0|i0|c1;\H2.310720;\W1.000000;+0.03
 11
-0.0000000000000002
 21
1.0
 31
0.0
 73
     1
 44
1.0
  0
MTEXT
  5
D9
330
70
100
AcDbEntity
  8
4
100
AcDbMText
 10
131.721242257142
 20
55.61727700432549
 30
0.0
 40
0.2
 41
0.0
 46
0.0
 71
     7
 72
     1
  1
\C18;\c0;\FMyriad Pro|b0|i0|c1;\H2.310720;\W1.000000;+0.01
 11
-0.0000000000000002
 21
1.0
 31
0.0
 73
     1
 44
1.0
  0
LINE
  5
DC
330
70
100
AcDbEntity
  8
7
 62
    18
420
        0
370
    30
100
AcDbLine
 10
-8.589284722530079
 20
80.25335519605459
 30
0.0
 11
117.4074167493644
 21
80.25335519605459
 31
0.0
  0
LINE
  5
DD
330
70
100
AcDbEntity
  8
7
 62
    18
420
        0
370
    30
100
AcDbLine
 10
117.4074167493644
 20
27.25335519605497
 30
0.0
 11
-8.589284722530079
 21
27.25335519605497
 31
0.0
  0
LINE
  5
DE
330
70
100
AcDbEntity
  8
7
 62
    18
420
        0
370
    30
100
AcDbLine
 10
-55.33755531631602
 20
64.25335519605467
 30
0.0
 11
-55.33755531631602
 21
43.25335519605488
 31
0.0
  0
LINE
  5
DF
330
70
100
AcDbEntity
  8
7
 62
    18
420
        0
370
    30
100
AcDbLine
 10
-42.7375553163159
 20
80.25335519605459
 30
0.0
 11
-42.7375553163159
 21
28.253355196055
 31
0.0
  0
LINE
  5
E0
330
70
100
AcDbEntity
  8
7
 62
    18
420
        0
370
    30
100
AcDbLine
 10
-55.33755531631602
 20
43.25335519605488
 30
0.0
 11
-44.23755531631595
 21
43.25335519605488
 31
0.0
  0
LINE
  5
E1
330
70
100
AcDbEntity
  8
7
 62
    18
420
        0
370
    30
100
AcDbLine
 10
-43.73755531631593
 20
27.25335519605497
 30
0.0
 11
-59.73755531631586
 21
27.25335519605497
 31
0.0
  0
LINE
  5
E2
330
70
100
AcDbEntity
  8
7
 62
    18
420
        0
370
    30
100
AcDbLine
 10
-55.33755531631602
 20
47.25335519605502
 30
0.0
 11
-59.73755531631586
 21
47.25335519605502
 31
0.0
  0
LINE
  5
E3
330
70
100
AcDbEntity
  8
7
 62
    18
420
        0
370
    30
100
AcDbLine
 10
-59.73755531631586
 20
60.25335519605484
 30
0.0
 11
-55.33755531631602
 21
60.25335519605484
 31
0.0
  0
LINE
  5
E4
330
70
100
AcDbEntity
  8
7
 62
    18
420
        0
370
    30
100
AcDbLine
 10
-59.73755531631586
 20
80.25335519605459
 30
0.0
 11
-42.7375553163159
 21
80.25335519605459
 31
0.0
  0
CIRCLE
  5
E5
330
70
100
AcDbEntity
  8
7
 62
    18
420
        0
370
    30
100
AcDbCircle
 10
5.199066013417165
 20
53.7533551960547
 30
0.0
 40
10.50000000000001
  0
LINE
  5
E6
330
70
100
AcDbEntity
  8
7
 62
    18
420
        0
370
    30
100
AcDbLine
 10
-55.33755531631602
 20
64.25335519605467
 30
0.0
 11
-44.23755531631595
 21
64.25335519605467
 31
0.0
  0
LINE
  5
E7
330
70
100
AcDbEntity
  8
7
 62
    18
420
        0
370
    30
100
AcDbLine
 10
-60.7375553163159
 20
28.253355196055
 30
0.0
 11
-60.7375553163159
 21
79.25335519605456
 31
0.0
  0
LINE
  5
E8
330
70
100
AcDbEntity
  8
7
 62
    18
420
        0
370
    30
100
AcDbLine
 10
-59.73755531631586
 20
60.25335519605484
 30
0.0
 11
-60.7375553163159
 21
61.25335519605489
 31
0.0
  0
LINE
  5
E9
330
70
100
AcDbEntity
  8
7
 62
    18
420
        0
370
    30
100
AcDbLine
 10
-59.73755531631586
 20
47.25335519605438
 30
0.0
 11
-60.7375553163159
 21
46.25335519605498
 31
0.0
  0
LINE
  5
EA
330
70
100
AcDbEntity
  8
7
 62
    18
420
        0
370
    30
100
AcDbLine
 10
-44.23755531631595
 20
64.25335519605467
 30
0.0
 11
-44.23755531631595
 21
43.25335519605488
 31
0.0
  0
LINE
  5
EB
330
70
100
AcDbEntity
  8
7
 62
    18
420
        0
370
    30
100
AcDbLine
 10
-59.73755531631586
 20
60.25335519605484
 30
0.0
 11
-59.73755531631586
 21
47.25335519605438
 31
0.0
  0
LINE
  5
EC
330
70
100
AcDbEntity
  8
7
 62
    18
420
        0
370
    30
100
AcDbLine
 10
-44.23755531631595
 20
43.25335519605488
 30
0.0
 11
-42.7375553163159
 21
41.75335519605451
 31
0.0
  0
LINE
  5
ED
330
70
100
AcDbEntity
  8
7
 62
    18
420
        0
370
    30
100
AcDbLine
 10
-44.23755531631595
 20
64.25335519605467
 30
0.0
 11
-42.7375553163159
 21
65.75335519605471
 31
0.0
  0
LINE
  5
EE
330
70
100
AcDbEntity
  8
7
 62
    18
420
        0
370
    30
100
AcDbLine
 10
-42.7375553163159
 20
28.253355196055
 30
0.0
 11
-43.73755531631593
 21
27.25335519605497
 31
0.0
  0
LINE
  5
EF
330
70
100
AcDbEntity
  8
7
 62
    18
420
        0
370
    30
100
AcDbLine
 10
-60.7375553163159
 20
28.253355196055
 30
0.0
 11
-59.73755531631586
 21
27.25335519605497
 31
0.0
  0
LINE
  5
F0
330
70
100
AcDbEntity
  8
7
 62
    18
420
        0
370
    30
100
AcDbLine
 10
-59.73755531631586
 20
80.25335519605459
 30
0.0
 11
-60.7375553163159
 21
79.25335519605487
 31
0.0
  0
CIRCLE
  5
F1
330
70
100
AcDbEntity
  8
7
 62
    18
420
        0
370
    30
100
AcDbCircle
 10
103.6190660134168
 20
53.7533551960547
 30
0.0
 40
10.50000000000001
  0
LINE
  5
F3
330
70
100
AcDbEntity
  8
3
  6
AI-Linetype-0
 62
    18
420
        0
370
    18
100
AcDbLine
 10
-8.558732697975973
 20
53.75335519605461
 30
0.0
 11
117.376865597846
 21
53.75335519605461
 31
0.0
  0
LINE
  5
F5
330
70
100
AcDbEntity
  8
3
  6
AI-Linetype-1
 62
    18
420
        0
370
    18
100
AcDbLine
 10
-39.36747978195532
 20
53.75335519605461
 30
0.0
 11
-63.84998075296389
 21
53.75335519605461
 31
0.0
  0
LINE
  5
F7
330
70
100
AcDbEntity
  8
3
  6
AI-Linetype-2
 62
    18
420
        0
370
    18
100
AcDbLine
 10
5.199066013417165
 20
67.39173318790306
 30
0.0
 11
5.199066013417165
 21
40.11497720420617
 31
0.0
  0
LINE
  5
F9
330
70
100
AcDbEntity
  8
3
  6
AI-Linetype-3
 62
    18
420
        0
370
    18
100
AcDbLine
 10
54.40906601341701
 20
83.59119295856885
 30
0.0
 11
54.40906601341701
 21
22.99659833225847
 31
0.0
  0
LINE
  5
FB
330
70
100
AcDbEntity
  8
3
  6
AI-Linetype-4
 62
    18
420
        0
370
    18
100
AcDbLine
 10
103.6190660134168
 20
67.39173318790306
 30
0.0
 11
103.6190660134168
 21
40.11497720420682
 31
0.0
  0
LINE
  5
FD
330
70
100
AcDbEntity
  8
3
 62
    18
420
        0
370
    30
100
AcDbLine
 10
-9.589284722530114
 20
79.25335519605487
 30
0.0
 11
-9.589284722530114
 21
28.253355196055
 31
0.0
  0
LINE
  5
FE
330
70
100
AcDbEntity
  8
3
 62
    18
420
        0
370
    30
100
AcDbLine
 10
118.4074167493644
 20
79.25335519605487
 30
0.0
 11
118.4074167493644
 21
28.253355196055
 31
0.0
  0
LINE
  5
100
330
70
100
AcDbEntity
  8
BART03
 62
    18
420
        0
370
    30
100
AcDbLine
 10
118.4074167493644
 20
28.253355196055
 30
0.0
 11
117.4074167493644
 21
27.25335519605497
 31
0.0
  0
LINE
  5
101
330
70
100
AcDbEntity
  8
BART03
 62
    18
420
        0
370
    30
100
AcDbLine
 10
117.4074167493644
 20
80.25335519605459
 30
0.0
 11
118.4074167493644
 21
79.25335519605487
 31
0.0
  0
LINE
  5
102
330
70
100
AcDbEntity
  8
BART03
 62
    18
420
        0
370
    30
100
AcDbLine
 10
-8.589284722530079
 20
80.25335519605459
 30
0.0
 11
-9.589284722530114
 21
79.25335519605487
 31
0.0
  0
LINE
  5
103
330
70
100
AcDbEntity
  8
BART03
 62
    18
420
        0
370
    30
100
AcDbLine
 10
-9.589284722530114
 20
28.253355196055
 30
0.0
 11
-8.589284722530079
 21
27.25335519605497
 31
0.0
  0
INSERT
  5
105
330
70
100
AcDbEntity
  8
BART03
100
AcDbBlockReference
  2
Block_0
 10
0.0
 20
0.0
 30
0.0
  0
MTEXT
  5
10B
330
70
100
AcDbEntity
  8
BART03
100
AcDbMText
 10
-40.14539355228055
 20
60.90558470157048
 30
0.0
 40
0.2
 41
0.0
 46
0.0
 71
     7
 72
     1
  1
\C18;\c0;\FMyriad Pro|b0|i0|c1;\H2.000000;\W1.000000;1.5C
 73
     1
 44
1.0
  0
CIRCLE
  5
10C
330
70
100
AcDbEntity
  8
BART03
 62
    18
420
        0
370
    30
100
AcDbCircle
 10
5.199066013417165
 20
53.75335519605461
 30
0.0
 40
8.999999999999996
  0
CIRCLE
  5
10D
330
70
100
AcDbEntity
  8
BART03
 62
    18
420
        0
370
    30
100
AcDbCircle
 10
103.619066013417
 20
53.75335519605461
 30
0.0
 40
8.999999999999914
  0
CIRCLE
  5
10E
330
70
100
AcDbEntity
  8
BART03
 62
    18
420
        0
370
    30
100
AcDbCircle
 10
5.199066013417084
 20
53.7533551960547
 30
0.0
 40
6.000000000000131
  0
CIRCLE
  5
10F
330
70
100
AcDbEntity
  8
BART03
 62
    18
420
        0
370
    30
100
AcDbCircle
 10
103.619066013417
 20
53.7533551960547
 30
0.0
 40
5.99999999999993
  0
LINE
  5
111
330
70
100
AcDbEntity
  8
ASHADE
 62
    18
420
        0
370
    18
100
AcDbLine
 10
-99.78194445374898
 20
-42.22904041718162
 30
0.0
 11
174.2180555462507
 21
-42.22904041718162
 31
0.0
  0
LINE
  5
112
330
70
100
AcDbEntity
  8
ASHADE
 62
    18
420
        0
370
    18
100
AcDbLine
 10
-94.93851011031425
 20
-37.38560607374721
 30
0.0
 11
169.3746212028169
 21
-37.38560607374721
 31
0.0
  0
LINE
  5
113
330
70
100
AcDbEntity
  8
ASHADE
 62
    18
420
        0
370
    18
100
AcDbLine
 10
-99.78194445374898
 20
147.3568181686771
 30
0.0
 11
-99.78194445374898
 21
-42.22904041718162
 31
0.0
  0
LINE
  5
114
330
70
100
AcDbEntity
  8
ASHADE
 62
    18
420
        0
370
    18
100
AcDbLine
 10
174.2180555462507
 20
-42.22904041718162
 30
0.0
 11
174.2180555462507
 21
147.3568181686771
 31
0.0
  0
LINE
  5
115
330
70
100
AcDbEntity
  8
ASHADE
 62
    18
420
        0
370
    18
100
AcDbLine
 10
-94.93851011031425
 20
-37.38560607374721
 30
0.0
 11
-12.60012627193093
 21
-37.38560607374721
 31
0.0
  0
LINE
  5
116
330
70
100
AcDbEntity
  8
ASHADE
 62
    18
420
        0
370
    18
100
AcDbLine
 10
-94.93851011031425
 20
-12.47651516465606
 30
0.0
 11
-94.93851011031425
 21
-37.38560607374721
 31
0.0
  0
LINE
  5
117
330
70
100
AcDbEntity
  8
ASHADE
 62
    18
420
        0
370
    18
100
AcDbLine
 10
169.3746212028169
 20
-37.38560607374721
 30
0.0
 11
169.3746212028169
 21
142.513383825243
 31
0.0
  0
LINE
  5
118
330
70
100
AcDbEntity
  8
ASHADE
 62
    18
420
        0
370
    18
100
AcDbLine
 10
-94.93851011031425
 20
142.513383825243
 30
0.0
 11
-94.93851011031425
 21
-37.38560607374721
 31
0.0
  0
LINE
  5
119
330
70
100
AcDbEntity
  8
ASHADE
 62
    18
420
        0
370
    18
100
AcDbLine
 10
-99.78194445374898
 20
147.3568181686771
 30
0.0
 11
174.2180555462507
 21
147.3568181686771
 31
0.0
  0
LINE
  5
11A
330
70
100
AcDbEntity
  8
ASHADE
 62
    18
420
        0
370
    18
100
AcDbLine
 10
-94.93851011031425
 20
142.513383825243
 30
0.0
 11
169.3746212028169
 21
142.513383825243
 31
0.0
  0
MTEXT
  5
11B
330
70
100
AcDbEntity
  8
ASHADE
100
AcDbMText
 10
-98.86761938378462
 20
-16.45505045373468
 30
0.0
 40
0.2
 41
0.0
 46
0.0
 71
     7
 72
     1
  1
\C18;\c0;\FMyriad Pro|b0|i0|c1;\H3.113636;\W1.000000;A
 73
     1
 44
1.0
  0
LINE
  5
11C
330
70
100
AcDbEntity
  8
ASHADE
 62
    18
420
        0
370
    18
100
AcDbLine
 10
169.7205807987762
 20
-37.73156566970644
 30
0.0
 11
169.7205807987762
 21
142.8593434212026
 31
0.0
  0
LINE
  5
11D
330
70
100
AcDbEntity
  8
ASHADE
 62
    18
420
        0
370
    18
100
AcDbLine
 10
-95.28446970627411
 20
-37.73156566970644
 30
0.0
 11
169.7205807987762
 21
-37.73156566970644
 31
0.0
  0
LINE
  5
11E
330
70
100
AcDbEntity
  8
ASHADE
 62
    18
420
        0
370
    18
100
AcDbLine
 10
-95.28446970627411
 20
142.8593434212026
 30
0.0
 11
169.7205807987762
 21
142.8593434212026
 31
0.0
  0
LINE
  5
11F
330
70
100
AcDbEntity
  8
ASHADE
 62
    18
420
        0
370
    18
100
AcDbLine
 10
-95.28446970627411
 20
142.8593434212026
 30
0.0
 11
-95.28446970627411
 21
-37.73156566970644
 31
0.0
  0
LINE
  5
120
330
70
100
AcDbEntity
  8
ASHADE
 62
    18
420
        0
370
    18
100
AcDbLine
 10
37.0450757482711
 20
-39.80732324546442
 30
0.0
 11
37.0450757482711
 21
-37.73156566970644
 31
0.0
  0
LINE
  5
121
330
70
100
AcDbEntity
  8
ASHADE
 62
    18
420
        0
370
    18
100
AcDbLine
 10
37.39103534423098
 20
-39.80732324546442
 30
0.0
 11
37.39103534423098
 21
-37.73156566970644
 31
0.0
  0
LWPOLYLINE
  5
122
330
70
100
AcDbEntity
  8
ASHADE
100
AcDbPolyline
 90
        4
 70
     1
 43
0.0
 10
37.39103534423098
 20
-37.73156566970644
 10
37.0450757482711
 20
-37.73156566970644
 10
37.0450757482711
 20
-39.80732324546442
 10
37.39103534423098
 20
-39.80732324546442
  0
HATCH
  5
123
330
70
100
AcDbEntity
  8
ASHADE
 62
    18
420
        0
440
 33554687
100
AcDbHatch
 10
0.0
 20
0.0
 30
0.0
210
0.0
220
0.0
230
1.0
  2
SOLID
 70
     1
 71
     1
 91
        1
 92
        1
 93
        4
 72
     1
 10
37.39103534423098
 20
-37.73156566970644
 11
37.0450757482711
 21
-37.73156566970644
 72
     1
 10
37.0450757482711
 20
-37.73156566970644
 11
37.0450757482711
 21
-39.80732324546442
 72
     1
 10
37.0450757482711
 20
-39.80732324546442
 11
37.39103534423098
 21
-39.80732324546442
 72
     1
 10
37.39103534423098
 20
-39.80732324546442
 11
37.39103534423098
 21
-37.73156566970644
 97
        1
330
122
 75
     2
 76
     1
 98
        1
 10
0.0
 20
0.0
450
        0
451
        0
460
0.0
461
0.0
452
        0
462
0.0
453
        0
470

  0
LINE
  5
124
330
70
100
AcDbEntity
  8
ASHADE
 62
    18
420
        0
370
    18
100
AcDbLine
 10
37.0450757482711
 20
-39.80732324546442
 30
0.0
 11
37.39103534423098
 21
-39.80732324546442
 31
0.0
  0
LINE
  5
125
330
70
100
AcDbEntity
  8
ASHADE
 62
    18
420
        0
370
    18
100
AcDbLine
 10
70.08421716241227
 20
-39.80732324546442
 30
0.0
 11
70.08421716241227
 21
-37.73156566970644
 31
0.0
  0
LINE
  5
126
330
70
100
AcDbEntity
  8
ASHADE
 62
    18
420
        0
370
    18
100
AcDbLine
 10
70.43017675837278
 20
-39.80732324546442
 30
0.0
 11
70.43017675837278
 21
-37.73156566970644
 31
0.0
  0
LWPOLYLINE
  5
127
330
70
100
AcDbEntity
  8
ASHADE
100
AcDbPolyline
 90
        4
 70
     1
 43
0.0
 10
70.43017675837278
 20
-37.73156566970644
 10
70.08421716241227
 20
-37.73156566970644
 10
70.08421716241227
 20
-39.80732324546442
 10
70.43017675837278
 20
-39.80732324546442
  0
HATCH
  5
128
330
70
100
AcDbEntity
  8
ASHADE
 62
    18
420
        0
440
 33554687
100
AcDbHatch
 10
0.0
 20
0.0
 30
0.0
210
0.0
220
0.0
230
1.0
  2
SOLID
 70
     1
 71
     1
 91
        1
 92
        1
 93
        4
 72
     1
 10
70.43017675837278
 20
-37.73156566970644
 11
70.08421716241227
 21
-37.73156566970644
 72
     1
 10
70.08421716241227
 20
-37.73156566970644
 11
70.08421716241227
 21
-39.80732324546442
 72
     1
 10
70.08421716241227
 20
-39.80732324546442
 11
70.43017675837278
 21
-39.80732324546442
 72
     1
 10
70.43017675837278
 20
-39.80732324546442
 11
70.43017675837278
 21
-37.73156566970644
 97
        1
330
127
 75
     2
 76
     1
 98
        1
 10
0.0
 20
0.0
450
        0
451
        0
460
0.0
461
0.0
452
        0
462
0.0
453
        0
470

  0
LINE
  5
129
330
70
100
AcDbEntity
  8
ASHADE
 62
    18
420
        0
370
    18
100
AcDbLine
 10
70.08421716241227
 20
-39.80732324546442
 30
0.0
 11
70.43017675837278
 21
-39.80732324546442
 31
0.0
  0
LINE
  5
12A
330
70
100
AcDbEntity
  8
ASHADE
 62
    18
420
        0
370
    18
100
AcDbLine
 10
103.1233585765541
 20
-39.94072854164306
 30
0.0
 11
103.4693181725139
 21
-39.94072854164306
 31
0.0
  0
LWPOLYLINE
  5
12B
330
70
100
AcDbEntity
  8
ASHADE
100
AcDbPolyline
 90
        4
 70
     1
 43
0.0
 10
103.4693181725139
 20
-37.86497096588509
 10
103.1233585765541
 20
-37.86497096588509
 10
103.1233585765541
 20
-39.94072854164242
 10
103.4693181725139
 20
-39.94072854164242
  0
HATCH
  5
12C
330
70
100
AcDbEntity
  8
ASHADE
 62
    18
420
        0
440
 33554687
100
AcDbHatch
 10
0.0
 20
0.0
 30
0.0
210
0.0
220
0.0
230
1.0
  2
SOLID
 70
     1
 71
     1
 91
        1
 92
        1
 93
        4
 72
     1
 10
103.4693181725139
 20
-37.86497096588509
 11
103.1233585765541
 21
-37.86497096588509
 72
     1
 10
103.1233585765541
 20
-37.86497096588509
 11
103.1233585765541
 21
-39.94072854164242
 72
     1
 10
103.1233585765541
 20
-39.94072854164242
 11
103.4693181725139
 21
-39.94072854164242
 72
     1
 10
103.4693181725139
 20
-39.94072854164242
 11
103.4693181725139
 21
-37.86497096588509
 97
        1
330
12B
 75
     2
 76
     1
 98
        1
 10
0.0
 20
0.0
450
        0
451
        0
460
0.0
461
0.0
452
        0
462
0.0
453
        0
470

  0
LINE
  5
12D
330
70
100
AcDbEntity
  8
ASHADE
 62
    18
420
        0
370
    18
100
AcDbLine
 10
103.4693181725139
 20
-39.94072854164306
 30
0.0
 11
103.4693181725139
 21
-37.86497096588509
 31
0.0
  0
LINE
  5
12E
330
70
100
AcDbEntity
  8
ASHADE
 62
    18
420
        0
370
    18
100
AcDbLine
 10
103.1233585765541
 20
-39.94072854164306
 30
0.0
 11
103.1233585765541
 21
-37.86497096588509
 31
0.0
  0
LINE
  5
12F
330
70
100
AcDbEntity
  8
ASHADE
 62
    18
420
        0
370
    18
100
AcDbLine
 10
136.1624999906952
 20
-39.80732324546442
 30
0.0
 11
136.1624999906952
 21
-37.73156566970644
 31
0.0
  0
LINE
  5
130
330
70
100
AcDbEntity
  8
ASHADE
 62
    18
420
        0
370
    18
100
AcDbLine
 10
136.5084595866551
 20
-39.80732324546442
 30
0.0
 11
136.5084595866551
 21
-37.73156566970644
 31
0.0
  0
LWPOLYLINE
  5
131
330
70
100
AcDbEntity
  8
ASHADE
100
AcDbPolyline
 90
        4
 70
     1
 43
0.0
 10
136.5084595866551
 20
-37.73156566970644
 10
136.1624999906952
 20
-37.73156566970644
 10
136.1624999906952
 20
-39.80732324546442
 10
136.5084595866551
 20
-39.80732324546442
  0
HATCH
  5
132
330
70
100
AcDbEntity
  8
ASHADE
 62
    18
420
        0
440
 33554687
100
AcDbHatch
 10
0.0
 20
0.0
 30
0.0
210
0.0
220
0.0
230
1.0
  2
SOLID
 70
     1
 71
     1
 91
        1
 92
        1
 93
        4
 72
     1
 10
136.5084595866551
 20
-37.73156566970644
 11
136.1624999906952
 21
-37.73156566970644
 72
     1
 10
136.1624999906952
 20
-37.73156566970644
 11
136.1624999906952
 21
-39.80732324546442
 72
     1
 10
136.1624999906952
 20
-39.80732324546442
 11
136.5084595866551
 21
-39.80732324546442
 72
     1
 10
136.5084595866551
 20
-39.80732324546442
 11
136.5084595866551
 21
-37.73156566970644
 97
        1
330
131
 75
     2
 76
     1
 98
        1
 10
0.0
 20
0.0
450
        0
451
        0
460
0.0
461
0.0
452
        0
462
0.0
453
        0
470

  0
LINE
  5
133
330
70
100
AcDbEntity
  8
ASHADE
 62
    18
420
        0
370
    18
100
AcDbLine
 10
136.1624999906952
 20
-39.80732324546442
 30
0.0
 11
136.5084595866551
 21
-39.80732324546442
 31
0.0
  0
MTEXT
  5
134
330
70
100
AcDbEntity
  8
ASHADE
100
AcDbMText
 10
52.18081040667322
 20
-41.53712061797265
 30
0.0
 40
0.2
 41
0.0
 46
0.0
 71
     7
 72
     1
  1
\C18;\c0;\FMyriad Pro|b0|i0|c1;\H3.113636;\W1.000000;4
 73
     1
 44
1.0
  0
MTEXT
  5
135
330
70
100
AcDbEntity
  8
ASHADE
100
AcDbMText
 10
85.29408312890435
 20
-41.53712061797265
 30
0.0
 40
0.2
 41
0.0
 46
0.0
 71
     7
 72
     1
  1
\C18;\c0;\FMyriad Pro|b0|i0|c1;\H3.113636;\W1.000000;3
 73
     1
 44
1.0
  0
MTEXT
  5
136
330
70
100
AcDbEntity
  8
ASHADE
100
AcDbMText
 10
151.5947734877632
 20
-41.67052655767725
 30
0.0
 40
0.2
 41
0.0
 46
0.0
 71
     7
 72
     1
  1
\C18;\c0;\FMyriad Pro|b0|i0|c1;\H3.113636;\W1.000000;1
 73
     1
 44
1.0
  0
MTEXT
  5
137
330
70
100
AcDbEntity
  8
ASHADE
100
AcDbMText
 10
118.3332270856239
 20
-41.67052655767725
 30
0.0
 40
0.2
 41
0.0
 46
0.0
 71
     7
 72
     1
  1
\C18;\c0;\FMyriad Pro|b0|i0|c1;\H3.113636;\W1.000000;2
 73
     1
 44
1.0
  0
LINE
  5
138
330
70
100
AcDbEntity
  8
ASHADE
 62
    18
420
        0
370
    18
100
AcDbLine
 10
-62.07234849415335
 20
-39.80732324546442
 30
0.0
 11
-62.07234849415335
 21
-37.73156566970644
 31
0.0
  0
LINE
  5
139
330
70
100
AcDbEntity
  8
ASHADE
 62
    18
420
        0
370
    18
100
AcDbLine
 10
-61.72638889819315
 20
-39.80732324546442
 30
0.0
 11
-61.72638889819315
 21
-37.73156566970644
 31
0.0
  0
LWPOLYLINE
  5
13A
330
70
100
AcDbEntity
  8
ASHADE
100
AcDbPolyline
 90
        4
 70
     1
 43
0.0
 10
-61.72638889819315
 20
-37.73156566970644
 10
-62.07234849415335
 20
-37.73156566970644
 10
-62.07234849415335
 20
-39.80732324546442
 10
-61.72638889819315
 20
-39.80732324546442
  0
HATCH
  5
13B
330
70
100
AcDbEntity
  8
ASHADE
 62
    18
420
        0
440
 33554687
100
AcDbHatch
 10
0.0
 20
0.0
 30
0.0
210
0.0
220
0.0
230
1.0
  2
SOLID
 70
     1
 71
     1
 91
        1
 92
        1
 93
        4
 72
     1
 10
-61.72638889819315
 20
-37.73156566970644
 11
-62.07234849415335
 21
-37.73156566970644
 72
     1
 10
-62.07234849415335
 20
-37.73156566970644
 11
-62.07234849415335
 21
-39.80732324546442
 72
     1
 10
-62.07234849415335
 20
-39.80732324546442
 11
-61.72638889819315
 21
-39.80732324546442
 72
     1
 10
-61.72638889819315
 20
-39.80732324546442
 11
-61.72638889819315
 21
-37.73156566970644
 97
        1
330
13A
 75
     2
 76
     1
 98
        1
 10
0.0
 20
0.0
450
        0
451
        0
460
0.0
461
0.0
452
        0
462
0.0
453
        0
470

  0
LINE
  5
13C
330
70
100
AcDbEntity
  8
ASHADE
 62
    18
420
        0
370
    18
100
AcDbLine
 10
-62.07234849415335
 20
-39.80732324546442
 30
0.0
 11
-61.72638889819315
 21
-39.80732324546442
 31
0.0
  0
MTEXT
  5
13D
330
70
100
AcDbEntity
  8
ASHADE
100
AcDbMText
 10
-46.86248193205066
 20
-41.53712061797265
 30
0.0
 40
0.2
 41
0.0
 46
0.0
 71
     7
 72
     1
  1
\C18;\c0;\FMyriad Pro|b0|i0|c1;\H3.113636;\W1.000000;7
 73
     1
 44
1.0
  0
LINE
  5
13E
330
70
100
AcDbEntity
  8
ASHADE
 62
    18
420
        0
370
    18
100
AcDbLine
 10
-29.0332070800109
 20
-39.80732324546442
 30
0.0
 11
-28.68724748405199
 21
-39.80732324546442
 31
0.0
  0
LWPOLYLINE
  5
13F
330
70
100
AcDbEntity
  8
ASHADE
100
AcDbPolyline
 90
        4
 70
     1
 43
0.0
 10
-28.68724748405199
 20
-37.73156566970644
 10
-29.0332070800109
 20
-37.73156566970644
 10
-29.0332070800109
 20
-39.80732324546442
 10
-28.68724748405199
 20
-39.80732324546442
  0
HATCH
  5
140
330
70
100
AcDbEntity
  8
ASHADE
 62
    18
420
        0
440
 33554687
100
AcDbHatch
 10
0.0
 20
0.0
 30
0.0
210
0.0
220
0.0
230
1.0
  2
SOLID
 70
     1
 71
     1
 91
        1
 92
        1
 93
        4
 72
     1
 10
-28.68724748405199
 20
-37.73156566970644
 11
-29.0332070800109
 21
-37.73156566970644
 72
     1
 10
-29.0332070800109
 20
-37.73156566970644
 11
-29.0332070800109
 21
-39.80732324546442
 72
     1
 10
-29.0332070800109
 20
-39.80732324546442
 11
-28.68724748405199
 21
-39.80732324546442
 72
     1
 10
-28.68724748405199
 20
-39.80732324546442
 11
-28.68724748405199
 21
-37.73156566970644
 97
        1
330
13F
 75
     2
 76
     1
 98
        1
 10
0.0
 20
0.0
450
        0
451
        0
460
0.0
461
0.0
452
        0
462
0.0
453
        0
470

  0
LINE
  5
141
330
70
100
AcDbEntity
  8
ASHADE
 62
    18
420
        0
370
    18
100
AcDbLine
 10
-28.68724748405199
 20
-39.80732324546442
 30
0.0
 11
-28.68724748405199
 21
-37.73156566970644
 31
0.0
  0
LINE
  5
142
330
70
100
AcDbEntity
  8
ASHADE
 62
    18
420
        0
370
    18
100
AcDbLine
 10
-29.0332070800109
 20
-39.80732324546442
 30
0.0
 11
-29.0332070800109
 21
-37.73156566970644
 31
0.0
  0
MTEXT
  5
143
330
70
100
AcDbEntity
  8
ASHADE
100
AcDbMText
 10
-13.89747481528512
 20
-41.53712061797265
 30
0.0
 40
0.2
 41
0.0
 46
0.0
 71
     7
 72
     1
  1
\C18;\c0;\FMyriad Pro|b0|i0|c1;\H3.113636;\W1.000000;6
 73
     1
 44
1.0
  0
LINE
  5
144
330
70
100
AcDbEntity
  8
ASHADE
 62
    18
420
        0
370
    18
100
AcDbLine
 10
4.005934334129621
 20
-39.94072854164242
 30
0.0
 11
4.005934334129621
 21
-37.86497096588509
 31
0.0
  0
LINE
  5
145
330
70
100
AcDbEntity
  8
ASHADE
 62
    18
420
        0
370
    18
100
AcDbLine
 10
4.351893930089497
 20
-39.94072854164242
 30
0.0
 11
4.351893930089497
 21
-37.86497096588509
 31
0.0
  0
LWPOLYLINE
  5
146
330
70
100
AcDbEntity
  8
ASHADE
100
AcDbPolyline
 90
        4
 70
     1
 43
0.0
 10
4.351893930089497
 20
-37.86497096588509
 10
4.005934334129621
 20
-37.86497096588509
 10
4.005934334129621
 20
-39.94072854164242
 10
4.351893930089497
 20
-39.94072854164242
  0
HATCH
  5
147
330
70
100
AcDbEntity
  8
ASHADE
 62
    18
420
        0
440
 33554687
100
AcDbHatch
 10
0.0
 20
0.0
 30
0.0
210
0.0
220
0.0
230
1.0
  2
SOLID
 70
     1
 71
     1
 91
        1
 92
        1
 93
        4
 72
     1
 10
4.351893930089497
 20
-37.86497096588509
 11
4.005934334129621
 21
-37.86497096588509
 72
     1
 10
4.005934334129621
 20
-37.86497096588509
 11
4.005934334129621
 21
-39.94072854164242
 72
     1
 10
4.005934334129621
 20
-39.94072854164242
 11
4.351893930089497
 21
-39.94072854164242
 72
     1
 10
4.351893930089497
 20
-39.94072854164242
 11
4.351893930089497
 21
-37.86497096588509
 97
        1
330
146
 75
     2
 76
     1
 98
        1
 10
0.0
 20
0.0
450
        0
451
        0
460
0.0
461
0.0
452
        0
462
0.0
453
        0
470

  0
LINE
  5
148
330
70
100
AcDbEntity
  8
ASHADE
 62
    18
420
        0
370
    18
100
AcDbLine
 10
4.005934334129621
 20
-39.94072854164242
 30
0.0
 11
4.351893930089497
 21
-39.94072854164242
 31
0.0
  0
MTEXT
  5
149
330
70
100
AcDbEntity
  8
ASHADE
100
AcDbMText
 10
19.21580059842684
 20
-41.67052655767725
 30
0.0
 40
0.2
 41
0.0
 46
0.0
 71
     7
 72
     1
  1
\C18;\c0;\FMyriad Pro|b0|i0|c1;\H3.113636;\W1.000000;5
 73
     1
 44
1.0
  0
MTEXT
  5
14A
330
70
100
AcDbEntity
  8
ASHADE
100
AcDbMText
 10
-79.90162588877026
 20
-41.53712061797265
 30
0.0
 40
0.2
 41
0.0
 46
0.0
 71
     7
 72
     1
  1
\C18;\c0;\FMyriad Pro|b0|i0|c1;\H3.113636;\W1.000000;8
 73
     1
 44
1.0
  0
LWPOLYLINE
  5
14B
330
70
100
AcDbEntity
  8
ASHADE
100
AcDbPolyline
 90
        4
 70
     1
 43
0.0
 10
-94.93851011031425
 20
142.513383825243
 10
-95.28446970627411
 20
142.8593434212026
 10
169.7205807987762
 20
142.8593434212026
 10
169.3746212028169
 20
142.513383825243
  0
HATCH
  5
14C
330
70
100
AcDbEntity
  8
ASHADE
 62
    18
420
        0
440
 33554687
100
AcDbHatch
 10
0.0
 20
0.0
 30
0.0
210
0.0
220
0.0
230
1.0
  2
SOLID
 70
     1
 71
     1
 91
        1
 92
        1
 93
        4
 72
     1
 10
-94.93851011031425
 20
142.513383825243
 11
-95.28446970627411
 21
142.8593434212026
 72
     1
 10
-95.28446970627411
 20
142.8593434212026
 11
169.7205807987762
 21
142.8593434212026
 72
     1
 10
169.7205807987762
 20
142.8593434212026
 11
169.3746212028169
 21
142.513383825243
 72
     1
 10
169.3746212028169
 20
142.513383825243
 11
-94.93851011031427
 21
142.513383825243
 97
        1
330
14B
 75
     2
 76
     1
 98
        1
 10
0.0
 20
0.0
450
        0
451
        0
460
0.0
461
0.0
452
        0
462
0.0
453
        0
470

  0
LWPOLYLINE
  5
14D
330
70
100
AcDbEntity
  8
ASHADE
100
AcDbPolyline
 90
        4
 70
     1
 43
0.0
 10
169.3746212028169
 20
142.513383825243
 10
169.7205807987762
 20
142.8593434212026
 10
169.7205807987762
 20
-37.73156566970644
 10
169.3746212028169
 20
-37.38560607374721
  0
HATCH
  5
14E
330
70
100
AcDbEntity
  8
ASHADE
 62
    18
420
        0
440
 33554687
100
AcDbHatch
 10
0.0
 20
0.0
 30
0.0
210
0.0
220
0.0
230
1.0
  2
SOLID
 70
     1
 71
     1
 91
        1
 92
        1
 93
        4
 72
     1
 10
169.3746212028169
 20
142.513383825243
 11
169.7205807987762
 21
142.8593434212026
 72
     1
 10
169.7205807987762
 20
142.8593434212026
 11
169.7205807987762
 21
-37.73156566970644
 72
     1
 10
169.7205807987762
 20
-37.73156566970644
 11
169.3746212028169
 21
-37.38560607374721
 72
     1
 10
169.3746212028169
 20
-37.38560607374721
 11
169.3746212028169
 21
142.513383825243
 97
        1
330
14D
 75
     2
 76
     1
 98
        1
 10
0.0
 20
0.0
450
        0
451
        0
460
0.0
461
0.0
452
        0
462
0.0
453
        0
470

  0
LWPOLYLINE
  5
14F
330
70
100
AcDbEntity
  8
ASHADE
100
AcDbPolyline
 90
        4
 70
     1
 43
0.0
 10
169.3746212028169
 20
-37.38560607374721
 10
169.7205807987762
 20
-37.73156566970644
 10
-95.28446970627411
 20
-37.73156566970644
 10
-94.93851011031425
 20
-37.38560607374721
  0
HATCH
  5
150
330
70
100
AcDbEntity
  8
ASHADE
 62
    18
420
        0
440
 33554687
100
AcDbHatch
 10
0.0
 20
0.0
 30
0.0
210
0.0
220
0.0
230
1.0
  2
SOLID
 70
     1
 71
     1
 91
        1
 92
        1
 93
        4
 72
     1
 10
169.3746212028169
 20
-37.38560607374721
 11
169.7205807987762
 21
-37.73156566970644
 72
     1
 10
169.7205807987762
 20
-37.73156566970644
 11
-95.28446970627413
 21
-37.73156566970644
 72
     1
 10
-95.28446970627411
 20
-37.73156566970644
 11
-94.93851011031425
 21
-37.38560607374721
 72
     1
 10
-94.93851011031425
 20
-37.38560607374721
 11
169.3746212028169
 21
-37.38560607374721
 97
        1
330
14F
 75
     2
 76
     1
 98
        1
 10
0.0
 20
0.0
450
        0
451
        0
460
0.0
461
0.0
452
        0
462
0.0
453
        0
470

  0
LWPOLYLINE
  5
151
330
70
100
AcDbEntity
  8
ASHADE
100
AcDbPolyline
 90
        4
 70
     1
 43
0.0
 10
-95.28446970627411
 20
-37.73156566970644
 10
-94.93851011031425
 20
-37.38560607374721
 10
-94.93851011031425
 20
142.513383825243
 10
-95.28446970627411
 20
142.8593434212026
  0
HATCH
  5
152
330
70
100
AcDbEntity
  8
ASHADE
 62
    18
420
        0
440
 33554687
100
AcDbHatch
 10
0.0
 20
0.0
 30
0.0
210
0.0
220
0.0
230
1.0
  2
SOLID
 70
     1
 71
     1
 91
        1
 92
        1
 93
        4
 72
     1
 10
-95.28446970627411
 20
-37.73156566970644
 11
-94.93851011031425
 21
-37.38560607374721
 72
     1
 10
-94.93851011031425
 20
-37.38560607374721
 11
-94.93851011031425
 21
142.513383825243
 72
     1
 10
-94.93851011031425
 20
142.513383825243
 11
-95.28446970627411
 21
142.8593434212026
 72
     1
 10
-95.28446970627411
 20
142.8593434212026
 11
-95.28446970627411
 21
-37.73156566970644
 97
        1
330
151
 75
     2
 76
     1
 98
        1
 10
0.0
 20
0.0
450
        0
451
        0
460
0.0
461
0.0
452
        0
462
0.0
453
        0
470

  0
LINE
  5
153
330
70
100
AcDbEntity
  8
ASHADE
 62
    18
420
        0
370
    18
100
AcDbLine
 10
169.3746212028169
 20
-12.47651516465606
 30
0.0
 11
169.3746212028169
 21
-37.38560607374721
 31
0.0
  0
MTEXT
  5
154
330
70
100
AcDbEntity
  8
ASHADE
100
AcDbMText
 10
170.6349011312508
 20
-16.45505045373468
 30
0.0
 40
0.2
 41
0.0
 46
0.0
 71
     7
 72
     1
  1
\C18;\c0;\FMyriad Pro|b0|i0|c1;\H3.113636;\W1.000000;A
 73
     1
 44
1.0
  0
MTEXT
  5
155
330
70
100
AcDbEntity
  8
ASHADE
100
AcDbMText
 10
170.3383645373579
 20
118.469189932134
 30
0.0
 40
0.2
 41
0.0
 46
0.0
 71
     7
 72
     1
  1
\C18;\c0;\FMyriad Pro|b0|i0|c1;\H3.113636;\W1.000000;D
 73
     1
 44
1.0
  0
MTEXT
  5
156
330
70
100
AcDbEntity
  8
ASHADE
100
AcDbMText
 10
-46.86248193205066
 20
143.5512614421124
 30
0.0
 40
0.2
 41
0.0
 46
0.0
 71
     7
 72
     1
  1
\C18;\c0;\FMyriad Pro|b0|i0|c1;\H3.113636;\W1.000000;7
 73
     1
 44
1.0
  0
MTEXT
  5
157
330
70
100
AcDbEntity
  8
ASHADE
100
AcDbMText
 10
-79.90162588877026
 20
143.6629471313748
 30
0.0
 40
0.2
 41
0.0
 46
0.0
 71
     7
 72
     1
  1
\C18;\c0;\FMyriad Pro|b0|i0|c1;\H3.113636;\W1.000000;8
 73
     1
 44
1.0
  0
LINE
  5
158
330
70
100
AcDbEntity
  8
ASHADE
 62
    18
420
        0
370
    18
100
AcDbLine
 10
-62.07234849415335
 20
144.9351009969599
 30
0.0
 11
-61.72638889819315
 21
144.9351009969599
 31
0.0
  0
LWPOLYLINE
  5
159
330
70
100
AcDbEntity
  8
ASHADE
100
AcDbPolyline
 90
        4
 70
     1
 43
0.0
 10
-61.72638889819315
 20
142.8593434212026
 10
-62.07234849415335
 20
142.8593434212026
 10
-62.07234849415335
 20
144.9351009969599
 10
-61.72638889819315
 20
144.9351009969599
  0
HATCH
  5
15A
330
70
100
AcDbEntity
  8
ASHADE
 62
    18
420
        0
440
 33554687
100
AcDbHatch
 10
0.0
 20
0.0
 30
0.0
210
0.0
220
0.0
230
1.0
  2
SOLID
 70
     1
 71
     1
 91
        1
 92
        1
 93
        4
 72
     1
 10
-61.72638889819315
 20
142.8593434212026
 11
-62.07234849415335
 21
142.8593434212026
 72
     1
 10
-62.07234849415335
 20
142.8593434212026
 11
-62.07234849415335
 21
144.9351009969599
 72
     1
 10
-62.07234849415335
 20
144.9351009969599
 11
-61.72638889819315
 21
144.9351009969599
 72
     1
 10
-61.72638889819315
 20
144.9351009969599
 11
-61.72638889819315
 21
142.8593434212026
 97
        1
330
159
 75
     2
 76
     1
 98
        1
 10
0.0
 20
0.0
450
        0
451
        0
460
0.0
461
0.0
452
        0
462
0.0
453
        0
470

  0
LINE
  5
15B
330
70
100
AcDbEntity
  8
ASHADE
 62
    18
420
        0
370
    18
100
AcDbLine
 10
-61.72638889819315
 20
144.9351009969599
 30
0.0
 11
-61.72638889819315
 21
142.8593434212026
 31
0.0
  0
LINE
  5
15C
330
70
100
AcDbEntity
  8
ASHADE
 62
    18
420
        0
370
    18
100
AcDbLine
 10
-62.07234849415335
 20
144.9351009969599
 30
0.0
 11
-62.07234849415335
 21
142.8593434212026
 31
0.0
  0
LINE
  5
15D
330
70
100
AcDbEntity
  8
ASHADE
 62
    18
420
        0
370
    18
100
AcDbLine
 10
-29.0332070800109
 20
144.9351009969599
 30
0.0
 11
-29.0332070800109
 21
142.8593434212026
 31
0.0
  0
LINE
  5
15E
330
70
100
AcDbEntity
  8
ASHADE
 62
    18
420
        0
370
    18
100
AcDbLine
 10
-28.68724748405199
 20
144.9351009969599
 30
0.0
 11
-28.68724748405199
 21
142.8593434212026
 31
0.0
  0
LWPOLYLINE
  5
15F
330
70
100
AcDbEntity
  8
ASHADE
100
AcDbPolyline
 90
        4
 70
     1
 43
0.0
 10
-28.68724748405199
 20
142.8593434212026
 10
-29.0332070800109
 20
142.8593434212026
 10
-29.0332070800109
 20
144.9351009969599
 10
-28.68724748405199
 20
144.9351009969599
  0
HATCH
  5
160
330
70
100
AcDbEntity
  8
ASHADE
 62
    18
420
        0
440
 33554687
100
AcDbHatch
 10
0.0
 20
0.0
 30
0.0
210
0.0
220
0.0
230
1.0
  2
SOLID
 70
     1
 71
     1
 91
        1
 92
        1
 93
        4
 72
     1
 10
-28.68724748405199
 20
142.8593434212026
 11
-29.0332070800109
 21
142.8593434212026
 72
     1
 10
-29.0332070800109
 20
142.8593434212026
 11
-29.0332070800109
 21
144.9351009969599
 72
     1
 10
-29.0332070800109
 20
144.9351009969599
 11
-28.68724748405199
 21
144.9351009969599
 72
     1
 10
-28.68724748405199
 20
144.9351009969599
 11
-28.68724748405199
 21
142.8593434212026
 97
        1
330
15F
 75
     2
 76
     1
 98
        1
 10
0.0
 20
0.0
450
        0
451
        0
460
0.0
461
0.0
452
        0
462
0.0
453
        0
470

  0
LINE
  5
161
330
70
100
AcDbEntity
  8
ASHADE
 62
    18
420
        0
370
    18
100
AcDbLine
 10
-29.0332070800109
 20
144.9351009969599
 30
0.0
 11
-28.68724748405199
 21
144.9351009969599
 31
0.0
  0
MTEXT
  5
162
330
70
100
AcDbEntity
  8
ASHADE
100
AcDbMText
 10
-13.89747481528512
 20
143.4521072876775
 30
0.0
 40
0.2
 41
0.0
 46
0.0
 71
     7
 72
     1
  1
\C18;\c0;\FMyriad Pro|b0|i0|c1;\H3.113636;\W1.000000;6
 73
     1
 44
1.0
  0
LWPOLYLINE
  5
163
330
70
100
AcDbEntity
  8
ASHADE
100
AcDbPolyline
 90
        4
 70
     1
 43
0.0
 10
4.351893930089497
 20
142.9927487173809
 10
4.005934334129621
 20
142.9927487173809
 10
4.005934334129621
 20
145.0685062931385
 10
4.351893930089497
 20
145.0685062931385
  0
HATCH
  5
164
330
70
100
AcDbEntity
  8
ASHADE
 62
    18
420
        0
440
 33554687
100
AcDbHatch
 10
0.0
 20
0.0
 30
0.0
210
0.0
220
0.0
230
1.0
  2
SOLID
 70
     1
 71
     1
 91
        1
 92
        1
 93
        4
 72
     1
 10
4.351893930089497
 20
142.9927487173809
 11
4.005934334129621
 21
142.9927487173809
 72
     1
 10
4.005934334129621
 20
142.9927487173809
 11
4.005934334129621
 21
145.0685062931385
 72
     1
 10
4.005934334129621
 20
145.0685062931385
 11
4.351893930089497
 21
145.0685062931385
 72
     1
 10
4.351893930089497
 20
145.0685062931385
 11
4.351893930089497
 21
142.9927487173809
 97
        1
330
163
 75
     2
 76
     1
 98
        1
 10
0.0
 20
0.0
450
        0
451
        0
460
0.0
461
0.0
452
        0
462
0.0
453
        0
470

  0
LINE
  5
165
330
70
100
AcDbEntity
  8
ASHADE
 62
    18
420
        0
370
    18
100
AcDbLine
 10
4.351893930089497
 20
145.0685062931385
 30
0.0
 11
4.351893930089497
 21
142.9927487173809
 31
0.0
  0
LINE
  5
166
330
70
100
AcDbEntity
  8
ASHADE
 62
    18
420
        0
370
    18
100
AcDbLine
 10
4.005934334129621
 20
145.0685062931385
 30
0.0
 11
4.005934334129621
 21
142.9927487173809
 31
0.0
  0
LINE
  5
167
330
70
100
AcDbEntity
  8
ASHADE
 62
    18
420
        0
370
    18
100
AcDbLine
 10
4.005934334129621
 20
145.0685062931385
 30
0.0
 11
4.351893930089497
 21
145.0685062931385
 31
0.0
  0
MTEXT
  5
168
330
70
100
AcDbEntity
  8
ASHADE
100
AcDbMText
 10
19.21580059842684
 20
143.83940061576
 30
0.0
 40
0.2
 41
0.0
 46
0.0
 71
     7
 72
     1
  1
\C18;\c0;\FMyriad Pro|b0|i0|c1;\H3.113636;\W1.000000;5
 73
     1
 44
1.0
  0
LINE
  5
169
330
70
100
AcDbEntity
  8
ASHADE
 62
    18
420
        0
370
    18
100
AcDbLine
 10
37.0450757482711
 20
144.9351009969599
 30
0.0
 11
37.0450757482711
 21
142.8593434212026
 31
0.0
  0
LINE
  5
16A
330
70
100
AcDbEntity
  8
ASHADE
 62
    18
420
        0
370
    18
100
AcDbLine
 10
37.39103534423098
 20
144.9351009969599
 30
0.0
 11
37.39103534423098
 21
142.8593434212026
 31
0.0
  0
LWPOLYLINE
  5
16B
330
70
100
AcDbEntity
  8
ASHADE
100
AcDbPolyline
 90
        4
 70
     1
 43
0.0
 10
37.39103534423098
 20
142.8593434212026
 10
37.0450757482711
 20
142.8593434212026
 10
37.0450757482711
 20
144.9351009969599
 10
37.39103534423098
 20
144.9351009969599
  0
HATCH
  5
16C
330
70
100
AcDbEntity
  8
ASHADE
 62
    18
420
        0
440
 33554687
100
AcDbHatch
 10
0.0
 20
0.0
 30
0.0
210
0.0
220
0.0
230
1.0
  2
SOLID
 70
     1
 71
     1
 91
        1
 92
        1
 93
        4
 72
     1
 10
37.39103534423098
 20
142.8593434212026
 11
37.0450757482711
 21
142.8593434212026
 72
     1
 10
37.0450757482711
 20
142.8593434212026
 11
37.0450757482711
 21
144.9351009969599
 72
     1
 10
37.0450757482711
 20
144.9351009969599
 11
37.39103534423098
 21
144.9351009969599
 72
     1
 10
37.39103534423098
 20
144.9351009969599
 11
37.39103534423098
 21
142.8593434212026
 97
        1
330
16B
 75
     2
 76
     1
 98
        1
 10
0.0
 20
0.0
450
        0
451
        0
460
0.0
461
0.0
452
        0
462
0.0
453
        0
470

  0
LINE
  5
16D
330
70
100
AcDbEntity
  8
ASHADE
 62
    18
420
        0
370
    18
100
AcDbLine
 10
37.0450757482711
 20
144.9351009969599
 30
0.0
 11
37.39103534423098
 21
144.9351009969599
 31
0.0
  0
LWPOLYLINE
  5
16E
330
70
100
AcDbEntity
  8
ASHADE
100
AcDbPolyline
 90
        4
 70
     1
 43
0.0
 10
136.5084595866551
 20
142.8593434212026
 10
136.1624999906952
 20
142.8593434212026
 10
136.1624999906952
 20
144.9351009969599
 10
136.5084595866551
 20
144.9351009969599
  0
HATCH
  5
16F
330
70
100
AcDbEntity
  8
ASHADE
 62
    18
420
        0
440
 33554687
100
AcDbHatch
 10
0.0
 20
0.0
 30
0.0
210
0.0
220
0.0
230
1.0
  2
SOLID
 70
     1
 71
     1
 91
        1
 92
        1
 93
        4
 72
     1
 10
136.5084595866551
 20
142.8593434212026
 11
136.1624999906952
 21
142.8593434212026
 72
     1
 10
136.1624999906952
 20
142.8593434212026
 11
136.1624999906952
 21
144.9351009969599
 72
     1
 10
136.1624999906952
 20
144.9351009969599
 11
136.5084595866551
 21
144.9351009969599
 72
     1
 10
136.5084595866551
 20
144.9351009969599
 11
136.5084595866551
 21
142.8593434212026
 97
        1
330
16E
 75
     2
 76
     1
 98
        1
 10
0.0
 20
0.0
450
        0
451
        0
460
0.0
461
0.0
452
        0
462
0.0
453
        0
470

  0
LINE
  5
170
330
70
100
AcDbEntity
  8
ASHADE
 62
    18
420
        0
370
    18
100
AcDbLine
 10
136.1624999906952
 20
144.9351009969599
 30
0.0
 11
136.5084595866551
 21
144.9351009969599
 31
0.0
  0
MTEXT
  5
171
330
70
100
AcDbEntity
  8
ASHADE
100
AcDbMText
 10
52.18081040667322
 20
143.5512614421124
 30
0.0
 40
0.2
 41
0.0
 46
0.0
 71
     7
 72
     1
  1
\C18;\c0;\FMyriad Pro|b0|i0|c1;\H3.113636;\W1.000000;4
 73
     1
 44
1.0
  0
LINE
  5
172
330
70
100
AcDbEntity
  8
ASHADE
 62
    18
420
        0
370
    18
100
AcDbLine
 10
70.08421716241227
 20
144.9351009969599
 30
0.0
 11
70.43017675837278
 21
144.9351009969599
 31
0.0
  0
LWPOLYLINE
  5
173
330
70
100
AcDbEntity
  8
ASHADE
100
AcDbPolyline
 90
        4
 70
     1
 43
0.0
 10
70.43017675837278
 20
142.8593434212026
 10
70.08421716241227
 20
142.8593434212026
 10
70.08421716241227
 20
144.9351009969599
 10
70.43017675837278
 20
144.9351009969599
  0
HATCH
  5
174
330
70
100
AcDbEntity
  8
ASHADE
 62
    18
420
        0
440
 33554687
100
AcDbHatch
 10
0.0
 20
0.0
 30
0.0
210
0.0
220
0.0
230
1.0
  2
SOLID
 70
     1
 71
     1
 91
        1
 92
        1
 93
        4
 72
     1
 10
70.43017675837278
 20
142.8593434212026
 11
70.08421716241227
 21
142.8593434212026
 72
     1
 10
70.08421716241227
 20
142.8593434212026
 11
70.08421716241227
 21
144.9351009969599
 72
     1
 10
70.08421716241227
 20
144.9351009969599
 11
70.43017675837278
 21
144.9351009969599
 72
     1
 10
70.43017675837278
 20
144.9351009969599
 11
70.43017675837278
 21
142.8593434212026
 97
        1
330
173
 75
     2
 76
     1
 98
        1
 10
0.0
 20
0.0
450
        0
451
        0
460
0.0
461
0.0
452
        0
462
0.0
453
        0
470

  0
LINE
  5
175
330
70
100
AcDbEntity
  8
ASHADE
 62
    18
420
        0
370
    18
100
AcDbLine
 10
70.43017675837278
 20
144.9351009969599
 30
0.0
 11
70.43017675837278
 21
142.8593434212026
 31
0.0
  0
LINE
  5
176
330
70
100
AcDbEntity
  8
ASHADE
 62
    18
420
        0
370
    18
100
AcDbLine
 10
70.08421716241227
 20
144.9351009969599
 30
0.0
 11
70.08421716241227
 21
142.8593434212026
 31
0.0
  0
MTEXT
  5
177
330
70
100
AcDbEntity
  8
ASHADE
100
AcDbMText
 10
85.29408312890435
 20
143.5430901062583
 30
0.0
 40
0.2
 41
0.0
 46
0.0
 71
     7
 72
     1
  1
\C18;\c0;\FMyriad Pro|b0|i0|c1;\H3.113636;\W1.000000;3
 73
     1
 44
1.0
  0
MTEXT
  5
178
330
70
100
AcDbEntity
  8
ASHADE
100
AcDbMText
 10
118.3332270856239
 20
143.5457385234126
 30
0.0
 40
0.2
 41
0.0
 46
0.0
 71
     7
 72
     1
  1
\C18;\c0;\FMyriad Pro|b0|i0|c1;\H3.113636;\W1.000000;2
 73
     1
 44
1.0
  0
LINE
  5
179
330
70
100
AcDbEntity
  8
ASHADE
 62
    18
420
        0
370
    18
100
AcDbLine
 10
136.1624999906952
 20
144.9351009969599
 30
0.0
 11
136.1624999906952
 21
142.8593434212026
 31
0.0
  0
LINE
  5
17A
330
70
100
AcDbEntity
  8
ASHADE
 62
    18
420
        0
370
    18
100
AcDbLine
 10
136.5084595866551
 20
144.9351009969599
 30
0.0
 11
136.5084595866551
 21
142.8593434212026
 31
0.0
  0
MTEXT
  5
17B
330
70
100
AcDbEntity
  8
ASHADE
100
AcDbMText
 10
151.5947734877632
 20
143.6846727647787
 30
0.0
 40
0.2
 41
0.0
 46
0.0
 71
     7
 72
     1
  1
\C18;\c0;\FMyriad Pro|b0|i0|c1;\H3.113636;\W1.000000;1
 73
     1
 44
1.0
  0
LINE
  5
17C
330
70
100
AcDbEntity
  8
ASHADE
 62
    18
420
        0
370
    18
100
AcDbLine
 10
-94.93851011031425
 20
-37.38560607374721
 30
0.0
 11
-12.60012627193093
 21
-37.38560607374721
 31
0.0
  0
LINE
  5
17D
330
70
100
AcDbEntity
  8
ASHADE
 62
    18
420
        0
370
    18
100
AcDbLine
 10
-94.93851011031425
 20
-16.62803031617136
 30
0.0
 11
-94.93851011031425
 21
-37.38560607374721
 31
0.0
  0
LWPOLYLINE
  5
17E
330
70
100
AcDbEntity
  8
ASHADE
100
AcDbPolyline
 90
        4
 70
     1
 43
0.0
 10
-97.36022728203177
 20
7.76212119897997
 10
-97.36022728203177
 20
7.416161603020737
 10
-95.28446970627411
 20
7.416161603020737
 10
-95.28446970627411
 20
7.76212119897997
  0
HATCH
  5
17F
330
70
100
AcDbEntity
  8
ASHADE
 62
    18
420
        0
440
 33554687
100
AcDbHatch
 10
0.0
 20
0.0
 30
0.0
210
0.0
220
0.0
230
1.0
  2
SOLID
 70
     1
 71
     1
 91
        1
 92
        1
 93
        4
 72
     1
 10
-97.36022728203177
 20
7.76212119897997
 11
-97.36022728203177
 21
7.416161603020737
 72
     1
 10
-97.36022728203177
 20
7.416161603020737
 11
-95.28446970627411
 21
7.416161603020737
 72
     1
 10
-95.28446970627411
 20
7.416161603020737
 11
-95.28446970627411
 21
7.76212119897997
 72
     1
 10
-95.28446970627411
 20
7.76212119897997
 11
-97.36022728203177
 21
7.76212119897997
 97
        1
330
17E
 75
     2
 76
     1
 98
        1
 10
0.0
 20
0.0
450
        0
451
        0
460
0.0
461
0.0
452
        0
462
0.0
453
        0
470

  0
LINE
  5
180
330
70
100
AcDbEntity
  8
ASHADE
 62
    18
420
        0
370
    18
100
AcDbLine
 10
-95.28446970627411
 20
7.416161603020737
 30
0.0
 11
-97.36022728203177
 21
7.416161603020737
 31
0.0
  0
LINE
  5
181
330
70
100
AcDbEntity
  8
ASHADE
 62
    18
420
        0
370
    18
100
AcDbLine
 10
-95.28446970627411
 20
7.76212119897997
 30
0.0
 11
-97.36022728203177
 21
7.76212119897997
 31
0.0
  0
MTEXT
  5
182
330
70
100
AcDbEntity
  8
ASHADE
100
AcDbMText
 10
-99.02577079840437
 20
28.51969813587545
 30
0.0
 40
0.2
 41
0.0
 46
0.0
 71
     7
 72
     1
  1
\C18;\c0;\FMyriad Pro|b0|i0|c1;\H3.113636;\W1.000000;B
 73
     1
 44
1.0
  0
LWPOLYLINE
  5
183
330
70
100
AcDbEntity
  8
ASHADE
100
AcDbPolyline
 90
        4
 70
     1
 43
0.0
 10
-97.36022728203177
 20
52.73686867372753
 10
-97.36022728203177
 20
52.39090907776798
 10
-95.28446970627411
 20
52.39090907776798
 10
-95.28446970627411
 20
52.73686867372753
  0
HATCH
  5
184
330
70
100
AcDbEntity
  8
ASHADE
 62
    18
420
        0
440
 33554687
100
AcDbHatch
 10
0.0
 20
0.0
 30
0.0
210
0.0
220
0.0
230
1.0
  2
SOLID
 70
     1
 71
     1
 91
        1
 92
        1
 93
        4
 72
     1
 10
-97.36022728203177
 20
52.73686867372753
 11
-97.36022728203177
 21
52.39090907776798
 72
     1
 10
-97.36022728203177
 20
52.39090907776798
 11
-95.28446970627411
 21
52.39090907776798
 72
     1
 10
-95.28446970627411
 20
52.39090907776798
 11
-95.28446970627411
 21
52.73686867372753
 72
     1
 10
-95.28446970627411
 20
52.73686867372753
 11
-97.36022728203177
 21
52.73686867372753
 97
        1
330
183
 75
     2
 76
     1
 98
        1
 10
0.0
 20
0.0
450
        0
451
        0
460
0.0
461
0.0
452
        0
462
0.0
453
        0
470

  0
LINE
  5
185
330
70
100
AcDbEntity
  8
ASHADE
 62
    18
420
        0
370
    18
100
AcDbLine
 10
-95.28446970627411
 20
52.39090907776798
 30
0.0
 11
-97.36022728203177
 21
52.39090907776798
 31
0.0
  0
LINE
  5
186
330
70
100
AcDbEntity
  8
ASHADE
 62
    18
420
        0
370
    18
100
AcDbLine
 10
-95.28446970627411
 20
52.73686867372753
 30
0.0
 11
-97.36022728203177
 21
52.73686867372753
 31
0.0
  0
MTEXT
  5
187
330
70
100
AcDbEntity
  8
ASHADE
100
AcDbMText
 10
-99.04970344610347
 20
73.4944426882643
 30
0.0
 40
0.2
 41
0.0
 46
0.0
 71
     7
 72
     1
  1
\C18;\c0;\FMyriad Pro|b0|i0|c1;\H3.113636;\W1.000000;C
 73
     1
 44
1.0
  0
LWPOLYLINE
  5
188
330
70
100
AcDbEntity
  8
ASHADE
100
AcDbPolyline
 90
        4
 70
     1
 43
0.0
 10
-97.36022728203177
 20
97.7116161484751
 10
-97.36022728203177
 20
97.36565655251554
 10
-95.28446970627411
 20
97.36565655251554
 10
-95.28446970627411
 20
97.7116161484751
  0
HATCH
  5
189
330
70
100
AcDbEntity
  8
ASHADE
 62
    18
420
        0
440
 33554687
100
AcDbHatch
 10
0.0
 20
0.0
 30
0.0
210
0.0
220
0.0
230
1.0
  2
SOLID
 70
     1
 71
     1
 91
        1
 92
        1
 93
        4
 72
     1
 10
-97.36022728203177
 20
97.7116161484751
 11
-97.36022728203177
 21
97.36565655251554
 72
     1
 10
-97.36022728203177
 20
97.36565655251554
 11
-95.28446970627411
 21
97.36565655251554
 72
     1
 10
-95.28446970627411
 20
97.36565655251554
 11
-95.28446970627411
 21
97.7116161484751
 72
     1
 10
-95.28446970627411
 20
97.7116161484751
 11
-97.36022728203177
 21
97.7116161484751
 97
        1
330
188
 75
     2
 76
     1
 98
        1
 10
0.0
 20
0.0
450
        0
451
        0
460
0.0
461
0.0
452
        0
462
0.0
453
        0
470

  0
LINE
  5
18A
330
70
100
AcDbEntity
  8
ASHADE
 62
    18
420
        0
370
    18
100
AcDbLine
 10
-95.28446970627411
 20
97.36565655251554
 30
0.0
 11
-97.36022728203177
 21
97.36565655251554
 31
0.0
  0
LINE
  5
18B
330
70
100
AcDbEntity
  8
ASHADE
 62
    18
420
        0
370
    18
100
AcDbLine
 10
-95.28446970627411
 20
97.7116161484751
 30
0.0
 11
-97.36022728203177
 21
97.7116161484751
 31
0.0
  0
MTEXT
  5
18C
330
70
100
AcDbEntity
  8
ASHADE
100
AcDbMText
 10
-99.02577079840437
 20
118.469189932134
 30
0.0
 40
0.2
 41
0.0
 46
0.0
 71
     7
 72
     1
  1
\C18;\c0;\FMyriad Pro|b0|i0|c1;\H3.113636;\W1.000000;D
 73
     1
 44
1.0
  0
LINE
  5
18D
330
70
100
AcDbEntity
  8
ASHADE
 62
    18
420
        0
370
    18
100
AcDbLine
 10
169.7205807987762
 20
7.76212119897997
 30
0.0
 11
171.7963383745348
 21
7.76212119897997
 31
0.0
  0
LINE
  5
18E
330
70
100
AcDbEntity
  8
ASHADE
 62
    18
420
        0
370
    18
100
AcDbLine
 10
169.7205807987762
 20
7.416161603020737
 30
0.0
 11
171.7963383745348
 21
7.416161603020737
 31
0.0
  0
LWPOLYLINE
  5
18F
330
70
100
AcDbEntity
  8
ASHADE
100
AcDbPolyline
 90
        4
 70
     1
 43
0.0
 10
171.7963383745348
 20
7.76212119897997
 10
171.7963383745348
 20
7.416161603020737
 10
169.7205807987762
 20
7.416161603020737
 10
169.7205807987762
 20
7.76212119897997
  0
HATCH
  5
190
330
70
100
AcDbEntity
  8
ASHADE
 62
    18
420
        0
440
 33554687
100
AcDbHatch
 10
0.0
 20
0.0
 30
0.0
210
0.0
220
0.0
230
1.0
  2
SOLID
 70
     1
 71
     1
 91
        1
 92
        1
 93
        4
 72
     1
 10
171.7963383745348
 20
7.76212119897997
 11
171.7963383745348
 21
7.416161603020737
 72
     1
 10
171.7963383745348
 20
7.416161603020737
 11
169.7205807987762
 21
7.416161603020737
 72
     1
 10
169.7205807987762
 20
7.416161603020737
 11
169.7205807987762
 21
7.76212119897997
 72
     1
 10
169.7205807987762
 20
7.76212119897997
 11
171.7963383745348
 21
7.76212119897997
 97
        1
330
18F
 75
     2
 76
     1
 98
        1
 10
0.0
 20
0.0
450
        0
451
        0
460
0.0
461
0.0
452
        0
462
0.0
453
        0
470

  0
MTEXT
  5
191
330
70
100
AcDbEntity
  8
ASHADE
100
AcDbMText
 10
170.3383645373579
 20
28.51969813587545
 30
0.0
 40
0.2
 41
0.0
 46
0.0
 71
     7
 72
     1
  1
\C18;\c0;\FMyriad Pro|b0|i0|c1;\H3.113636;\W1.000000;B
 73
     1
 44
1.0
  0
LWPOLYLINE
  5
192
330
70
100
AcDbEntity
  8
ASHADE
100
AcDbPolyline
 90
        4
 70
     1
 43
0.0
 10
171.7963383745348
 20
52.73686867372753
 10
171.7963383745348
 20
52.39090907776798
 10
169.7205807987762
 20
52.39090907776798
 10
169.7205807987762
 20
52.73686867372753
  0
HATCH
  5
193
330
70
100
AcDbEntity
  8
ASHADE
 62
    18
420
        0
440
 33554687
100
AcDbHatch
 10
0.0
 20
0.0
 30
0.0
210
0.0
220
0.0
230
1.0
  2
SOLID
 70
     1
 71
     1
 91
        1
 92
        1
 93
        4
 72
     1
 10
171.7963383745348
 20
52.73686867372753
 11
171.7963383745348
 21
52.39090907776798
 72
     1
 10
171.7963383745348
 20
52.39090907776798
 11
169.7205807987762
 21
52.39090907776798
 72
     1
 10
169.7205807987762
 20
52.39090907776798
 11
169.7205807987762
 21
52.73686867372753
 72
     1
 10
169.7205807987762
 20
52.73686867372753
 11
171.7963383745348
 21
52.73686867372753
 97
        1
330
192
 75
     2
 76
     1
 98
        1
 10
0.0
 20
0.0
450
        0
451
        0
460
0.0
461
0.0
452
        0
462
0.0
453
        0
470

  0
LINE
  5
194
330
70
100
AcDbEntity
  8
ASHADE
 62
    18
420
        0
370
    18
100
AcDbLine
 10
169.7205807987762
 20
52.39090907776798
 30
0.0
 11
171.7963383745348
 21
52.39090907776798
 31
0.0
  0
LINE
  5
195
330
70
100
AcDbEntity
  8
ASHADE
 62
    18
420
        0
370
    18
100
AcDbLine
 10
169.7205807987762
 20
52.73686867372753
 30
0.0
 11
171.7963383745348
 21
52.73686867372753
 31
0.0
  0
MTEXT
  5
196
330
70
100
AcDbEntity
  8
ASHADE
100
AcDbMText
 10
170.4124986858311
 20
73.4944426882643
 30
0.0
 40
0.2
 41
0.0
 46
0.0
 71
     7
 72
     1
  1
\C18;\c0;\FMyriad Pro|b0|i0|c1;\H3.113636;\W1.000000;C
 73
     1
 44
1.0
  0
LINE
  5
197
330
70
100
AcDbEntity
  8
ASHADE
 62
    18
420
        0
370
    18
100
AcDbLine
 10
169.7205807987762
 20
97.7116161484751
 30
0.0
 11
171.7963383745348
 21
97.7116161484751
 31
0.0
  0
LINE
  5
198
330
70
100
AcDbEntity
  8
ASHADE
 62
    18
420
        0
370
    18
100
AcDbLine
 10
169.7205807987762
 20
97.36565655251554
 30
0.0
 11
171.7963383745348
 21
97.36565655251554
 31
0.0
  0
LWPOLYLINE
  5
199
330
70
100
AcDbEntity
  8
ASHADE
100
AcDbPolyline
 90
        4
 70
     1
 43
0.0
 10
171.7963383745348
 20
97.7116161484751
 10
171.7963383745348
 20
97.36565655251554
 10
169.7205807987762
 20
97.36565655251554
 10
169.7205807987762
 20
97.7116161484751
  0
HATCH
  5
19A
330
70
100
AcDbEntity
  8
ASHADE
 62
    18
420
        0
440
 33554687
100
AcDbHatch
 10
0.0
 20
0.0
 30
0.0
210
0.0
220
0.0
230
1.0
  2
SOLID
 70
     1
 71
     1
 91
        1
 92
        1
 93
        4
 72
     1
 10
171.7963383745348
 20
97.7116161484751
 11
171.7963383745348
 21
97.36565655251554
 72
     1
 10
171.7963383745348
 20
97.36565655251554
 11
169.7205807987762
 21
97.36565655251554
 72
     1
 10
169.7205807987762
 20
97.36565655251554
 11
169.7205807987762
 21
97.7116161484751
 72
     1
 10
169.7205807987762
 20
97.7116161484751
 11
171.7963383745348
 21
97.7116161484751
 97
        1
330
199
 75
     2
 76
     1
 98
        1
 10
0.0
 20
0.0
450
        0
451
        0
460
0.0
461
0.0
452
        0
462
0.0
453
        0
470

  0
MTEXT
  5
19B
330
70
100
AcDbEntity
  8
ASHADE
100
AcDbMText
 10
170.3383645373579
 20
118.469189932134
 30
0.0
 40
0.2
 41
0.0
 46
0.0
 71
     7
 72
     1
  1
\C18;\c0;\FMyriad Pro|b0|i0|c1;\H3.113636;\W1.000000;D
 73
     1
 44
1.0
  0
LINE
  5
19C
330
70
100
AcDbEntity
  8
ASHADE
 62
    18
420
        0
370
    18
100
AcDbLine
 10
103.2963383745333
 20
144.9351009969599
 30
0.0
 11
103.6422979704932
 21
144.9351009969599
 31
0.0
  0
LWPOLYLINE
  5
19D
330
70
100
AcDbEntity
  8
ASHADE
100
AcDbPolyline
 90
        4
 70
     1
 43
0.0
 10
103.6422979704932
 20
142.8593434212026
 10
103.2963383745333
 20
142.8593434212026
 10
103.2963383745333
 20
144.9351009969599
 10
103.6422979704932
 20
144.9351009969599
  0
HATCH
  5
19E
330
70
100
AcDbEntity
  8
ASHADE
 62
    18
420
        0
440
 33554687
100
AcDbHatch
 10
0.0
 20
0.0
 30
0.0
210
0.0
220
0.0
230
1.0
  2
SOLID
 70
     1
 71
     1
 91
        1
 92
        1
 93
        4
 72
     1
 10
103.6422979704932
 20
142.8593434212026
 11
103.2963383745333
 21
142.8593434212026
 72
     1
 10
103.2963383745333
 20
142.8593434212026
 11
103.2963383745333
 21
144.9351009969599
 72
     1
 10
103.2963383745333
 20
144.9351009969599
 11
103.6422979704932
 21
144.9351009969599
 72
     1
 10
103.6422979704932
 20
144.9351009969599
 11
103.6422979704932
 21
142.8593434212026
 97
        1
330
19D
 75
     2
 76
     1
 98
        1
 10
0.0
 20
0.0
450
        0
451
        0
460
0.0
461
0.0
452
        0
462
0.0
453
        0
470

  0
LINE
  5
19F
330
70
100
AcDbEntity
  8
ASHADE
 62
    18
420
        0
370
    18
100
AcDbLine
 10
103.6422979704932
 20
144.9351009969599
 30
0.0
 11
103.6422979704932
 21
142.8593434212026
 31
0.0
  0
LINE
  5
1A0
330
70
100
AcDbEntity
  8
ASHADE
 62
    18
420
        0
370
    18
100
AcDbLine
 10
103.2963383745333
 20
144.9351009969599
 30
0.0
 11
103.2963383745333
 21
142.8593434212026
 31
0.0
  0
MTEXT
  5
1A1
330
70
100
AcDbEntity
  8
ASHADE
100
AcDbMText
 10
131.7570712501892
 20
133.819566481302
 30
0.0
 40
0.2
 41
0.0
 46
0.0
 71
     7
 72
     1
  1
\C18;\c0;\FMyriad Pro|b0|i0|c1;\H2.997200;\W1.000000;Z.KS.SA.AMP5401
 73
     1
 44
1.0
  0
ENDSEC
  0
SECTION
  2
OBJECTS
  0
DICTIONARY
  5
C
330
0
100
AcDbDictionary
281
     1
  3
ACAD_COLOR
350
63
  3
ACAD_DETAILVIEWSTYLE
350
6A
  3
ACAD_GROUP
350
D
  3
ACAD_LAYOUT
350
62
  3
ACAD_MATERIAL
350
10
  3
ACAD_MLEADERSTYLE
350
66
  3
ACAD_MLINESTYLE
350
5F
  3
ACAD_PLOTSETTINGS
350
61
  3
ACAD_PLOTSTYLENAME
350
E
  3
ACAD_SCALELIST
350
42
  3
ACAD_SECTIONVIEWSTYLE
350
68
  3
ACAD_TABLESTYLE
350
64
  3
ACAD_VISUALSTYLE
350
29
  3
ACDB_RECOMPOSE_DATA
350
1AC
  3
AcDbVariableDictionary
350
1A2
  0
DICTIONARY
  5
63
102
{ACAD_REACTORS
330
C
102
}
330
C
100
AcDbDictionary
281
     1
  0
DICTIONARY
  5
6A
102
{ACAD_REACTORS
330
C
102
}
330
C
100
AcDbDictionary
281
     1
  3
Imperial24
350
6B
  0
DICTIONARY
  5
D
102
{ACAD_REACTORS
330
C
102
}
330
C
100
AcDbDictionary
281
     1
  0
DICTIONARY
  5
62
102
{ACAD_REACTORS
330
C
102
}
330
C
100
AcDbDictionary
281
     1
  3
Layout1
350
6F
  3
Layout2
350
77
  3
Model
350
73
  0
DICTIONARY
  5
10
102
{ACAD_REACTORS
330
C
102
}
330
C
100
AcDbDictionary
281
     1
  3
ByBlock
350
19
  3
ByLayer
350
11
  3
Global
350
21
  0
DICTIONARY
  5
66
102
{ACAD_REACTORS
330
C
102
}
330
C
100
AcDbDictionary
281
     1
  3
Standard
350
67
  0
DICTIONARY
  5
5F
102
{ACAD_REACTORS
330
C
102
}
330
C
100
AcDbDictionary
281
     1
  3
Standard
350
60
  0
DICTIONARY
  5
61
102
{ACAD_REACTORS
330
C
102
}
330
C
100
AcDbDictionary
281
     1
  0
ACDBDICTIONARYWDFLT
  5
E
102
{ACAD_REACTORS
330
C
102
}
330
C
100
AcDbDictionary
281
     1
  3
Normal
350
F
100
AcDbDictionaryWithDefault
340
F
  0
DICTIONARY
  5
42
102
{ACAD_REACTORS
330
C
102
}
330
C
100
AcDbDictionary
281
     1
  3
A0
350
43
  3
A1
350
44
  3
A2
350
45
  3
A3
350
46
  3
A4
350
47
  3
A5
350
48
  3
A6
350
49
  3
A7
350
4A
  3
A8
350
4B
  3
A9
350
4C
  3
B0
350
4D
  3
B1
350
4E
  3
B2
350
4F
  3
B3
350
50
  3
B4
350
51
  3
B5
350
52
  3
B6
350
53
  0
DICTIONARY
  5
68
102
{ACAD_REACTORS
330
C
102
}
330
C
100
AcDbDictionary
281
     1
  3
Imperial24
350
69
  0
DICTIONARY
  5
64
102
{ACAD_REACTORS
330
C
102
}
330
C
100
AcDbDictionary
281
     1
  3
Standard
350
65
  0
DICTIONARY
  5
29
102
{ACAD_REACTORS
330
C
102
}
330
C
100
AcDbDictionary
281
     1
  3
2dWireframe
350
2F
  3
Basic
350
2E
  3
Brighten
350
35
  3
ColorChange
350
39
  3
Conceptual
350
32
  3
Dim
350
34
  3
EdgeColorOff
350
41
  3
Facepattern
350
38
  3
Flat
350
2A
  3
FlatWithEdges
350
2B
  3
Gouraud
350
2C
  3
GouraudWithEdges
350
2D
  3
Hidden
350
31
  3
JitterOff
350
3F
  3
Linepattern
350
37
  3
OverhangOff
350
40
  3
Realistic
350
33
  3
Shaded
350
3E
  3
Shaded with edges
350
3D
  3
Shades of Gray
350
3A
  3
Sketchy
350
3B
  3
Thicken
350
36
  3
Wireframe
350
30
  3
X-Ray
350
3C
  0
XRECORD
  5
1AC
102
{ACAD_REACTORS
330
C
102
}
330
C
100
AcDbXrecord
280
     1
 90
        1
330
65
  0
DICTIONARY
  5
1A2
102
{ACAD_REACTORS
330
C
102
}
330
C
100
AcDbDictionary
281
     1
  3
CANNOSCALE
350
1A7
  3
CMLEADERSTYLE
350
1A4
  3
CTABLESTYLE
350
1A3
  3
CVIEWDETAILSTYLE
350
1A5
  3
CVIEWSECTIONSTYLE
350
1A6
  0
ACDBDETAILVIEWSTYLE
  5
6B
102
{ACAD_XDICTIONARY
360
1E1
102
}
102
{ACAD_REACTORS
330
6A
102
}
330
6A
100
AcDbModelDocViewStyle
 70
     0
  3
Imperial24
290
     0
100
AcDbDetailViewStyle
 70
     0
 71
     0
 90
        3
 71
     1
340
55
 62
   256
 40
0.24
340
0
 62
   256
 40
0.24
300

 40
0.36
280
     3
 71
     2
340
5D
 90
       25
 62
   256
 71
     3
340
55
 62
   256
 40
0.24
 90
        1
 40
0.75
 90
        1
300
%<\AcVar ViewType \f "%tc1">% %<\AcVar ViewDetailId>%\PSCALE %<\AcVar ViewScale \f "%sn">%
 71
     4
340
5D
 90
       25
 62
   256
340
5D
 90
       25
 62
   256
280
     0
  0
LAYOUT
  5
6F
102
{ACAD_REACTORS
330
62
102
}
330
62
100
AcDbPlotSettings
  1

  2

  4

  6

 40
0.0
 41
0.0
 42
0.0
 43
0.0
 44
0.0
 45
0.0
 46
0.0
 47
0.0
 48
0.0
 49
0.0
140
0.0
141
0.0
142
1.0
143
1.0
 70
   688
 72
     0
 73
     0
 74
     5
  7

 75
    16
147
1.0
 76
     0
 77
     2
 78
   300
148
0.0
149
0.0
100
AcDbLayout
  1
Layout1
 70
     1
 71
     1
 10
0.0
 20
0.0
 11
12.0
 21
9.0
 12
0.0
 22
0.0
 32
0.0
 14
0.0
 24
0.0
 34
0.0
 15
0.0
 25
0.0
 35
0.0
146
0.0
 13
0.0
 23
0.0
 33
0.0
 16
1.0
 26
0.0
 36
0.0
 17
0.0
 27
1.0
 37
0.0
 76
     0
330
6C
  0
LAYOUT
  5
77
102
{ACAD_REACTORS
330
62
102
}
330
62
100
AcDbPlotSettings
  1

  2

  4

  6

 40
0.0
 41
0.0
 42
0.0
 43
0.0
 44
0.0
 45
0.0
 46
0.0
 47
0.0
 48
0.0
 49
0.0
140
0.0
141
0.0
142
1.0
143
1.0
 70
   688
 72
     0
 73
     0
 74
     5
  7

 75
    16
147
1.0
 76
     0
 77
     2
 78
   300
148
0.0
149
0.0
100
AcDbLayout
  1
Layout2
 70
     1
 71
     2
 10
0.0
 20
0.0
 11
12.0
 21
9.0
 12
0.0
 22
0.0
 32
0.0
 14
0.0
 24
0.0
 34
0.0
 15
0.0
 25
0.0
 35
0.0
146
0.0
 13
0.0
 23
0.0
 33
0.0
 16
1.0
 26
0.0
 36
0.0
 17
0.0
 27
1.0
 37
0.0
 76
     0
330
74
  0
LAYOUT
  5
73
102
{ACAD_REACTORS
330
62
102
}
330
62
100
AcDbPlotSettings
  1

  2

  4

  6

 40
0.0
 41
0.0
 42
0.0
 43
0.0
 44
0.0
 45
0.0
 46
0.0
 47
0.0
 48
0.0
 49
0.0
140
0.0
141
0.0
142
1.0
143
1.0
 70
  1712
 72
     0
 73
     0
 74
     0
  7

 75
     0
147
1.0
 76
     0
 77
     2
 78
   300
148
0.0
149
0.0
100
AcDbLayout
  1
Model
 70
     1
 71
     0
 10
0.0
 20
0.0
 11
12.0
 21
9.0
 12
0.0
 22
0.0
 32
0.0
 14
0.0
 24
0.0
 34
0.0
 15
0.0
 25
0.0
 35
0.0
146
0.0
 13
0.0
 23
0.0
 33
0.0
 16
1.0
 26
0.0
 36
0.0
 17
0.0
 27
1.0
 37
0.0
 76
     0
330
70
  0
MATERIAL
  5
19
102
{ACAD_XDICTIONARY
360
1A
102
}
102
{ACAD_REACTORS
330
10
102
}
330
10
100
AcDbMaterial
  1
ByBlock
 72
     0
 43
0.0208333333333333
 43
0.0
 43
0.0
 43
0.0
 43
0.0
 43
0.0208333333333333
 43
0.0
 43
0.0
 43
0.0
 43
0.0
 43
1.0
 43
0.0
 43
0.0
 43
0.0
 43
0.0
 43
1.0
 77
     0
 47
0.0208333333333333
 47
0.0
 47
0.0
 47
0.0
 47
0.0
 47
0.0208333333333333
 47
0.0
 47
0.0
 47
0.0
 47
0.0
 47
1.0
 47
0.0
 47
0.0
 47
0.0
 47
0.0
 47
1.0
171
     0
 49
0.0208333333333333
 49
0.0
 49
0.0
 49
0.0
 49
0.0
 49
0.0208333333333333
 49
0.0
 49
0.0
 49
0.0
 49
0.0
 49
1.0
 49
0.0
 49
0.0
 49
0.0
 49
0.0
 49
1.0
175
     0
142
0.0208333333333333
142
0.0
142
0.0
142
0.0
142
0.0
142
0.0208333333333333
142
0.0
142
0.0
142
0.0
142
0.0
142
1.0
142
0.0
142
0.0
142
0.0
142
0.0
142
1.0
179
     0
144
0.0208333333333333
144
0.0
144
0.0
144
0.0
144
0.0
144
0.0208333333333333
144
0.0
144
0.0
144
0.0
144
0.0
144
1.0
144
0.0
144
0.0
144
0.0
144
0.0
144
1.0
147
0.0208333333333333
147
0.0
147
0.0
147
0.0
147
0.0
147
0.0208333333333333
147
0.0
147
0.0
147
0.0
147
0.0
147
1.0
147
0.0
147
0.0
147
0.0
147
0.0
147
1.0
  0
MATERIAL
  5
11
102
{ACAD_XDICTIONARY
360
12
102
}
102
{ACAD_REACTORS
330
10
102
}
330
10
100
AcDbMaterial
  1
ByLayer
 72
     0
 43
0.0208333333333333
 43
0.0
 43
0.0
 43
0.0
 43
0.0
 43
0.0208333333333333
 43
0.0
 43
0.0
 43
0.0
 43
0.0
 43
1.0
 43
0.0
 43
0.0
 43
0.0
 43
0.0
 43
1.0
 77
     0
 47
0.0208333333333333
 47
0.0
 47
0.0
 47
0.0
 47
0.0
 47
0.0208333333333333
 47
0.0
 47
0.0
 47
0.0
 47
0.0
 47
1.0
 47
0.0
 47
0.0
 47
0.0
 47
0.0
 47
1.0
171
     0
 49
0.0208333333333333
 49
0.0
 49
0.0
 49
0.0
 49
0.0
 49
0.0208333333333333
 49
0.0
 49
0.0
 49
0.0
 49
0.0
 49
1.0
 49
0.0
 49
0.0
 49
0.0
 49
0.0
 49
1.0
175
     0
142
0.0208333333333333
142
0.0
142
0.0
142
0.0
142
0.0
142
0.0208333333333333
142
0.0
142
0.0
142
0.0
142
0.0
142
1.0
142
0.0
142
0.0
142
0.0
142
0.0
142
1.0
179
     0
144
0.0208333333333333
144
0.0
144
0.0
144
0.0
144
0.0
144
0.0208333333333333
144
0.0
144
0.0
144
0.0
144
0.0
144
1.0
144
0.0
144
0.0
144
0.0
144
0.0
144
1.0
147
0.0208333333333333
147
0.0
147
0.0
147
0.0
147
0.0
147
0.0208333333333333
147
0.0
147
0.0
147
0.0
147
0.0
147
1.0
147
0.0
147
0.0
147
0.0
147
0.0
147
1.0
  0
MATERIAL
  5
21
102
{ACAD_XDICTIONARY
360
22
102
}
102
{ACAD_REACTORS
330
10
102
}
330
10
100
AcDbMaterial
  1
Global
 72
     0
 43
0.0208333333333333
 43
0.0
 43
0.0
 43
0.0
 43
0.0
 43
0.0208333333333333
 43
0.0
 43
0.0
 43
0.0
 43
0.0
 43
1.0
 43
0.0
 43
0.0
 43
0.0
 43
0.0
 43
1.0
 77
     0
 47
0.0208333333333333
 47
0.0
 47
0.0
 47
0.0
 47
0.0
 47
0.0208333333333333
 47
0.0
 47
0.0
 47
0.0
 47
0.0
 47
1.0
 47
0.0
 47
0.0
 47
0.0
 47
0.0
 47
1.0
171
     0
 49
0.0208333333333333
 49
0.0
 49
0.0
 49
0.0
 49
0.0
 49
0.0208333333333333
 49
0.0
 49
0.0
 49
0.0
 49
0.0
 49
1.0
 49
0.0
 49
0.0
 49
0.0
 49
0.0
 49
1.0
175
     0
142
0.0208333333333333
142
0.0
142
0.0
142
0.0
142
0.0
142
0.0208333333333333
142
0.0
142
0.0
142
0.0
142
0.0
142
1.0
142
0.0
142
0.0
142
0.0
142
0.0
142
1.0
179
     0
144
0.0208333333333333
144
0.0
144
0.0
144
0.0
144
0.0
144
0.0208333333333333
144
0.0
144
0.0
144
0.0
144
0.0
144
1.0
144
0.0
144
0.0
144
0.0
144
0.0
144
1.0
147
0.0208333333333333
147
0.0
147
0.0
147
0.0
147
0.0
147
0.0208333333333333
147
0.0
147
0.0
147
0.0
147
0.0
147
1.0
147
0.0
147
0.0
147
0.0
147
0.0
147
1.0
  0
MLEADERSTYLE
  5
67
102
{ACAD_XDICTIONARY
360
1DD
102
}
102
{ACAD_REACTORS
330
66
102
}
330
66
100
AcDbMLeaderStyle
179
     2
170
     2
171
     1
172
     0
 90
        2
 40
0.0
 41
0.0
173
     1
 91
-1056964608
340
5B
 92
       -2
290
     1
 42
0.09
291
     1
 43
0.36
  3
Standard
 44
0.18
300

342
55
174
     1
178
     6
175
     1
176
     0
 93
-1056964608
 45
0.18
292
     0
297
     0
 46
0.18
 94
-1056964608
 47
1.0
 49
1.0
140
1.0
293
     1
141
0.0
294
     1
177
     0
142
1.0
295
     0
296
     0
143
0.125
271
     0
272
     9
273
     9
  0
MLINESTYLE
  5
60
102
{ACAD_REACTORS
330
5F
102
}
330
5F
100
AcDbMlineStyle
  2
STANDARD
 70
     0
  3

 62
   256
 51
90.0
 52
90.0
 71
     2
 49
0.5
 62
   256
  6
BYLAYER
 49
-0.5
 62
   256
  6
BYLAYER
  0
ACDBPLACEHOLDER
  5
F
102
{ACAD_REACTORS
330
E
102
}
330
E
  0
SCALE
  5
43
102
{ACAD_REACTORS
330
42
102
}
330
42
100
AcDbScale
 70
     0
300
1:1
140
1.0
141
1.0
290
     1
  0
SCALE
  5
44
102
{ACAD_REACTORS
330
42
102
}
330
42
100
AcDbScale
 70
     0
300
1/128" = 1'-0"
140
0.0078125
141
12.0
290
     0
  0
SCALE
  5
45
102
{ACAD_REACTORS
330
42
102
}
330
42
100
AcDbScale
 70
     0
300
1/64" = 1'-0"
140
0.015625
141
12.0
290
     0
  0
SCALE
  5
46
102
{ACAD_REACTORS
330
42
102
}
330
42
100
AcDbScale
 70
     0
300
1/32" = 1'-0"
140
0.03125
141
12.0
290
     0
  0
SCALE
  5
47
102
{ACAD_REACTORS
330
42
102
}
330
42
100
AcDbScale
 70
     0
300
1/16" = 1'-0"
140
0.0625
141
12.0
290
     0
  0
SCALE
  5
48
102
{ACAD_REACTORS
330
42
102
}
330
42
100
AcDbScale
 70
     0
300
3/32" = 1'-0"
140
0.09375
141
12.0
290
     0
  0
SCALE
  5
49
102
{ACAD_REACTORS
330
42
102
}
330
42
100
AcDbScale
 70
     0
300
1/8" = 1'-0"
140
0.125
141
12.0
290
     0
  0
SCALE
  5
4A
102
{ACAD_REACTORS
330
42
102
}
330
42
100
AcDbScale
 70
     0
300
3/16" = 1'-0"
140
0.1875
141
12.0
290
     0
  0
SCALE
  5
4B
102
{ACAD_REACTORS
330
42
102
}
330
42
100
AcDbScale
 70
     0
300
1/4" = 1'-0"
140
0.25
141
12.0
290
     0
  0
SCALE
  5
4C
102
{ACAD_REACTORS
330
42
102
}
330
42
100
AcDbScale
 70
     0
300
3/8" = 1'-0"
140
0.375
141
12.0
290
     0
  0
SCALE
  5
4D
102
{ACAD_REACTORS
330
42
102
}
330
42
100
AcDbScale
 70
     0
300
1/2" = 1'-0"
140
0.5
141
12.0
290
     0
  0
SCALE
  5
4E
102
{ACAD_REACTORS
330
42
102
}
330
42
100
AcDbScale
 70
     0
300
3/4" = 1'-0"
140
0.75
141
12.0
290
     0
  0
SCALE
  5
4F
102
{ACAD_REACTORS
330
42
102
}
330
42
100
AcDbScale
 70
     0
300
1" = 1'-0"
140
1.0
141
12.0
290
     0
  0
SCALE
  5
50
102
{ACAD_REACTORS
330
42
102
}
330
42
100
AcDbScale
 70
     0
300
1-1/2" = 1'-0"
140
1.5
141
12.0
290
     0
  0
SCALE
  5
51
102
{ACAD_REACTORS
330
42
102
}
330
42
100
AcDbScale
 70
     0
300
3" = 1'-0"
140
3.0
141
12.0
290
     0
  0
SCALE
  5
52
102
{ACAD_REACTORS
330
42
102
}
330
42
100
AcDbScale
 70
     0
300
6" = 1'-0"
140
6.0
141
12.0
290
     0
  0
SCALE
  5
53
102
{ACAD_REACTORS
330
42
102
}
330
42
100
AcDbScale
 70
     0
300
1'-0" = 1'-0"
140
12.0
141
12.0
290
     0
  0
ACDBSECTIONVIEWSTYLE
  5
69
102
{ACAD_XDICTIONARY
360
1DF
102
}
102
{ACAD_REACTORS
330
68
102
}
330
68
100
AcDbModelDocViewStyle
 70
     0
  3
Imperial24
290
     0
100
AcDbSectionViewStyle
 70
     0
 71
     0
 90
       78
 71
     1
340
55
 62
   256
 40
0.24
340
0
340
0
 62
   256
 40
0.24
300
I, O, Q, S, X, Z
 40
0.48
 90
        3
 40
0.18
 90
        1
 71
     2
340
5D
 90
       25
 62
   256
340
5D
 90
       50
 62
   256
 40
0.24
 40
0.0
 40
0.24
 71
     3
340
55
 62
   256
 40
0.24
 90
        1
 40
0.75
 90
        1
300
%<\AcVar ViewType \f "%tc1">% %<\AcVar ViewSectionStartId>%-%<\AcVar ViewSectionEndId>%\PSCALE %<\AcVar ViewScale \f "%sn">%
 71
     4
 62
   256
 62
   257
300
ANSI31
 40
1.0
 90
        0
290
     0
290
     0
 90
        6
 40
0.0
 40
1.570796326794896
 40
0.2617993877991494
 40
1.308996938995747
 40
-0.2617993877991494
 40
1.832595714594046
  0
TABLESTYLE
  5
65
102
{ACAD_XDICTIONARY
360
1A8
102
}
102
{ACAD_REACTORS
330
64
102
}
330
64
100
AcDbTableStyle
280
     0
  3
Standard
 70
     0
 71
     0
 40
0.06
 41
0.06
280
     0
281
     0
  7
Standard
140
0.18
170
     2
 62
     0
 63
     7
283
     0
 90
      512
 91
        0
  1

274
    -2
284
     1
 64
     0
275
    -2
285
     1
 65
     0
276
    -2
286
     1
 66
     0
277
    -2
287
     1
 67
     0
278
    -2
288
     1
 68
     0
279
    -2
289
     1
 69
     0
  7
Standard
140
0.25
170
     5
 62
     0
 63
     7
283
     0
 90
      512
 91
        0
  1

274
    -2
284
     1
 64
     0
275
    -2
285
     1
 65
     0
276
    -2
286
     1
 66
     0
277
    -2
287
     1
 67
     0
278
    -2
288
     1
 68
     0
279
    -2
289
     1
 69
     0
  7
Standard
140
0.18
170
     5
 62
     0
 63
     7
283
     0
 90
      512
 91
        0
  1

274
    -2
284
     1
 64
     0
275
    -2
285
     1
 65
     0
276
    -2
286
     1
 66
     0
277
    -2
287
     1
 67
     0
278
    -2
288
     1
 68
     0
279
    -2
289
     1
 69
     0
  0
VISUALSTYLE
  5
2F
102
{ACAD_XDICTIONARY
360
1B7
102
}
102
{ACAD_REACTORS
330
29
102
}
330
29
100
AcDbVisualStyle
  2
2dWireframe
 70
     4
177
     2
291
     0
 71
     0
176
     1
 72
     2
176
     1
 73
     0
176
     1
 90
        0
176
     1
 40
0.6
176
     1
 41
30.0
176
     1
 63
     7
421
 16777215
176
     1
 74
     1
176
     1
 91
        4
176
     1
 64
     7
176
     1
 65
   257
176
     1
 75
     1
176
     1
175
     1
176
     1
 42
1.0
176
     1
 92
        0
176
     1
 66
   257
176
     1
 43
1.0
176
     1
 76
     1
176
     1
 77
     6
176
     1
 78
     2
176
     1
 67
     7
176
     1
 79
     5
176
     1
170
     0
176
     1
171
     0
176
     1
290
     0
176
     1
 93
        1
176
     1
 44
0.0
176
     1
173
     0
176
     1
1001
ACAD
1000
AcDbSavedByObjectVersion
1070
     0
  0
VISUALSTYLE
  5
2E
102
{ACAD_XDICTIONARY
360
1B5
102
}
102
{ACAD_REACTORS
330
29
102
}
330
29
100
AcDbVisualStyle
  2
Basic
 70
     7
177
     2
291
     1
 71
     1
176
     1
 72
     0
176
     1
 73
     1
176
     1
 90
        0
176
     1
 40
0.6
176
     1
 41
30.0
176
     1
 63
     7
421
 16777215
176
     1
 74
     0
176
     1
 91
        4
176
     1
 64
     7
176
     1
 65
   257
176
     1
 75
     1
176
     1
175
     1
176
     1
 42
1.0
176
     1
 92
        8
176
     1
 66
     7
176
     1
 43
1.0
176
     1
 76
     1
176
     1
 77
     6
176
     1
 78
     2
176
     1
 67
     7
176
     1
 79
     5
176
     1
170
     0
176
     1
171
     0
176
     1
290
     0
176
     1
 93
        1
176
     1
 44
0.0
176
     1
173
     0
176
     1
1001
ACAD
1000
AcDbSavedByObjectVersion
1070
     0
  0
VISUALSTYLE
  5
35
102
{ACAD_XDICTIONARY
360
1C3
102
}
102
{ACAD_REACTORS
330
29
102
}
330
29
100
AcDbVisualStyle
  2
Brighten
 70
    12
177
     2
291
     1
 71
     2
176
     1
 72
     2
176
     1
 73
     0
176
     1
 90
        0
176
     1
 40
0.6
176
     1
 41
30.0
176
     1
 63
     7
421
 16777215
176
     1
 74
     1
176
     1
 91
        4
176
     1
 64
     7
176
     1
 65
   257
176
     1
 75
     1
176
     1
175
     1
176
     1
 42
1.0
176
     1
 92
        8
176
     1
 66
     7
176
     1
 43
1.0
176
     1
 76
     1
176
     1
 77
     6
176
     1
 78
     2
176
     1
 67
     7
176
     1
 79
     5
176
     1
170
     0
176
     1
171
     0
176
     1
290
     0
176
     1
 93
        1
176
     1
 44
50.0
176
     1
173
     0
176
     1
1001
ACAD
1000
AcDbSavedByObjectVersion
1070
     0
  0
VISUALSTYLE
  5
39
102
{ACAD_XDICTIONARY
360
1CB
102
}
102
{ACAD_REACTORS
330
29
102
}
330
29
100
AcDbVisualStyle
  2
ColorChange
 70
    16
177
     2
291
     1
 71
     2
176
     1
 72
     2
176
     1
 73
     3
176
     1
 90
        0
176
     1
 40
0.6
176
     1
 41
30.0
176
     1
 63
     8
421
  8421504
176
     1
 74
     1
176
     1
 91
        4
176
     1
 64
     7
176
     1
 65
   257
176
     1
 75
     1
176
     1
175
     1
176
     1
 42
1.0
176
     1
 92
        8
176
     1
 66
     8
424
  8421504
176
     1
 43
1.0
176
     1
 76
     1
176
     1
 77
     6
176
     1
 78
     2
176
     1
 67
     7
176
     1
 79
     5
176
     1
170
     0
176
     1
171
     0
176
     1
290
     0
176
     1
 93
        1
176
     1
 44
0.0
176
     1
173
     0
176
     1
1001
ACAD
1000
AcDbSavedByObjectVersion
1070
     0
  0
VISUALSTYLE
  5
32
102
{ACAD_XDICTIONARY
360
1BD
102
}
102
{ACAD_REACTORS
330
29
102
}
330
29
100
AcDbVisualStyle
  2
Conceptual
 70
     9
177
     2
291
     0
 71
     3
176
     1
 72
     2
176
     1
 73
     0
176
     1
 90
        0
176
     1
 40
0.6
176
     1
 41
30.0
176
     1
 63
     7
421
 16777215
176
     1
 74
     2
176
     1
 91
        2
176
     1
 64
     7
176
     1
 65
   257
176
     1
 75
     1
176
     1
175
     1
176
     1
 42
179.0
176
     1
 92
        8
176
     1
 66
     7
176
     1
 43
1.0
176
     1
 76
     1
176
     1
 77
     6
176
     1
 78
     2
176
     1
 67
     7
176
     1
 79
     3
176
     1
170
     0
176
     1
171
     0
176
     1
290
     0
176
     1
 93
        1
176
     1
 44
0.0
176
     1
173
     0
176
     1
1001
ACAD
1000
AcDbSavedByObjectVersion
1070
     0
  0
VISUALSTYLE
  5
34
102
{ACAD_XDICTIONARY
360
1C1
102
}
102
{ACAD_REACTORS
330
29
102
}
330
29
100
AcDbVisualStyle
  2
Dim
 70
    11
177
     2
291
     1
 71
     2
176
     1
 72
     2
176
     1
 73
     0
176
     1
 90
        0
176
     1
 40
0.6
176
     1
 41
30.0
176
     1
 63
     7
421
 16777215
176
     1
 74
     1
176
     1
 91
        4
176
     1
 64
     7
176
     1
 65
   257
176
     1
 75
     1
176
     1
175
     1
176
     1
 42
1.0
176
     1
 92
        8
176
     1
 66
     7
176
     1
 43
1.0
176
     1
 76
     1
176
     1
 77
     6
176
     1
 78
     2
176
     1
 67
     7
176
     1
 79
     5
176
     1
170
     0
176
     1
171
     0
176
     1
290
     0
176
     1
 93
        1
176
     1
 44
-50.0
176
     1
173
     0
176
     1
1001
ACAD
1000
AcDbSavedByObjectVersion
1070
     0
  0
VISUALSTYLE
  5
41
102
{ACAD_XDICTIONARY
360
1DB
102
}
102
{ACAD_REACTORS
330
29
102
}
330
29
100
AcDbVisualStyle
  2
EdgeColorOff
 70
    22
177
     2
291
     1
 71
     2
176
     0
 72
     2
176
     0
 73
     0
176
     0
 90
        0
176
     0
 40
0.6
176
     0
 41
30.0
176
     0
 63
     7
421
 16777215
176
     0
 74
     1
176
     0
 91
        4
176
     0
 64
     7
176
     0
 65
   257
176
     0
 75
     1
176
     0
175
     1
176
     0
 42
1.0
176
     0
 92
        8
176
     2
 66
     7
176
     0
 43
1.0
176
     0
 76
     1
176
     0
 77
     6
176
     0
 78
     2
176
     0
 67
     7
176
     0
 79
     5
176
     0
170
     0
176
     0
171
     0
176
     0
290
     0
176
     0
 93
        1
176
     0
 44
0.0
176
     0
173
     0
176
     0
1001
ACAD
1000
AcDbSavedByObjectVersion
1070
     0
  0
VISUALSTYLE
  5
38
102
{ACAD_XDICTIONARY
360
1C9
102
}
102
{ACAD_REACTORS
330
29
102
}
330
29
100
AcDbVisualStyle
  2
Facepattern
 70
    15
177
     2
291
     1
 71
     2
176
     1
 72
     2
176
     1
 73
     0
176
     1
 90
        0
176
     1
 40
0.6
176
     1
 41
30.0
176
     1
 63
     7
421
 16777215
176
     1
 74
     1
176
     1
 91
        4
176
     1
 64
     7
176
     1
 65
   257
176
     1
 75
     1
176
     1
175
     1
176
     1
 42
1.0
176
     1
 92
        8
176
     1
 66
     7
176
     1
 43
1.0
176
     1
 76
     1
176
     1
 77
     6
176
     1
 78
     2
176
     1
 67
     7
176
     1
 79
     5
176
     1
170
     0
176
     1
171
     0
176
     1
290
     0
176
     1
 93
        1
176
     1
 44
0.0
176
     1
173
     0
176
     1
1001
ACAD
1000
AcDbSavedByObjectVersion
1070
     0
  0
VISUALSTYLE
  5
2A
102
{ACAD_XDICTIONARY
360
1AD
102
}
102
{ACAD_REACTORS
330
29
102
}
330
29
100
AcDbVisualStyle
  2
Flat
 70
     0
177
     2
291
     1
 71
     2
176
     1
 72
     1
176
     1
 73
     1
176
     1
 90
        2
176
     1
 40
0.6
176
     1
 41
30.0
176
     1
 63
     7
421
 16777215
176
     1
 74
     0
176
     1
 91
        0
176
     1
 64
     7
176
     1
 65
   257
176
     1
 75
     1
176
     1
175
     1
176
     1
 42
1.0
176
     1
 92
        8
176
     1
 66
     7
176
     1
 43
1.0
176
     1
 76
     1
176
     1
 77
     6
176
     1
 78
     2
176
     1
 67
     7
176
     1
 79
     5
176
     1
170
     0
176
     1
171
     0
176
     1
290
     0
176
     1
 93
       13
176
     1
 44
0.0
176
     1
173
     0
176
     1
1001
ACAD
1000
AcDbSavedByObjectVersion
1070
     0
  0
VISUALSTYLE
  5
2B
102
{ACAD_XDICTIONARY
360
1AF
102
}
102
{ACAD_REACTORS
330
29
102
}
330
29
100
AcDbVisualStyle
  2
FlatWithEdges
 70
     1
177
     2
291
     1
 71
     2
176
     1
 72
     1
176
     1
 73
     1
176
     1
 90
        2
176
     1
 40
0.6
176
     1
 41
30.0
176
     1
 63
     7
421
 16777215
176
     1
 74
     1
176
     1
 91
        0
176
     1
 64
     7
176
     1
 65
   257
176
     1
 75
     1
176
     1
175
     1
176
     1
 42
1.0
176
     1
 92
        0
176
     1
 66
   257
176
     1
 43
1.0
176
     1
 76
     1
176
     1
 77
     6
176
     1
 78
     2
176
     1
 67
     7
176
     1
 79
     5
176
     1
170
     0
176
     1
171
     0
176
     1
290
     0
176
     1
 93
       13
176
     1
 44
0.0
176
     1
173
     0
176
     1
1001
ACAD
1000
AcDbSavedByObjectVersion
1070
     0
  0
VISUALSTYLE
  5
2C
102
{ACAD_XDICTIONARY
360
1B1
102
}
102
{ACAD_REACTORS
330
29
102
}
330
29
100
AcDbVisualStyle
  2
Gouraud
 70
     2
177
     2
291
     1
 71
     2
176
     1
 72
     2
176
     1
 73
     1
176
     1
 90
        2
176
     1
 40
0.6
176
     1
 41
30.0
176
     1
 63
     7
421
 16777215
176
     1
 74
     0
176
     1
 91
        0
176
     1
 64
     7
176
     1
 65
   257
176
     1
 75
     1
176
     1
175
     1
176
     1
 42
1.0
176
     1
 92
        0
176
     1
 66
     7
176
     1
 43
1.0
176
     1
 76
     1
176
     1
 77
     6
176
     1
 78
     2
176
     1
 67
     7
176
     1
 79
     5
176
     1
170
     0
176
     1
171
     0
176
     1
290
     0
176
     1
 93
       13
176
     1
 44
0.0
176
     1
173
     0
176
     1
1001
ACAD
1000
AcDbSavedByObjectVersion
1070
     0
  0
VISUALSTYLE
  5
2D
102
{ACAD_XDICTIONARY
360
1B3
102
}
102
{ACAD_REACTORS
330
29
102
}
330
29
100
AcDbVisualStyle
  2
GouraudWithEdges
 70
     3
177
     2
291
     1
 71
     2
176
     1
 72
     2
176
     1
 73
     1
176
     1
 90
        2
176
     1
 40
0.6
176
     1
 41
30.0
176
     1
 63
     7
421
 16777215
176
     1
 74
     1
176
     1
 91
        0
176
     1
 64
     7
176
     1
 65
   257
176
     1
 75
     1
176
     1
175
     1
176
     1
 42
1.0
176
     1
 92
        0
176
     1
 66
   257
176
     1
 43
1.0
176
     1
 76
     1
176
     1
 77
     6
176
     1
 78
     2
176
     1
 67
     7
176
     1
 79
     5
176
     1
170
     0
176
     1
171
     0
176
     1
290
     0
176
     1
 93
       13
176
     1
 44
0.0
176
     1
173
     0
176
     1
1001
ACAD
1000
AcDbSavedByObjectVersion
1070
     0
  0
VISUALSTYLE
  5
31
102
{ACAD_XDICTIONARY
360
1BB
102
}
102
{ACAD_REACTORS
330
29
102
}
330
29
100
AcDbVisualStyle
  2
Hidden
 70
     6
177
     2
291
     0
 71
     1
176
     1
 72
     2
176
     1
 73
     2
176
     1
 90
        0
176
     1
 40
0.6
176
     1
 41
30.0
176
     1
 63
     7
421
 16777215
176
     1
 74
     2
176
     1
 91
        2
176
     1
 64
     7
176
     1
 65
   257
176
     1
 75
     2
176
     1
175
     1
176
     1
 42
40.0
176
     1
 92
        0
176
     1
 66
   257
176
     1
 43
1.0
176
     1
 76
     1
176
     1
 77
     6
176
     1
 78
     2
176
     1
 67
     7
176
     1
 79
     3
176
     1
170
     0
176
     1
171
     0
176
     1
290
     0
176
     1
 93
        1
176
     1
 44
0.0
176
     1
173
     0
176
     1
1001
ACAD
1000
AcDbSavedByObjectVersion
1070
     0
  0
VISUALSTYLE
  5
3F
102
{ACAD_XDICTIONARY
360
1D7
102
}
102
{ACAD_REACTORS
330
29
102
}
330
29
100
AcDbVisualStyle
  2
JitterOff
 70
    20
177
     2
291
     1
 71
     2
176
     0
 72
     2
176
     0
 73
     0
176
     0
 90
        0
176
     0
 40
0.6
176
     0
 41
30.0
176
     0
 63
     7
421
 16777215
176
     0
 74
     1
176
     0
 91
        4
176
     0
 64
     7
176
     0
 65
   257
176
     0
 75
     1
176
     0
175
     1
176
     0
 42
1.0
176
     0
 92
       10
176
     2
 66
     7
176
     0
 43
1.0
176
     0
 76
     1
176
     0
 77
     6
176
     0
 78
     2
176
     0
 67
     7
176
     0
 79
     5
176
     0
170
     0
176
     0
171
     0
176
     0
290
     0
176
     0
 93
        1
176
     0
 44
0.0
176
     0
173
     0
176
     0
1001
ACAD
1000
AcDbSavedByObjectVersion
1070
     0
  0
VISUALSTYLE
  5
37
102
{ACAD_XDICTIONARY
360
1C7
102
}
102
{ACAD_REACTORS
330
29
102
}
330
29
100
AcDbVisualStyle
  2
Linepattern
 70
    14
177
     2
291
     1
 71
     2
176
     1
 72
     2
176
     1
 73
     0
176
     1
 90
        0
176
     1
 40
0.6
176
     1
 41
30.0
176
     1
 63
     7
421
 16777215
176
     1
 74
     1
176
     1
 91
        4
176
     1
 64
     7
176
     1
 65
   257
176
     1
 75
     7
176
     1
175
     7
176
     1
 42
1.0
176
     1
 92
        8
176
     1
 66
     7
176
     1
 43
1.0
176
     1
 76
     1
176
     1
 77
     6
176
     1
 78
     2
176
     1
 67
     7
176
     1
 79
     5
176
     1
170
     0
176
     1
171
     0
176
     1
290
     0
176
     1
 93
        1
176
     1
 44
0.0
176
     1
173
     0
176
     1
1001
ACAD
1000
AcDbSavedByObjectVersion
1070
     0
  0
VISUALSTYLE
  5
40
102
{ACAD_XDICTIONARY
360
1D9
102
}
102
{ACAD_REACTORS
330
29
102
}
330
29
100
AcDbVisualStyle
  2
OverhangOff
 70
    21
177
     2
291
     1
 71
     2
176
     0
 72
     2
176
     0
 73
     0
176
     0
 90
        0
176
     0
 40
0.6
176
     0
 41
30.0
176
     0
 63
     7
421
 16777215
176
     0
 74
     1
176
     0
 91
        4
176
     0
 64
     7
176
     0
 65
   257
176
     0
 75
     1
176
     0
175
     1
176
     0
 42
1.0
176
     0
 92
        9
176
     2
 66
     7
176
     0
 43
1.0
176
     0
 76
     1
176
     0
 77
     6
176
     0
 78
     2
176
     0
 67
     7
176
     0
 79
     5
176
     0
170
     0
176
     0
171
     0
176
     0
290
     0
176
     0
 93
        1
176
     0
 44
0.0
176
     0
173
     0
176
     0
1001
ACAD
1000
AcDbSavedByObjectVersion
1070
     0
  0
VISUALSTYLE
  5
33
102
{ACAD_XDICTIONARY
360
1BF
102
}
102
{ACAD_REACTORS
330
29
102
}
330
29
100
AcDbVisualStyle
  2
Realistic
 70
     8
177
     2
291
     0
 71
     2
176
     1
 72
     3
176
     1
 73
     0
176
     1
 90
        2
176
     1
 40
0.6
176
     1
 41
30.0
176
     1
 63
     7
421
 16777215
176
     1
 74
     0
176
     1
 91
        0
176
     1
 64
     7
176
     1
 65
   257
176
     1
 75
     1
176
     1
175
     1
176
     1
 42
1.0
176
     1
 92
        8
176
     1
 66
   257
176
     1
 43
1.0
176
     1
 76
     1
176
     1
 77
     6
176
     1
 78
     2
176
     1
 67
     7
176
     1
 79
     3
176
     1
170
     0
176
     1
171
     0
176
     1
290
     0
176
     1
 93
       13
176
     1
 44
0.0
176
     1
173
     0
176
     1
1001
ACAD
1000
AcDbSavedByObjectVersion
1070
     0
  0
VISUALSTYLE
  5
3E
102
{ACAD_XDICTIONARY
360
1D5
102
}
102
{ACAD_REACTORS
330
29
102
}
330
29
100
AcDbVisualStyle
  2
Shaded
 70
    27
177
     2
291
     0
 71
     2
176
     1
 72
     2
176
     1
 73
     1
176
     1
 90
        2
176
     1
 40
0.6
176
     1
 41
30.0
176
     1
 63
     7
421
 16777215
176
     1
 74
     0
176
     1
 91
        4
176
     1
 64
     7
176
     1
 65
   257
176
     1
 75
     1
176
     1
175
     1
176
     1
 42
1.0
176
     1
 92
        8
176
     1
 66
   257
176
     1
 43
1.0
176
     1
 76
     1
176
     1
 77
     6
176
     1
 78
     2
176
     1
 67
     8
425
  7895160
176
     1
 79
     3
176
     1
170
     0
176
     1
171
     0
176
     1
290
     0
176
     1
 93
        5
176
     1
 44
0.0
176
     1
173
     0
176
     1
1001
ACAD
1000
AcDbSavedByObjectVersion
1070
     0
  0
VISUALSTYLE
  5
3D
102
{ACAD_XDICTIONARY
360
1D3
102
}
102
{ACAD_REACTORS
330
29
102
}
330
29
100
AcDbVisualStyle
  2
Shaded with edges
 70
    26
177
     2
291
     0
 71
     2
176
     1
 72
     2
176
     1
 73
     1
176
     1
 90
        2
176
     1
 40
0.6
176
     1
 41
30.0
176
     1
 63
     7
421
 16777215
176
     1
 74
     1
176
     1
 91
        2
176
     1
 64
     7
176
     1
 65
   257
176
     1
 75
     2
176
     1
175
     1
176
     1
 42
1.0
176
     1
 92
        8
176
     1
 66
   257
176
     1
 43
1.0
176
     1
 76
     1
176
     1
 77
     6
176
     1
 78
     2
176
     1
 67
     7
176
     1
 79
     3
176
     1
170
     0
176
     1
171
     0
176
     1
290
     0
176
     1
 93
        5
176
     1
 44
0.0
176
     1
173
     0
176
     1
1001
ACAD
1000
AcDbSavedByObjectVersion
1070
     0
  0
VISUALSTYLE
  5
3A
102
{ACAD_XDICTIONARY
360
1CD
102
}
102
{ACAD_REACTORS
330
29
102
}
330
29
100
AcDbVisualStyle
  2
Shades of Gray
 70
    23
177
     2
291
     0
 71
     2
176
     1
 72
     2
176
     1
 73
     3
176
     1
 90
        0
176
     1
 40
0.6
176
     1
 41
30.0
176
     1
 63
     7
421
 16777215
176
     1
 74
     2
176
     1
 91
        2
176
     1
 64
     7
176
     1
 65
     7
176
     1
 75
     1
176
     1
175
     1
176
     1
 42
40.0
176
     1
 92
        8
176
     1
 66
     7
176
     1
 43
1.0
176
     1
 76
     1
176
     1
 77
     6
176
     1
 78
     2
176
     1
 67
     7
176
     1
 79
     3
176
     1
170
     0
176
     1
171
     0
176
     1
290
     0
176
     1
 93
        1
176
     1
 44
0.0
176
     1
173
     0
176
     1
1001
ACAD
1000
AcDbSavedByObjectVersion
1070
     0
  0
VISUALSTYLE
  5
3B
102
{ACAD_XDICTIONARY
360
1CF
102
}
102
{ACAD_REACTORS
330
29
102
}
330
29
100
AcDbVisualStyle
  2
Sketchy
 70
    24
177
     2
291
     0
 71
     1
176
     1
 72
     2
176
     1
 73
     2
176
     1
 90
        0
176
     1
 40
0.6
176
     1
 41
30.0
176
     1
 63
     7
421
 16777215
176
     1
 74
     2
176
     1
 91
        2
176
     1
 64
     7
176
     1
 65
     7
176
     1
 75
     1
176
     1
175
     1
176
     1
 42
40.0
176
     1
 92
       11
176
     1
 66
     7
176
     1
 43
1.0
176
     1
 76
     1
176
     1
 77
     6
176
     1
 78
     2
176
     1
 67
     7
176
     1
 79
     6
176
     1
170
     0
176
     1
171
     0
176
     1
290
     0
176
     1
 93
        1
176
     1
 44
0.0
176
     1
173
     0
176
     1
1001
ACAD
1000
AcDbSavedByObjectVersion
1070
     0
  0
VISUALSTYLE
  5
36
102
{ACAD_XDICTIONARY
360
1C5
102
}
102
{ACAD_REACTORS
330
29
102
}
330
29
100
AcDbVisualStyle
  2
Thicken
 70
    13
177
     2
291
     1
 71
     2
176
     1
 72
     2
176
     1
 73
     0
176
     1
 90
        0
176
     1
 40
0.6
176
     1
 41
30.0
176
     1
 63
     7
421
 16777215
176
     1
 74
     1
176
     1
 91
        4
176
     1
 64
     7
176
     1
 65
   257
176
     1
 75
     1
176
     1
175
     1
176
     1
 42
1.0
176
     1
 92
       12
176
     1
 66
     7
176
     1
 43
1.0
176
     1
 76
     1
176
     1
 77
     6
176
     1
 78
     2
176
     1
 67
     7
176
     1
 79
     5
176
     1
170
     0
176
     1
171
     0
176
     1
290
     0
176
     1
 93
        1
176
     1
 44
0.0
176
     1
173
     0
176
     1
1001
ACAD
1000
AcDbSavedByObjectVersion
1070
     0
  0
VISUALSTYLE
  5
30
102
{ACAD_XDICTIONARY
360
1B9
102
}
102
{ACAD_REACTORS
330
29
102
}
330
29
100
AcDbVisualStyle
  2
Wireframe
 70
     5
177
     2
291
     0
 71
     0
176
     1
 72
     2
176
     1
 73
     0
176
     1
 90
        0
176
     1
 40
0.6
176
     1
 41
30.0
176
     1
 63
     7
421
 16777215
176
     1
 74
     1
176
     1
 91
        4
176
     1
 64
     7
176
     1
 65
   257
176
     1
 75
     1
176
     1
175
     1
176
     1
 42
1.0
176
     1
 92
        0
176
     1
 66
   257
176
     1
 43
1.0
176
     1
 76
     1
176
     1
 77
     6
176
     1
 78
     2
176
     1
 67
     7
176
     1
 79
     3
176
     1
170
     0
176
     1
171
     0
176
     1
290
     0
176
     1
 93
        1
176
     1
 44
0.0
176
     1
173
     0
176
     1
1001
ACAD
1000
AcDbSavedByObjectVersion
1070
     0
  0
VISUALSTYLE
  5
3C
102
{ACAD_XDICTIONARY
360
1D1
102
}
102
{ACAD_REACTORS
330
29
102
}
330
29
100
AcDbVisualStyle
  2
X-Ray
 70
    25
177
     2
291
     0
 71
     2
176
     1
 72
     2
176
     1
 73
     1
176
     1
 90
        1
176
     1
 40
0.5
176
     1
 41
30.0
176
     1
 63
     7
421
 16777215
176
     1
 74
     1
176
     1
 91
        0
176
     1
 64
     7
176
     1
 65
   257
176
     1
 75
     1
176
     1
175
     1
176
     1
 42
1.0
176
     1
 92
        8
176
     1
 66
     7
176
     1
 43
1.0
176
     1
 76
     1
176
     1
 77
     6
176
     1
 78
     2
176
     1
 67
     7
176
     1
 79
     3
176
     1
170
     0
176
     1
171
     0
176
     1
290
     0
176
     1
 93
       13
176
     1
 44
0.0
176
     1
173
     0
176
     1
1001
ACAD
1000
AcDbSavedByObjectVersion
1070
     0
  0
DICTIONARYVAR
  5
1A7
102
{ACAD_REACTORS
330
1A2
102
}
330
1A2
100
DictionaryVariables
280
     0
  1
1:1
  0
DICTIONARYVAR
  5
1A4
102
{ACAD_REACTORS
330
1A2
102
}
330
1A2
100
DictionaryVariables
280
     0
  1
STANDARD
  0
DICTIONARYVAR
  5
1A3
102
{ACAD_REACTORS
330
1A2
102
}
330
1A2
100
DictionaryVariables
280
     0
  1
STANDARD
  0
DICTIONARYVAR
  5
1A5
102
{ACAD_REACTORS
330
1A2
102
}
330
1A2
100
DictionaryVariables
280
     0
  1
Imperial24
  0
DICTIONARYVAR
  5
1A6
102
{ACAD_REACTORS
330
1A2
102
}
330
1A2
100
DictionaryVariables
280
     0
  1
Imperial24
  0
DICTIONARY
  5
1E1
330
6B
100
AcDbDictionary
280
     1
281
     1
  3
ACAD_XREC_ROUNDTRIP
360
1E2
  0
DICTIONARY
  5
1A
330
19
100
AcDbDictionary
280
     1
281
     1
  3
BUMPTILE
360
1C
  3
DIFFUSETILE
360
1B
  3
OPACITYTILE
360
1F
  3
REFLECTIONTILE
360
1E
  3
REFRACTIONTILE
360
20
  3
SPECULARTILE
360
1D
  0
DICTIONARY
  5
12
330
11
100
AcDbDictionary
280
     1
281
     1
  3
BUMPTILE
360
14
  3
DIFFUSETILE
360
13
  3
OPACITYTILE
360
17
  3
REFLECTIONTILE
360
16
  3
REFRACTIONTILE
360
18
  3
SPECULARTILE
360
15
  0
DICTIONARY
  5
22
330
21
100
AcDbDictionary
280
     1
281
     1
  3
BUMPTILE
360
24
  3
DIFFUSETILE
360
23
  3
OPACITYTILE
360
27
  3
REFLECTIONTILE
360
26
  3
REFRACTIONTILE
360
28
  3
SPECULARTILE
360
25
  0
DICTIONARY
  5
1DD
330
67
100
AcDbDictionary
280
     1
281
     1
  3
ACAD_XREC_ROUNDTRIP
360
1DE
  0
DICTIONARY
  5
1DF
330
69
100
AcDbDictionary
280
     1
281
     1
  3
ACAD_XREC_ROUNDTRIP
360
1E0
  0
DICTIONARY
  5
1A8
330
65
100
AcDbDictionary
280
     1
281
     1
  3
ACAD_ROUNDTRIP_2008_TABLESTYLE_CELLSTYLEMAP
360
1A9
  0
DICTIONARY
  5
1B7
330
2F
100
AcDbDictionary
280
     1
281
     1
  3
ACAD_XREC_ROUNDTRIP
360
1B8
  0
DICTIONARY
  5
1B5
330
2E
100
AcDbDictionary
280
     1
281
     1
  3
ACAD_XREC_ROUNDTRIP
360
1B6
  0
DICTIONARY
  5
1C3
330
35
100
AcDbDictionary
280
     1
281
     1
  3
ACAD_XREC_ROUNDTRIP
360
1C4
  0
DICTIONARY
  5
1CB
330
39
100
AcDbDictionary
280
     1
281
     1
  3
ACAD_XREC_ROUNDTRIP
360
1CC
  0
DICTIONARY
  5
1BD
330
32
100
AcDbDictionary
280
     1
281
     1
  3
ACAD_XREC_ROUNDTRIP
360
1BE
  0
DICTIONARY
  5
1C1
330
34
100
AcDbDictionary
280
     1
281
     1
  3
ACAD_XREC_ROUNDTRIP
360
1C2
  0
DICTIONARY
  5
1DB
330
41
100
AcDbDictionary
280
     1
281
     1
  3
ACAD_XREC_ROUNDTRIP
360
1DC
  0
DICTIONARY
  5
1C9
330
38
100
AcDbDictionary
280
     1
281
     1
  3
ACAD_XREC_ROUNDTRIP
360
1CA
  0
DICTIONARY
  5
1AD
330
2A
100
AcDbDictionary
280
     1
281
     1
  3
ACAD_XREC_ROUNDTRIP
360
1AE
  0
DICTIONARY
  5
1AF
330
2B
100
AcDbDictionary
280
     1
281
     1
  3
ACAD_XREC_ROUNDTRIP
360
1B0
  0
DICTIONARY
  5
1B1
330
2C
100
AcDbDictionary
280
     1
281
     1
  3
ACAD_XREC_ROUNDTRIP
360
1B2
  0
DICTIONARY
  5
1B3
330
2D
100
AcDbDictionary
280
     1
281
     1
  3
ACAD_XREC_ROUNDTRIP
360
1B4
  0
DICTIONARY
  5
1BB
330
31
100
AcDbDictionary
280
     1
281
     1
  3
ACAD_XREC_ROUNDTRIP
360
1BC
  0
DICTIONARY
  5
1D7
330
3F
100
AcDbDictionary
280
     1
281
     1
  3
ACAD_XREC_ROUNDTRIP
360
1D8
  0
DICTIONARY
  5
1C7
330
37
100
AcDbDictionary
280
     1
281
     1
  3
ACAD_XREC_ROUNDTRIP
360
1C8
  0
DICTIONARY
  5
1D9
330
40
100
AcDbDictionary
280
     1
281
     1
  3
ACAD_XREC_ROUNDTRIP
360
1DA
  0
DICTIONARY
  5
1BF
330
33
100
AcDbDictionary
280
     1
281
     1
  3
ACAD_XREC_ROUNDTRIP
360
1C0
  0
DICTIONARY
  5
1D5
330
3E
100
AcDbDictionary
280
     1
281
     1
  3
ACAD_XREC_ROUNDTRIP
360
1D6
  0
DICTIONARY
  5
1D3
330
3D
100
AcDbDictionary
280
     1
281
     1
  3
ACAD_XREC_ROUNDTRIP
360
1D4
  0
DICTIONARY
  5
1CD
330
3A
100
AcDbDictionary
280
     1
281
     1
  3
ACAD_XREC_ROUNDTRIP
360
1CE
  0
DICTIONARY
  5
1CF
330
3B
100
AcDbDictionary
280
     1
281
     1
  3
ACAD_XREC_ROUNDTRIP
360
1D0
  0
DICTIONARY
  5
1C5
330
36
100
AcDbDictionary
280
     1
281
     1
  3
ACAD_XREC_ROUNDTRIP
360
1C6
  0
DICTIONARY
  5
1B9
330
30
100
AcDbDictionary
280
     1
281
     1
  3
ACAD_XREC_ROUNDTRIP
360
1BA
  0
DICTIONARY
  5
1D1
330
3C
100
AcDbDictionary
280
     1
281
     1
  3
ACAD_XREC_ROUNDTRIP
360
1D2
  0
XRECORD
  5
1E2
102
{ACAD_REACTORS
330
1E1
102
}
330
1E1
100
AcDbXrecord
280
     1
102
DISPLAYNAME
  1
Imperial24
102
FLAGS
 90
        0
  0
XRECORD
  5
1C
102
{ACAD_REACTORS
330
1A
102
}
330
1A
100
AcDbXrecord
280
     1
270
     1
271
     1
  0
XRECORD
  5
1B
102
{ACAD_REACTORS
330
1A
102
}
330
1A
100
AcDbXrecord
280
     1
270
     1
271
     1
  0
XRECORD
  5
1F
102
{ACAD_REACTORS
330
1A
102
}
330
1A
100
AcDbXrecord
280
     1
270
     1
271
     1
  0
XRECORD
  5
1E
102
{ACAD_REACTORS
330
1A
102
}
330
1A
100
AcDbXrecord
280
     1
270
     1
271
     1
  0
XRECORD
  5
20
102
{ACAD_REACTORS
330
1A
102
}
330
1A
100
AcDbXrecord
280
     1
270
     1
271
     1
  0
XRECORD
  5
1D
102
{ACAD_REACTORS
330
1A
102
}
330
1A
100
AcDbXrecord
280
     1
270
     1
271
     1
  0
XRECORD
  5
14
102
{ACAD_REACTORS
330
12
102
}
330
12
100
AcDbXrecord
280
     1
270
     1
271
     1
  0
XRECORD
  5
13
102
{ACAD_REACTORS
330
12
102
}
330
12
100
AcDbXrecord
280
     1
270
     1
271
     1
  0
XRECORD
  5
17
102
{ACAD_REACTORS
330
12
102
}
330
12
100
AcDbXrecord
280
     1
270
     1
271
     1
  0
XRECORD
  5
16
102
{ACAD_REACTORS
330
12
102
}
330
12
100
AcDbXrecord
280
     1
270
     1
271
     1
  0
XRECORD
  5
18
102
{ACAD_REACTORS
330
12
102
}
330
12
100
AcDbXrecord
280
     1
270
     1
271
     1
  0
XRECORD
  5
15
102
{ACAD_REACTORS
330
12
102
}
330
12
100
AcDbXrecord
280
     1
270
     1
271
     1
  0
XRECORD
  5
24
102
{ACAD_REACTORS
330
22
102
}
330
22
100
AcDbXrecord
280
     1
270
     1
271
     1
  0
XRECORD
  5
23
102
{ACAD_REACTORS
330
22
102
}
330
22
100
AcDbXrecord
280
     1
270
     1
271
     1
  0
XRECORD
  5
27
102
{ACAD_REACTORS
330
22
102
}
330
22
100
AcDbXrecord
280
     1
270
     1
271
     1
  0
XRECORD
  5
26
102
{ACAD_REACTORS
330
22
102
}
330
22
100
AcDbXrecord
280
     1
270
     1
271
     1
  0
XRECORD
  5
28
102
{ACAD_REACTORS
330
22
102
}
330
22
100
AcDbXrecord
280
     1
270
     1
271
     1
  0
XRECORD
  5
25
102
{ACAD_REACTORS
330
22
102
}
330
22
100
AcDbXrecord
280
     1
270
     1
271
     1
  0
XRECORD
  5
1DE
102
{ACAD_REACTORS
330
1DD
102
}
330
1DD
100
AcDbXrecord
280
     1
102
ACAD_ROUNDTRIP_2012_MLEADER_STYLE
298
     1
  0
XRECORD
  5
1E0
102
{ACAD_REACTORS
330
1DF
102
}
330
1DF
100
AcDbXrecord
280
     1
102
DISPLAYNAME
  1
Imperial24
102
FLAGS
 90
        0
  0
CELLSTYLEMAP
  5
1A9
102
{ACAD_REACTORS
330
1A8
102
}
330
1A8
100
AcDbCellStyleMap
 90
        3
300
CELLSTYLE
  1
TABLEFORMAT_BEGIN
 90
        5
170
     1
 91
        0
 92
    32768
 62
   257
 93
        1
300
CONTENTFORMAT
  1
CONTENTFORMAT_BEGIN
 90
        0
 91
        0
 92
      512
 93
        0
300

 40
0.0
140
1.0
 94
        5
 62
     0
340
55
144
0.25
309
CONTENTFORMAT_END
171
     0
 94
        0
309
TABLEFORMAT_END
  1
CELLSTYLE_BEGIN
 90
        1
 91
        1
300
_TITLE
309
CELLSTYLE_END
300
CELLSTYLE
  1
TABLEFORMAT_BEGIN
 90
        5
170
     1
 91
        0
 92
        0
 62
   257
 93
        1
300
CONTENTFORMAT
  1
CONTENTFORMAT_BEGIN
 90
        0
 91
        0
 92
      512
 93
        0
300

 40
0.0
140
1.0
 94
        5
 62
     0
340
55
144
0.18
309
CONTENTFORMAT_END
171
     0
 94
        0
309
TABLEFORMAT_END
  1
CELLSTYLE_BEGIN
 90
        2
 91
        1
300
_HEADER
309
CELLSTYLE_END
300
CELLSTYLE
  1
TABLEFORMAT_BEGIN
 90
        5
170
     1
 91
        0
 92
        0
 62
   257
 93
        1
300
CONTENTFORMAT
  1
CONTENTFORMAT_BEGIN
 90
        0
 91
        0
 92
      512
 93
        0
300

 40
0.0
140
1.0
 94
        2
 62
     0
340
55
144
0.18
309
CONTENTFORMAT_END
171
     0
 94
        0
309
TABLEFORMAT_END
  1
CELLSTYLE_BEGIN
 90
        3
 91
        2
300
_DATA
309
CELLSTYLE_END
  0
XRECORD
  5
1B8
102
{ACAD_REACTORS
330
1B7
102
}
330
1B7
100
AcDbXrecord
280
     1
102
RTVSPost2010Prop28
280
     1
102
RTVSPost2010PropOp28
 70
     1
102
RTVSPost2010Prop29
280
     1
102
RTVSPost2010PropOp29
 70
     1
102
RTVSPost2010Prop30
280
     0
102
RTVSPost2010PropOp30
 70
     1
102
RTVSPost2010Prop31
280
     0
102
RTVSPost2010PropOp31
 70
     1
102
RTVSPost2010Prop32
280
     0
102
RTVSPost2010PropOp32
 70
     1
102
RTVSPost2010Prop33
280
     0
102
RTVSPost2010PropOp33
 70
     1
102
RTVSPost2010Prop34
280
     0
102
RTVSPost2010PropOp34
 70
     1
102
RTVSPost2010Prop35
280
     0
102
RTVSPost2010PropOp35
 70
     1
102
RTVSPost2010Prop36
280
     0
102
RTVSPost2010PropOp36
 70
     1
102
RTVSPost2010Prop37
 90
       50
102
RTVSPost2010PropOp37
 70
     1
102
RTVSPost2010Prop38
140
0.0
102
RTVSPost2010PropOp38
 70
     1
102
RTVSPost2010Prop39
140
1.0
102
RTVSPost2010PropOp39
 70
     1
102
RTVSPost2010Prop40
 90
        0
102
RTVSPost2010PropOp40
 70
     1
102
RTVSPost2010Prop41ColorIndex
 90
       18
102
RTVSPost2010Prop41ColorRGB
 90
        0
102
RTVSPost2010PropOp41
 70
     1
102
RTVSPost2010Prop42
 90
       50
102
RTVSPost2010PropOp42
 70
     1
102
RTVSPost2010Prop43
 90
        3
102
RTVSPost2010PropOp43
 70
     1
102
RTVSPost2010Prop44ColorIndex
 90
        5
102
RTVSPost2010Prop44ColorRGB
 90
      255
102
RTVSPost2010PropOp44
 70
     1
102
RTVSPost2010Prop45
280
     0
102
RTVSPost2010PropOp45
 70
     1
102
RTVSPost2010Prop46
 90
       50
102
RTVSPost2010PropOp46
 70
     1
102
RTVSPost2010Prop47
 90
       50
102
RTVSPost2010PropOp47
 70
     1
102
RTVSPost2010Prop48
 90
       50
102
RTVSPost2010PropOp48
 70
     1
102
RTVSPost2010Prop49
280
     0
102
RTVSPost2010PropOp49
 70
     1
102
RTVSPost2010Prop50
 90
       50
102
RTVSPost2010PropOp50
 70
     1
102
RTVSPost2010Prop51ColorIndex
 90
      256
102
RTVSPost2010Prop51ColorRGB
 90
-16777216
102
RTVSPost2010PropOp51
 70
     0
102
RTVSPost2010Prop52
140
1.0
102
RTVSPost2010PropOp52
 70
     0
102
RTVSPost2010Prop53
 90
        2
102
RTVSPost2010PropOp53
 70
     1
102
RTVSPost2010Prop54
  1
strokes_ogs.tif
102
RTVSPost2010PropOp54
 70
     1
102
RTVSPost2010Prop55
280
     0
102
RTVSPost2010PropOp55
 70
     1
102
RTVSPost2010Prop56
140
1.0
102
RTVSPost2010PropOp56
 70
     1
102
RTVSPost2010Prop57
140
1.0
102
RTVSPost2010PropOp57
 70
     1
  0
XRECORD
  5
1B6
102
{ACAD_REACTORS
330
1B5
102
}
330
1B5
100
AcDbXrecord
280
     1
102
RTVSPost2010Prop28
280
     0
102
RTVSPost2010PropOp28
 70
     1
102
RTVSPost2010Prop29
280
     1
102
RTVSPost2010PropOp29
 70
     1
102
RTVSPost2010Prop30
280
     1
102
RTVSPost2010PropOp30
 70
     1
102
RTVSPost2010Prop31
280
     0
102
RTVSPost2010PropOp31
 70
     1
102
RTVSPost2010Prop32
280
     0
102
RTVSPost2010PropOp32
 70
     1
102
RTVSPost2010Prop33
280
     0
102
RTVSPost2010PropOp33
 70
     1
102
RTVSPost2010Prop34
280
     0
102
RTVSPost2010PropOp34
 70
     1
102
RTVSPost2010Prop35
280
     0
102
RTVSPost2010PropOp35
 70
     1
102
RTVSPost2010Prop36
280
     0
102
RTVSPost2010PropOp36
 70
     1
102
RTVSPost2010Prop37
 90
       50
102
RTVSPost2010PropOp37
 70
     1
102
RTVSPost2010Prop38
140
0.0
102
RTVSPost2010PropOp38
 70
     1
102
RTVSPost2010Prop39
140
1.0
102
RTVSPost2010PropOp39
 70
     1
102
RTVSPost2010Prop40
 90
        0
102
RTVSPost2010PropOp40
 70
     1
102
RTVSPost2010Prop41ColorIndex
 90
       18
102
RTVSPost2010Prop41ColorRGB
 90
        0
102
RTVSPost2010PropOp41
 70
     1
102
RTVSPost2010Prop42
 90
       50
102
RTVSPost2010PropOp42
 70
     1
102
RTVSPost2010Prop43
 90
        3
102
RTVSPost2010PropOp43
 70
     1
102
RTVSPost2010Prop44ColorIndex
 90
        5
102
RTVSPost2010Prop44ColorRGB
 90
      255
102
RTVSPost2010PropOp44
 70
     1
102
RTVSPost2010Prop45
280
     0
102
RTVSPost2010PropOp45
 70
     1
102
RTVSPost2010Prop46
 90
       50
102
RTVSPost2010PropOp46
 70
     1
102
RTVSPost2010Prop47
 90
       50
102
RTVSPost2010PropOp47
 70
     1
102
RTVSPost2010Prop48
 90
       50
102
RTVSPost2010PropOp48
 70
     1
102
RTVSPost2010Prop49
280
     0
102
RTVSPost2010PropOp49
 70
     1
102
RTVSPost2010Prop50
 90
       50
102
RTVSPost2010PropOp50
 70
     1
102
RTVSPost2010Prop51ColorIndex
 90
      256
102
RTVSPost2010Prop51ColorRGB
 90
-16777216
102
RTVSPost2010PropOp51
 70
     0
102
RTVSPost2010Prop52
140
1.0
102
RTVSPost2010PropOp52
 70
     0
102
RTVSPost2010Prop53
 90
        2
102
RTVSPost2010PropOp53
 70
     1
102
RTVSPost2010Prop54
  1
strokes_ogs.tif
102
RTVSPost2010PropOp54
 70
     1
102
RTVSPost2010Prop55
280
     0
102
RTVSPost2010PropOp55
 70
     1
102
RTVSPost2010Prop56
140
1.0
102
RTVSPost2010PropOp56
 70
     1
102
RTVSPost2010Prop57
140
1.0
102
RTVSPost2010PropOp57
 70
     1
  0
XRECORD
  5
1C4
102
{ACAD_REACTORS
330
1C3
102
}
330
1C3
100
AcDbXrecord
280
     1
102
RTVSPost2010Prop28
280
     0
102
RTVSPost2010PropOp28
 70
     1
102
RTVSPost2010Prop29
280
     1
102
RTVSPost2010PropOp29
 70
     1
102
RTVSPost2010Prop30
280
     1
102
RTVSPost2010PropOp30
 70
     1
102
RTVSPost2010Prop31
280
     0
102
RTVSPost2010PropOp31
 70
     1
102
RTVSPost2010Prop32
280
     0
102
RTVSPost2010PropOp32
 70
     1
102
RTVSPost2010Prop33
280
     0
102
RTVSPost2010PropOp33
 70
     1
102
RTVSPost2010Prop34
280
     0
102
RTVSPost2010PropOp34
 70
     1
102
RTVSPost2010Prop35
280
     0
102
RTVSPost2010PropOp35
 70
     1
102
RTVSPost2010Prop36
280
     0
102
RTVSPost2010PropOp36
 70
     1
102
RTVSPost2010Prop37
 90
       50
102
RTVSPost2010PropOp37
 70
     1
102
RTVSPost2010Prop38
140
0.0
102
RTVSPost2010PropOp38
 70
     1
102
RTVSPost2010Prop39
140
1.0
102
RTVSPost2010PropOp39
 70
     1
102
RTVSPost2010Prop40
 90
        0
102
RTVSPost2010PropOp40
 70
     1
102
RTVSPost2010Prop41ColorIndex
 90
       18
102
RTVSPost2010Prop41ColorRGB
 90
        0
102
RTVSPost2010PropOp41
 70
     1
102
RTVSPost2010Prop42
 90
       50
102
RTVSPost2010PropOp42
 70
     1
102
RTVSPost2010Prop43
 90
        3
102
RTVSPost2010PropOp43
 70
     1
102
RTVSPost2010Prop44ColorIndex
 90
        5
102
RTVSPost2010Prop44ColorRGB
 90
      255
102
RTVSPost2010PropOp44
 70
     1
102
RTVSPost2010Prop45
280
     0
102
RTVSPost2010PropOp45
 70
     1
102
RTVSPost2010Prop46
 90
       50
102
RTVSPost2010PropOp46
 70
     1
102
RTVSPost2010Prop47
 90
       50
102
RTVSPost2010PropOp47
 70
     1
102
RTVSPost2010Prop48
 90
       50
102
RTVSPost2010PropOp48
 70
     1
102
RTVSPost2010Prop49
280
     0
102
RTVSPost2010PropOp49
 70
     1
102
RTVSPost2010Prop50
 90
       50
102
RTVSPost2010PropOp50
 70
     1
102
RTVSPost2010Prop51ColorIndex
 90
      256
102
RTVSPost2010Prop51ColorRGB
 90
-16777216
102
RTVSPost2010PropOp51
 70
     0
102
RTVSPost2010Prop52
140
1.0
102
RTVSPost2010PropOp52
 70
     0
102
RTVSPost2010Prop53
 90
        2
102
RTVSPost2010PropOp53
 70
     1
102
RTVSPost2010Prop54
  1
strokes_ogs.tif
102
RTVSPost2010PropOp54
 70
     1
102
RTVSPost2010Prop55
280
     0
102
RTVSPost2010PropOp55
 70
     1
102
RTVSPost2010Prop56
140
1.0
102
RTVSPost2010PropOp56
 70
     1
102
RTVSPost2010Prop57
140
1.0
102
RTVSPost2010PropOp57
 70
     1
  0
XRECORD
  5
1CC
102
{ACAD_REACTORS
330
1CB
102
}
330
1CB
100
AcDbXrecord
280
     1
102
RTVSPost2010Prop28
280
     0
102
RTVSPost2010PropOp28
 70
     1
102
RTVSPost2010Prop29
280
     1
102
RTVSPost2010PropOp29
 70
     1
102
RTVSPost2010Prop30
280
     1
102
RTVSPost2010PropOp30
 70
     1
102
RTVSPost2010Prop31
280
     0
102
RTVSPost2010PropOp31
 70
     1
102
RTVSPost2010Prop32
280
     0
102
RTVSPost2010PropOp32
 70
     1
102
RTVSPost2010Prop33
280
     0
102
RTVSPost2010PropOp33
 70
     1
102
RTVSPost2010Prop34
280
     0
102
RTVSPost2010PropOp34
 70
     1
102
RTVSPost2010Prop35
280
     0
102
RTVSPost2010PropOp35
 70
     1
102
RTVSPost2010Prop36
280
     0
102
RTVSPost2010PropOp36
 70
     1
102
RTVSPost2010Prop37
 90
       50
102
RTVSPost2010PropOp37
 70
     1
102
RTVSPost2010Prop38
140
0.0
102
RTVSPost2010PropOp38
 70
     1
102
RTVSPost2010Prop39
140
1.0
102
RTVSPost2010PropOp39
 70
     1
102
RTVSPost2010Prop40
 90
        0
102
RTVSPost2010PropOp40
 70
     1
102
RTVSPost2010Prop41ColorIndex
 90
       18
102
RTVSPost2010Prop41ColorRGB
 90
        0
102
RTVSPost2010PropOp41
 70
     1
102
RTVSPost2010Prop42
 90
       50
102
RTVSPost2010PropOp42
 70
     1
102
RTVSPost2010Prop43
 90
        3
102
RTVSPost2010PropOp43
 70
     1
102
RTVSPost2010Prop44ColorIndex
 90
        5
102
RTVSPost2010Prop44ColorRGB
 90
      255
102
RTVSPost2010PropOp44
 70
     1
102
RTVSPost2010Prop45
280
     0
102
RTVSPost2010PropOp45
 70
     1
102
RTVSPost2010Prop46
 90
       50
102
RTVSPost2010PropOp46
 70
     1
102
RTVSPost2010Prop47
 90
       50
102
RTVSPost2010PropOp47
 70
     1
102
RTVSPost2010Prop48
 90
       50
102
RTVSPost2010PropOp48
 70
     1
102
RTVSPost2010Prop49
280
     0
102
RTVSPost2010PropOp49
 70
     1
102
RTVSPost2010Prop50
 90
       50
102
RTVSPost2010PropOp50
 70
     1
102
RTVSPost2010Prop51ColorIndex
 90
      256
102
RTVSPost2010Prop51ColorRGB
 90
-16777216
102
RTVSPost2010PropOp51
 70
     0
102
RTVSPost2010Prop52
140
1.0
102
RTVSPost2010PropOp52
 70
     0
102
RTVSPost2010Prop53
 90
        2
102
RTVSPost2010PropOp53
 70
     1
102
RTVSPost2010Prop54
  1
strokes_ogs.tif
102
RTVSPost2010PropOp54
 70
     1
102
RTVSPost2010Prop55
280
     0
102
RTVSPost2010PropOp55
 70
     1
102
RTVSPost2010Prop56
140
1.0
102
RTVSPost2010PropOp56
 70
     1
102
RTVSPost2010Prop57
140
1.0
102
RTVSPost2010PropOp57
 70
     1
  0
XRECORD
  5
1BE
102
{ACAD_REACTORS
330
1BD
102
}
330
1BD
100
AcDbXrecord
280
     1
102
RTVSPost2010Prop28
280
     0
102
RTVSPost2010PropOp28
 70
     1
102
RTVSPost2010Prop29
280
     1
102
RTVSPost2010PropOp29
 70
     1
102
RTVSPost2010Prop30
280
     1
102
RTVSPost2010PropOp30
 70
     1
102
RTVSPost2010Prop31
280
     0
102
RTVSPost2010PropOp31
 70
     1
102
RTVSPost2010Prop32
280
     0
102
RTVSPost2010PropOp32
 70
     1
102
RTVSPost2010Prop33
280
     0
102
RTVSPost2010PropOp33
 70
     1
102
RTVSPost2010Prop34
280
     0
102
RTVSPost2010PropOp34
 70
     1
102
RTVSPost2010Prop35
280
     0
102
RTVSPost2010PropOp35
 70
     1
102
RTVSPost2010Prop36
280
     0
102
RTVSPost2010PropOp36
 70
     1
102
RTVSPost2010Prop37
 90
       50
102
RTVSPost2010PropOp37
 70
     1
102
RTVSPost2010Prop38
140
0.0
102
RTVSPost2010PropOp38
 70
     1
102
RTVSPost2010Prop39
140
1.0
102
RTVSPost2010PropOp39
 70
     1
102
RTVSPost2010Prop40
 90
        0
102
RTVSPost2010PropOp40
 70
     1
102
RTVSPost2010Prop41ColorIndex
 90
       18
102
RTVSPost2010Prop41ColorRGB
 90
        0
102
RTVSPost2010PropOp41
 70
     1
102
RTVSPost2010Prop42
 90
       50
102
RTVSPost2010PropOp42
 70
     1
102
RTVSPost2010Prop43
 90
        3
102
RTVSPost2010PropOp43
 70
     1
102
RTVSPost2010Prop44ColorIndex
 90
        5
102
RTVSPost2010Prop44ColorRGB
 90
      255
102
RTVSPost2010PropOp44
 70
     1
102
RTVSPost2010Prop45
280
     0
102
RTVSPost2010PropOp45
 70
     1
102
RTVSPost2010Prop46
 90
       50
102
RTVSPost2010PropOp46
 70
     1
102
RTVSPost2010Prop47
 90
       50
102
RTVSPost2010PropOp47
 70
     1
102
RTVSPost2010Prop48
 90
       50
102
RTVSPost2010PropOp48
 70
     1
102
RTVSPost2010Prop49
280
     0
102
RTVSPost2010PropOp49
 70
     1
102
RTVSPost2010Prop50
 90
       50
102
RTVSPost2010PropOp50
 70
     1
102
RTVSPost2010Prop51ColorIndex
 90
      256
102
RTVSPost2010Prop51ColorRGB
 90
-16777216
102
RTVSPost2010PropOp51
 70
     0
102
RTVSPost2010Prop52
140
1.0
102
RTVSPost2010PropOp52
 70
     0
102
RTVSPost2010Prop53
 90
        2
102
RTVSPost2010PropOp53
 70
     1
102
RTVSPost2010Prop54
  1
strokes_ogs.tif
102
RTVSPost2010PropOp54
 70
     1
102
RTVSPost2010Prop55
280
     0
102
RTVSPost2010PropOp55
 70
     1
102
RTVSPost2010Prop56
140
1.0
102
RTVSPost2010PropOp56
 70
     1
102
RTVSPost2010Prop57
140
1.0
102
RTVSPost2010PropOp57
 70
     1
  0
XRECORD
  5
1C2
102
{ACAD_REACTORS
330
1C1
102
}
330
1C1
100
AcDbXrecord
280
     1
102
RTVSPost2010Prop28
280
     0
102
RTVSPost2010PropOp28
 70
     1
102
RTVSPost2010Prop29
280
     1
102
RTVSPost2010PropOp29
 70
     1
102
RTVSPost2010Prop30
280
     1
102
RTVSPost2010PropOp30
 70
     1
102
RTVSPost2010Prop31
280
     0
102
RTVSPost2010PropOp31
 70
     1
102
RTVSPost2010Prop32
280
     0
102
RTVSPost2010PropOp32
 70
     1
102
RTVSPost2010Prop33
280
     0
102
RTVSPost2010PropOp33
 70
     1
102
RTVSPost2010Prop34
280
     0
102
RTVSPost2010PropOp34
 70
     1
102
RTVSPost2010Prop35
280
     0
102
RTVSPost2010PropOp35
 70
     1
102
RTVSPost2010Prop36
280
     0
102
RTVSPost2010PropOp36
 70
     1
102
RTVSPost2010Prop37
 90
       50
102
RTVSPost2010PropOp37
 70
     1
102
RTVSPost2010Prop38
140
0.0
102
RTVSPost2010PropOp38
 70
     1
102
RTVSPost2010Prop39
140
1.0
102
RTVSPost2010PropOp39
 70
     1
102
RTVSPost2010Prop40
 90
        0
102
RTVSPost2010PropOp40
 70
     1
102
RTVSPost2010Prop41ColorIndex
 90
       18
102
RTVSPost2010Prop41ColorRGB
 90
        0
102
RTVSPost2010PropOp41
 70
     1
102
RTVSPost2010Prop42
 90
       50
102
RTVSPost2010PropOp42
 70
     1
102
RTVSPost2010Prop43
 90
        3
102
RTVSPost2010PropOp43
 70
     1
102
RTVSPost2010Prop44ColorIndex
 90
        5
102
RTVSPost2010Prop44ColorRGB
 90
      255
102
RTVSPost2010PropOp44
 70
     1
102
RTVSPost2010Prop45
280
     0
102
RTVSPost2010PropOp45
 70
     1
102
RTVSPost2010Prop46
 90
       50
102
RTVSPost2010PropOp46
 70
     1
102
RTVSPost2010Prop47
 90
       50
102
RTVSPost2010PropOp47
 70
     1
102
RTVSPost2010Prop48
 90
       50
102
RTVSPost2010PropOp48
 70
     1
102
RTVSPost2010Prop49
280
     0
102
RTVSPost2010PropOp49
 70
     1
102
RTVSPost2010Prop50
 90
       50
102
RTVSPost2010PropOp50
 70
     1
102
RTVSPost2010Prop51ColorIndex
 90
      256
102
RTVSPost2010Prop51ColorRGB
 90
-16777216
102
RTVSPost2010PropOp51
 70
     0
102
RTVSPost2010Prop52
140
1.0
102
RTVSPost2010PropOp52
 70
     0
102
RTVSPost2010Prop53
 90
        2
102
RTVSPost2010PropOp53
 70
     1
102
RTVSPost2010Prop54
  1
strokes_ogs.tif
102
RTVSPost2010PropOp54
 70
     1
102
RTVSPost2010Prop55
280
     0
102
RTVSPost2010PropOp55
 70
     1
102
RTVSPost2010Prop56
140
1.0
102
RTVSPost2010PropOp56
 70
     1
102
RTVSPost2010Prop57
140
1.0
102
RTVSPost2010PropOp57
 70
     1
  0
XRECORD
  5
1DC
102
{ACAD_REACTORS
330
1DB
102
}
330
1DB
100
AcDbXrecord
280
     1
102
RTVSPost2010Prop28
280
     0
102
RTVSPost2010PropOp28
 70
     0
102
RTVSPost2010Prop29
280
     1
102
RTVSPost2010PropOp29
 70
     0
102
RTVSPost2010Prop30
280
     1
102
RTVSPost2010PropOp30
 70
     0
102
RTVSPost2010Prop31
280
     0
102
RTVSPost2010PropOp31
 70
     0
102
RTVSPost2010Prop32
280
     0
102
RTVSPost2010PropOp32
 70
     0
102
RTVSPost2010Prop33
280
     0
102
RTVSPost2010PropOp33
 70
     0
102
RTVSPost2010Prop34
280
     0
102
RTVSPost2010PropOp34
 70
     0
102
RTVSPost2010Prop35
280
     0
102
RTVSPost2010PropOp35
 70
     0
102
RTVSPost2010Prop36
280
     0
102
RTVSPost2010PropOp36
 70
     0
102
RTVSPost2010Prop37
 90
       50
102
RTVSPost2010PropOp37
 70
     0
102
RTVSPost2010Prop38
140
0.0
102
RTVSPost2010PropOp38
 70
     0
102
RTVSPost2010Prop39
140
1.0
102
RTVSPost2010PropOp39
 70
     0
102
RTVSPost2010Prop40
 90
        0
102
RTVSPost2010PropOp40
 70
     0
102
RTVSPost2010Prop41ColorIndex
 90
       18
102
RTVSPost2010Prop41ColorRGB
 90
        0
102
RTVSPost2010PropOp41
 70
     0
102
RTVSPost2010Prop42
 90
       50
102
RTVSPost2010PropOp42
 70
     0
102
RTVSPost2010Prop43
 90
        3
102
RTVSPost2010PropOp43
 70
     0
102
RTVSPost2010Prop44ColorIndex
 90
        5
102
RTVSPost2010Prop44ColorRGB
 90
      255
102
RTVSPost2010PropOp44
 70
     0
102
RTVSPost2010Prop45
280
     0
102
RTVSPost2010PropOp45
 70
     0
102
RTVSPost2010Prop46
 90
       50
102
RTVSPost2010PropOp46
 70
     0
102
RTVSPost2010Prop47
 90
       50
102
RTVSPost2010PropOp47
 70
     0
102
RTVSPost2010Prop48
 90
       50
102
RTVSPost2010PropOp48
 70
     0
102
RTVSPost2010Prop49
280
     0
102
RTVSPost2010PropOp49
 70
     0
102
RTVSPost2010Prop50
 90
       50
102
RTVSPost2010PropOp50
 70
     0
102
RTVSPost2010Prop51ColorIndex
 90
      256
102
RTVSPost2010Prop51ColorRGB
 90
-16777216
102
RTVSPost2010PropOp51
 70
     0
102
RTVSPost2010Prop52
140
1.0
102
RTVSPost2010PropOp52
 70
     0
102
RTVSPost2010Prop53
 90
        2
102
RTVSPost2010PropOp53
 70
     0
102
RTVSPost2010Prop54
  1
strokes_ogs.tif
102
RTVSPost2010PropOp54
 70
     0
102
RTVSPost2010Prop55
280
     0
102
RTVSPost2010PropOp55
 70
     0
102
RTVSPost2010Prop56
140
1.0
102
RTVSPost2010PropOp56
 70
     0
102
RTVSPost2010Prop57
140
1.0
102
RTVSPost2010PropOp57
 70
     0
  0
XRECORD
  5
1CA
102
{ACAD_REACTORS
330
1C9
102
}
330
1C9
100
AcDbXrecord
280
     1
102
RTVSPost2010Prop28
280
     0
102
RTVSPost2010PropOp28
 70
     1
102
RTVSPost2010Prop29
280
     1
102
RTVSPost2010PropOp29
 70
     1
102
RTVSPost2010Prop30
280
     1
102
RTVSPost2010PropOp30
 70
     1
102
RTVSPost2010Prop31
280
     0
102
RTVSPost2010PropOp31
 70
     1
102
RTVSPost2010Prop32
280
     0
102
RTVSPost2010PropOp32
 70
     1
102
RTVSPost2010Prop33
280
     0
102
RTVSPost2010PropOp33
 70
     1
102
RTVSPost2010Prop34
280
     0
102
RTVSPost2010PropOp34
 70
     1
102
RTVSPost2010Prop35
280
     0
102
RTVSPost2010PropOp35
 70
     1
102
RTVSPost2010Prop36
280
     0
102
RTVSPost2010PropOp36
 70
     1
102
RTVSPost2010Prop37
 90
       50
102
RTVSPost2010PropOp37
 70
     1
102
RTVSPost2010Prop38
140
0.0
102
RTVSPost2010PropOp38
 70
     1
102
RTVSPost2010Prop39
140
1.0
102
RTVSPost2010PropOp39
 70
     1
102
RTVSPost2010Prop40
 90
        0
102
RTVSPost2010PropOp40
 70
     1
102
RTVSPost2010Prop41ColorIndex
 90
       18
102
RTVSPost2010Prop41ColorRGB
 90
        0
102
RTVSPost2010PropOp41
 70
     1
102
RTVSPost2010Prop42
 90
       50
102
RTVSPost2010PropOp42
 70
     1
102
RTVSPost2010Prop43
 90
        3
102
RTVSPost2010PropOp43
 70
     1
102
RTVSPost2010Prop44ColorIndex
 90
        5
102
RTVSPost2010Prop44ColorRGB
 90
      255
102
RTVSPost2010PropOp44
 70
     1
102
RTVSPost2010Prop45
280
     0
102
RTVSPost2010PropOp45
 70
     1
102
RTVSPost2010Prop46
 90
       50
102
RTVSPost2010PropOp46
 70
     1
102
RTVSPost2010Prop47
 90
       50
102
RTVSPost2010PropOp47
 70
     1
102
RTVSPost2010Prop48
 90
       50
102
RTVSPost2010PropOp48
 70
     1
102
RTVSPost2010Prop49
280
     0
102
RTVSPost2010PropOp49
 70
     1
102
RTVSPost2010Prop50
 90
       50
102
RTVSPost2010PropOp50
 70
     1
102
RTVSPost2010Prop51ColorIndex
 90
      256
102
RTVSPost2010Prop51ColorRGB
 90
-16777216
102
RTVSPost2010PropOp51
 70
     0
102
RTVSPost2010Prop52
140
1.0
102
RTVSPost2010PropOp52
 70
     0
102
RTVSPost2010Prop53
 90
        2
102
RTVSPost2010PropOp53
 70
     1
102
RTVSPost2010Prop54
  1
strokes_ogs.tif
102
RTVSPost2010PropOp54
 70
     1
102
RTVSPost2010Prop55
280
     0
102
RTVSPost2010PropOp55
 70
     1
102
RTVSPost2010Prop56
140
1.0
102
RTVSPost2010PropOp56
 70
     1
102
RTVSPost2010Prop57
140
1.0
102
RTVSPost2010PropOp57
 70
     1
  0
XRECORD
  5
1AE
102
{ACAD_REACTORS
330
1AD
102
}
330
1AD
100
AcDbXrecord
280
     1
102
RTVSPost2010Prop28
280
     0
102
RTVSPost2010PropOp28
 70
     1
102
RTVSPost2010Prop29
280
     1
102
RTVSPost2010PropOp29
 70
     1
102
RTVSPost2010Prop30
280
     1
102
RTVSPost2010PropOp30
 70
     1
102
RTVSPost2010Prop31
280
     0
102
RTVSPost2010PropOp31
 70
     1
102
RTVSPost2010Prop32
280
     0
102
RTVSPost2010PropOp32
 70
     1
102
RTVSPost2010Prop33
280
     0
102
RTVSPost2010PropOp33
 70
     1
102
RTVSPost2010Prop34
280
     0
102
RTVSPost2010PropOp34
 70
     1
102
RTVSPost2010Prop35
280
     0
102
RTVSPost2010PropOp35
 70
     1
102
RTVSPost2010Prop36
280
     0
102
RTVSPost2010PropOp36
 70
     1
102
RTVSPost2010Prop37
 90
       50
102
RTVSPost2010PropOp37
 70
     1
102
RTVSPost2010Prop38
140
0.0
102
RTVSPost2010PropOp38
 70
     1
102
RTVSPost2010Prop39
140
1.0
102
RTVSPost2010PropOp39
 70
     1
102
RTVSPost2010Prop40
 90
        0
102
RTVSPost2010PropOp40
 70
     1
102
RTVSPost2010Prop41ColorIndex
 90
       18
102
RTVSPost2010Prop41ColorRGB
 90
        0
102
RTVSPost2010PropOp41
 70
     1
102
RTVSPost2010Prop42
 90
       50
102
RTVSPost2010PropOp42
 70
     1
102
RTVSPost2010Prop43
 90
        3
102
RTVSPost2010PropOp43
 70
     1
102
RTVSPost2010Prop44ColorIndex
 90
        5
102
RTVSPost2010Prop44ColorRGB
 90
      255
102
RTVSPost2010PropOp44
 70
     1
102
RTVSPost2010Prop45
280
     0
102
RTVSPost2010PropOp45
 70
     1
102
RTVSPost2010Prop46
 90
       50
102
RTVSPost2010PropOp46
 70
     1
102
RTVSPost2010Prop47
 90
       50
102
RTVSPost2010PropOp47
 70
     1
102
RTVSPost2010Prop48
 90
       50
102
RTVSPost2010PropOp48
 70
     1
102
RTVSPost2010Prop49
280
     0
102
RTVSPost2010PropOp49
 70
     1
102
RTVSPost2010Prop50
 90
       50
102
RTVSPost2010PropOp50
 70
     1
102
RTVSPost2010Prop51ColorIndex
 90
      256
102
RTVSPost2010Prop51ColorRGB
 90
-16777216
102
RTVSPost2010PropOp51
 70
     0
102
RTVSPost2010Prop52
140
1.0
102
RTVSPost2010PropOp52
 70
     0
102
RTVSPost2010Prop53
 90
        2
102
RTVSPost2010PropOp53
 70
     1
102
RTVSPost2010Prop54
  1
strokes_ogs.tif
102
RTVSPost2010PropOp54
 70
     1
102
RTVSPost2010Prop55
280
     0
102
RTVSPost2010PropOp55
 70
     1
102
RTVSPost2010Prop56
140
1.0
102
RTVSPost2010PropOp56
 70
     1
102
RTVSPost2010Prop57
140
1.0
102
RTVSPost2010PropOp57
 70
     1
  0
XRECORD
  5
1B0
102
{ACAD_REACTORS
330
1AF
102
}
330
1AF
100
AcDbXrecord
280
     1
102
RTVSPost2010Prop28
280
     0
102
RTVSPost2010PropOp28
 70
     1
102
RTVSPost2010Prop29
280
     1
102
RTVSPost2010PropOp29
 70
     1
102
RTVSPost2010Prop30
280
     1
102
RTVSPost2010PropOp30
 70
     1
102
RTVSPost2010Prop31
280
     0
102
RTVSPost2010PropOp31
 70
     1
102
RTVSPost2010Prop32
280
     0
102
RTVSPost2010PropOp32
 70
     1
102
RTVSPost2010Prop33
280
     0
102
RTVSPost2010PropOp33
 70
     1
102
RTVSPost2010Prop34
280
     0
102
RTVSPost2010PropOp34
 70
     1
102
RTVSPost2010Prop35
280
     0
102
RTVSPost2010PropOp35
 70
     1
102
RTVSPost2010Prop36
280
     0
102
RTVSPost2010PropOp36
 70
     1
102
RTVSPost2010Prop37
 90
       50
102
RTVSPost2010PropOp37
 70
     1
102
RTVSPost2010Prop38
140
0.0
102
RTVSPost2010PropOp38
 70
     1
102
RTVSPost2010Prop39
140
1.0
102
RTVSPost2010PropOp39
 70
     1
102
RTVSPost2010Prop40
 90
        0
102
RTVSPost2010PropOp40
 70
     1
102
RTVSPost2010Prop41ColorIndex
 90
       18
102
RTVSPost2010Prop41ColorRGB
 90
        0
102
RTVSPost2010PropOp41
 70
     1
102
RTVSPost2010Prop42
 90
       50
102
RTVSPost2010PropOp42
 70
     1
102
RTVSPost2010Prop43
 90
        3
102
RTVSPost2010PropOp43
 70
     1
102
RTVSPost2010Prop44ColorIndex
 90
        5
102
RTVSPost2010Prop44ColorRGB
 90
      255
102
RTVSPost2010PropOp44
 70
     1
102
RTVSPost2010Prop45
280
     0
102
RTVSPost2010PropOp45
 70
     1
102
RTVSPost2010Prop46
 90
       50
102
RTVSPost2010PropOp46
 70
     1
102
RTVSPost2010Prop47
 90
       50
102
RTVSPost2010PropOp47
 70
     1
102
RTVSPost2010Prop48
 90
       50
102
RTVSPost2010PropOp48
 70
     1
102
RTVSPost2010Prop49
280
     0
102
RTVSPost2010PropOp49
 70
     1
102
RTVSPost2010Prop50
 90
       50
102
RTVSPost2010PropOp50
 70
     1
102
RTVSPost2010Prop51ColorIndex
 90
      256
102
RTVSPost2010Prop51ColorRGB
 90
-16777216
102
RTVSPost2010PropOp51
 70
     0
102
RTVSPost2010Prop52
140
1.0
102
RTVSPost2010PropOp52
 70
     0
102
RTVSPost2010Prop53
 90
        2
102
RTVSPost2010PropOp53
 70
     1
102
RTVSPost2010Prop54
  1
strokes_ogs.tif
102
RTVSPost2010PropOp54
 70
     1
102
RTVSPost2010Prop55
280
     0
102
RTVSPost2010PropOp55
 70
     1
102
RTVSPost2010Prop56
140
1.0
102
RTVSPost2010PropOp56
 70
     1
102
RTVSPost2010Prop57
140
1.0
102
RTVSPost2010PropOp57
 70
     1
  0
XRECORD
  5
1B2
102
{ACAD_REACTORS
330
1B1
102
}
330
1B1
100
AcDbXrecord
280
     1
102
RTVSPost2010Prop28
280
     0
102
RTVSPost2010PropOp28
 70
     1
102
RTVSPost2010Prop29
280
     1
102
RTVSPost2010PropOp29
 70
     1
102
RTVSPost2010Prop30
280
     1
102
RTVSPost2010PropOp30
 70
     1
102
RTVSPost2010Prop31
280
     0
102
RTVSPost2010PropOp31
 70
     1
102
RTVSPost2010Prop32
280
     0
102
RTVSPost2010PropOp32
 70
     1
102
RTVSPost2010Prop33
280
     0
102
RTVSPost2010PropOp33
 70
     1
102
RTVSPost2010Prop34
280
     0
102
RTVSPost2010PropOp34
 70
     1
102
RTVSPost2010Prop35
280
     0
102
RTVSPost2010PropOp35
 70
     1
102
RTVSPost2010Prop36
280
     0
102
RTVSPost2010PropOp36
 70
     1
102
RTVSPost2010Prop37
 90
       50
102
RTVSPost2010PropOp37
 70
     1
102
RTVSPost2010Prop38
140
0.0
102
RTVSPost2010PropOp38
 70
     1
102
RTVSPost2010Prop39
140
1.0
102
RTVSPost2010PropOp39
 70
     1
102
RTVSPost2010Prop40
 90
        0
102
RTVSPost2010PropOp40
 70
     1
102
RTVSPost2010Prop41ColorIndex
 90
       18
102
RTVSPost2010Prop41ColorRGB
 90
        0
102
RTVSPost2010PropOp41
 70
     1
102
RTVSPost2010Prop42
 90
       50
102
RTVSPost2010PropOp42
 70
     1
102
RTVSPost2010Prop43
 90
        3
102
RTVSPost2010PropOp43
 70
     1
102
RTVSPost2010Prop44ColorIndex
 90
        5
102
RTVSPost2010Prop44ColorRGB
 90
      255
102
RTVSPost2010PropOp44
 70
     1
102
RTVSPost2010Prop45
280
     0
102
RTVSPost2010PropOp45
 70
     1
102
RTVSPost2010Prop46
 90
       50
102
RTVSPost2010PropOp46
 70
     1
102
RTVSPost2010Prop47
 90
       50
102
RTVSPost2010PropOp47
 70
     1
102
RTVSPost2010Prop48
 90
       50
102
RTVSPost2010PropOp48
 70
     1
102
RTVSPost2010Prop49
280
     0
102
RTVSPost2010PropOp49
 70
     1
102
RTVSPost2010Prop50
 90
       50
102
RTVSPost2010PropOp50
 70
     1
102
RTVSPost2010Prop51ColorIndex
 90
      256
102
RTVSPost2010Prop51ColorRGB
 90
-16777216
102
RTVSPost2010PropOp51
 70
     0
102
RTVSPost2010Prop52
140
1.0
102
RTVSPost2010PropOp52
 70
     0
102
RTVSPost2010Prop53
 90
        2
102
RTVSPost2010PropOp53
 70
     1
102
RTVSPost2010Prop54
  1
strokes_ogs.tif
102
RTVSPost2010PropOp54
 70
     1
102
RTVSPost2010Prop55
280
     0
102
RTVSPost2010PropOp55
 70
     1
102
RTVSPost2010Prop56
140
1.0
102
RTVSPost2010PropOp56
 70
     1
102
RTVSPost2010Prop57
140
1.0
102
RTVSPost2010PropOp57
 70
     1
  0
XRECORD
  5
1B4
102
{ACAD_REACTORS
330
1B3
102
}
330
1B3
100
AcDbXrecord
280
     1
102
RTVSPost2010Prop28
280
     0
102
RTVSPost2010PropOp28
 70
     1
102
RTVSPost2010Prop29
280
     1
102
RTVSPost2010PropOp29
 70
     1
102
RTVSPost2010Prop30
280
     1
102
RTVSPost2010PropOp30
 70
     1
102
RTVSPost2010Prop31
280
     0
102
RTVSPost2010PropOp31
 70
     1
102
RTVSPost2010Prop32
280
     0
102
RTVSPost2010PropOp32
 70
     1
102
RTVSPost2010Prop33
280
     0
102
RTVSPost2010PropOp33
 70
     1
102
RTVSPost2010Prop34
280
     0
102
RTVSPost2010PropOp34
 70
     1
102
RTVSPost2010Prop35
280
     0
102
RTVSPost2010PropOp35
 70
     1
102
RTVSPost2010Prop36
280
     0
102
RTVSPost2010PropOp36
 70
     1
102
RTVSPost2010Prop37
 90
       50
102
RTVSPost2010PropOp37
 70
     1
102
RTVSPost2010Prop38
140
0.0
102
RTVSPost2010PropOp38
 70
     1
102
RTVSPost2010Prop39
140
1.0
102
RTVSPost2010PropOp39
 70
     1
102
RTVSPost2010Prop40
 90
        0
102
RTVSPost2010PropOp40
 70
     1
102
RTVSPost2010Prop41ColorIndex
 90
       18
102
RTVSPost2010Prop41ColorRGB
 90
        0
102
RTVSPost2010PropOp41
 70
     1
102
RTVSPost2010Prop42
 90
       50
102
RTVSPost2010PropOp42
 70
     1
102
RTVSPost2010Prop43
 90
        3
102
RTVSPost2010PropOp43
 70
     1
102
RTVSPost2010Prop44ColorIndex
 90
        5
102
RTVSPost2010Prop44ColorRGB
 90
      255
102
RTVSPost2010PropOp44
 70
     1
102
RTVSPost2010Prop45
280
     0
102
RTVSPost2010PropOp45
 70
     1
102
RTVSPost2010Prop46
 90
       50
102
RTVSPost2010PropOp46
 70
     1
102
RTVSPost2010Prop47
 90
       50
102
RTVSPost2010PropOp47
 70
     1
102
RTVSPost2010Prop48
 90
       50
102
RTVSPost2010PropOp48
 70
     1
102
RTVSPost2010Prop49
280
     0
102
RTVSPost2010PropOp49
 70
     1
102
RTVSPost2010Prop50
 90
       50
102
RTVSPost2010PropOp50
 70
     1
102
RTVSPost2010Prop51ColorIndex
 90
      256
102
RTVSPost2010Prop51ColorRGB
 90
-16777216
102
RTVSPost2010PropOp51
 70
     0
102
RTVSPost2010Prop52
140
1.0
102
RTVSPost2010PropOp52
 70
     0
102
RTVSPost2010Prop53
 90
        2
102
RTVSPost2010PropOp53
 70
     1
102
RTVSPost2010Prop54
  1
strokes_ogs.tif
102
RTVSPost2010PropOp54
 70
     1
102
RTVSPost2010Prop55
280
     0
102
RTVSPost2010PropOp55
 70
     1
102
RTVSPost2010Prop56
140
1.0
102
RTVSPost2010PropOp56
 70
     1
102
RTVSPost2010Prop57
140
1.0
102
RTVSPost2010PropOp57
 70
     1
  0
XRECORD
  5
1BC
102
{ACAD_REACTORS
330
1BB
102
}
330
1BB
100
AcDbXrecord
280
     1
102
RTVSPost2010Prop28
280
     0
102
RTVSPost2010PropOp28
 70
     1
102
RTVSPost2010Prop29
280
     1
102
RTVSPost2010PropOp29
 70
     1
102
RTVSPost2010Prop30
280
     1
102
RTVSPost2010PropOp30
 70
     1
102
RTVSPost2010Prop31
280
     0
102
RTVSPost2010PropOp31
 70
     1
102
RTVSPost2010Prop32
280
     0
102
RTVSPost2010PropOp32
 70
     1
102
RTVSPost2010Prop33
280
     0
102
RTVSPost2010PropOp33
 70
     1
102
RTVSPost2010Prop34
280
     0
102
RTVSPost2010PropOp34
 70
     1
102
RTVSPost2010Prop35
280
     0
102
RTVSPost2010PropOp35
 70
     1
102
RTVSPost2010Prop36
280
     0
102
RTVSPost2010PropOp36
 70
     1
102
RTVSPost2010Prop37
 90
       50
102
RTVSPost2010PropOp37
 70
     1
102
RTVSPost2010Prop38
140
0.0
102
RTVSPost2010PropOp38
 70
     1
102
RTVSPost2010Prop39
140
1.0
102
RTVSPost2010PropOp39
 70
     1
102
RTVSPost2010Prop40
 90
        0
102
RTVSPost2010PropOp40
 70
     1
102
RTVSPost2010Prop41ColorIndex
 90
       18
102
RTVSPost2010Prop41ColorRGB
 90
        0
102
RTVSPost2010PropOp41
 70
     1
102
RTVSPost2010Prop42
 90
       50
102
RTVSPost2010PropOp42
 70
     1
102
RTVSPost2010Prop43
 90
        3
102
RTVSPost2010PropOp43
 70
     1
102
RTVSPost2010Prop44ColorIndex
 90
        5
102
RTVSPost2010Prop44ColorRGB
 90
      255
102
RTVSPost2010PropOp44
 70
     1
102
RTVSPost2010Prop45
280
     0
102
RTVSPost2010PropOp45
 70
     1
102
RTVSPost2010Prop46
 90
       50
102
RTVSPost2010PropOp46
 70
     1
102
RTVSPost2010Prop47
 90
       50
102
RTVSPost2010PropOp47
 70
     1
102
RTVSPost2010Prop48
 90
       50
102
RTVSPost2010PropOp48
 70
     1
102
RTVSPost2010Prop49
280
     0
102
RTVSPost2010PropOp49
 70
     1
102
RTVSPost2010Prop50
 90
       50
102
RTVSPost2010PropOp50
 70
     1
102
RTVSPost2010Prop51ColorIndex
 90
      256
102
RTVSPost2010Prop51ColorRGB
 90
-16777216
102
RTVSPost2010PropOp51
 70
     0
102
RTVSPost2010Prop52
140
1.0
102
RTVSPost2010PropOp52
 70
     0
102
RTVSPost2010Prop53
 90
        2
102
RTVSPost2010PropOp53
 70
     1
102
RTVSPost2010Prop54
  1
strokes_ogs.tif
102
RTVSPost2010PropOp54
 70
     1
102
RTVSPost2010Prop55
280
     0
102
RTVSPost2010PropOp55
 70
     1
102
RTVSPost2010Prop56
140
1.0
102
RTVSPost2010PropOp56
 70
     1
102
RTVSPost2010Prop57
140
1.0
102
RTVSPost2010PropOp57
 70
     1
  0
XRECORD
  5
1D8
102
{ACAD_REACTORS
330
1D7
102
}
330
1D7
100
AcDbXrecord
280
     1
102
RTVSPost2010Prop28
280
     0
102
RTVSPost2010PropOp28
 70
     0
102
RTVSPost2010Prop29
280
     1
102
RTVSPost2010PropOp29
 70
     0
102
RTVSPost2010Prop30
280
     1
102
RTVSPost2010PropOp30
 70
     0
102
RTVSPost2010Prop31
280
     0
102
RTVSPost2010PropOp31
 70
     0
102
RTVSPost2010Prop32
280
     0
102
RTVSPost2010PropOp32
 70
     0
102
RTVSPost2010Prop33
280
     0
102
RTVSPost2010PropOp33
 70
     0
102
RTVSPost2010Prop34
280
     0
102
RTVSPost2010PropOp34
 70
     0
102
RTVSPost2010Prop35
280
     0
102
RTVSPost2010PropOp35
 70
     0
102
RTVSPost2010Prop36
280
     0
102
RTVSPost2010PropOp36
 70
     0
102
RTVSPost2010Prop37
 90
       50
102
RTVSPost2010PropOp37
 70
     0
102
RTVSPost2010Prop38
140
0.0
102
RTVSPost2010PropOp38
 70
     0
102
RTVSPost2010Prop39
140
1.0
102
RTVSPost2010PropOp39
 70
     0
102
RTVSPost2010Prop40
 90
        0
102
RTVSPost2010PropOp40
 70
     0
102
RTVSPost2010Prop41ColorIndex
 90
       18
102
RTVSPost2010Prop41ColorRGB
 90
        0
102
RTVSPost2010PropOp41
 70
     0
102
RTVSPost2010Prop42
 90
       50
102
RTVSPost2010PropOp42
 70
     0
102
RTVSPost2010Prop43
 90
        3
102
RTVSPost2010PropOp43
 70
     0
102
RTVSPost2010Prop44ColorIndex
 90
        5
102
RTVSPost2010Prop44ColorRGB
 90
      255
102
RTVSPost2010PropOp44
 70
     0
102
RTVSPost2010Prop45
280
     0
102
RTVSPost2010PropOp45
 70
     0
102
RTVSPost2010Prop46
 90
       50
102
RTVSPost2010PropOp46
 70
     0
102
RTVSPost2010Prop47
 90
       50
102
RTVSPost2010PropOp47
 70
     0
102
RTVSPost2010Prop48
 90
       50
102
RTVSPost2010PropOp48
 70
     0
102
RTVSPost2010Prop49
280
     0
102
RTVSPost2010PropOp49
 70
     0
102
RTVSPost2010Prop50
 90
       50
102
RTVSPost2010PropOp50
 70
     0
102
RTVSPost2010Prop51ColorIndex
 90
      256
102
RTVSPost2010Prop51ColorRGB
 90
-16777216
102
RTVSPost2010PropOp51
 70
     0
102
RTVSPost2010Prop52
140
1.0
102
RTVSPost2010PropOp52
 70
     0
102
RTVSPost2010Prop53
 90
        2
102
RTVSPost2010PropOp53
 70
     0
102
RTVSPost2010Prop54
  1
strokes_ogs.tif
102
RTVSPost2010PropOp54
 70
     0
102
RTVSPost2010Prop55
280
     0
102
RTVSPost2010PropOp55
 70
     0
102
RTVSPost2010Prop56
140
1.0
102
RTVSPost2010PropOp56
 70
     0
102
RTVSPost2010Prop57
140
1.0
102
RTVSPost2010PropOp57
 70
     0
  0
XRECORD
  5
1C8
102
{ACAD_REACTORS
330
1C7
102
}
330
1C7
100
AcDbXrecord
280
     1
102
RTVSPost2010Prop28
280
     0
102
RTVSPost2010PropOp28
 70
     1
102
RTVSPost2010Prop29
280
     1
102
RTVSPost2010PropOp29
 70
     1
102
RTVSPost2010Prop30
280
     1
102
RTVSPost2010PropOp30
 70
     1
102
RTVSPost2010Prop31
280
     0
102
RTVSPost2010PropOp31
 70
     1
102
RTVSPost2010Prop32
280
     0
102
RTVSPost2010PropOp32
 70
     1
102
RTVSPost2010Prop33
280
     0
102
RTVSPost2010PropOp33
 70
     1
102
RTVSPost2010Prop34
280
     0
102
RTVSPost2010PropOp34
 70
     1
102
RTVSPost2010Prop35
280
     0
102
RTVSPost2010PropOp35
 70
     1
102
RTVSPost2010Prop36
280
     0
102
RTVSPost2010PropOp36
 70
     1
102
RTVSPost2010Prop37
 90
       50
102
RTVSPost2010PropOp37
 70
     1
102
RTVSPost2010Prop38
140
0.0
102
RTVSPost2010PropOp38
 70
     1
102
RTVSPost2010Prop39
140
1.0
102
RTVSPost2010PropOp39
 70
     1
102
RTVSPost2010Prop40
 90
        0
102
RTVSPost2010PropOp40
 70
     1
102
RTVSPost2010Prop41ColorIndex
 90
       18
102
RTVSPost2010Prop41ColorRGB
 90
        0
102
RTVSPost2010PropOp41
 70
     1
102
RTVSPost2010Prop42
 90
       50
102
RTVSPost2010PropOp42
 70
     1
102
RTVSPost2010Prop43
 90
        3
102
RTVSPost2010PropOp43
 70
     1
102
RTVSPost2010Prop44ColorIndex
 90
        5
102
RTVSPost2010Prop44ColorRGB
 90
      255
102
RTVSPost2010PropOp44
 70
     1
102
RTVSPost2010Prop45
280
     0
102
RTVSPost2010PropOp45
 70
     1
102
RTVSPost2010Prop46
 90
       50
102
RTVSPost2010PropOp46
 70
     1
102
RTVSPost2010Prop47
 90
       50
102
RTVSPost2010PropOp47
 70
     1
102
RTVSPost2010Prop48
 90
       50
102
RTVSPost2010PropOp48
 70
     1
102
RTVSPost2010Prop49
280
     0
102
RTVSPost2010PropOp49
 70
     1
102
RTVSPost2010Prop50
 90
       50
102
RTVSPost2010PropOp50
 70
     1
102
RTVSPost2010Prop51ColorIndex
 90
      256
102
RTVSPost2010Prop51ColorRGB
 90
-16777216
102
RTVSPost2010PropOp51
 70
     0
102
RTVSPost2010Prop52
140
1.0
102
RTVSPost2010PropOp52
 70
     0
102
RTVSPost2010Prop53
 90
        2
102
RTVSPost2010PropOp53
 70
     1
102
RTVSPost2010Prop54
  1
strokes_ogs.tif
102
RTVSPost2010PropOp54
 70
     1
102
RTVSPost2010Prop55
280
     0
102
RTVSPost2010PropOp55
 70
     1
102
RTVSPost2010Prop56
140
1.0
102
RTVSPost2010PropOp56
 70
     1
102
RTVSPost2010Prop57
140
1.0
102
RTVSPost2010PropOp57
 70
     1
  0
XRECORD
  5
1DA
102
{ACAD_REACTORS
330
1D9
102
}
330
1D9
100
AcDbXrecord
280
     1
102
RTVSPost2010Prop28
280
     0
102
RTVSPost2010PropOp28
 70
     0
102
RTVSPost2010Prop29
280
     1
102
RTVSPost2010PropOp29
 70
     0
102
RTVSPost2010Prop30
280
     1
102
RTVSPost2010PropOp30
 70
     0
102
RTVSPost2010Prop31
280
     0
102
RTVSPost2010PropOp31
 70
     0
102
RTVSPost2010Prop32
280
     0
102
RTVSPost2010PropOp32
 70
     0
102
RTVSPost2010Prop33
280
     0
102
RTVSPost2010PropOp33
 70
     0
102
RTVSPost2010Prop34
280
     0
102
RTVSPost2010PropOp34
 70
     0
102
RTVSPost2010Prop35
280
     0
102
RTVSPost2010PropOp35
 70
     0
102
RTVSPost2010Prop36
280
     0
102
RTVSPost2010PropOp36
 70
     0
102
RTVSPost2010Prop37
 90
       50
102
RTVSPost2010PropOp37
 70
     0
102
RTVSPost2010Prop38
140
0.0
102
RTVSPost2010PropOp38
 70
     0
102
RTVSPost2010Prop39
140
1.0
102
RTVSPost2010PropOp39
 70
     0
102
RTVSPost2010Prop40
 90
        0
102
RTVSPost2010PropOp40
 70
     0
102
RTVSPost2010Prop41ColorIndex
 90
       18
102
RTVSPost2010Prop41ColorRGB
 90
        0
102
RTVSPost2010PropOp41
 70
     0
102
RTVSPost2010Prop42
 90
       50
102
RTVSPost2010PropOp42
 70
     0
102
RTVSPost2010Prop43
 90
        3
102
RTVSPost2010PropOp43
 70
     0
102
RTVSPost2010Prop44ColorIndex
 90
        5
102
RTVSPost2010Prop44ColorRGB
 90
      255
102
RTVSPost2010PropOp44
 70
     0
102
RTVSPost2010Prop45
280
     0
102
RTVSPost2010PropOp45
 70
     0
102
RTVSPost2010Prop46
 90
       50
102
RTVSPost2010PropOp46
 70
     0
102
RTVSPost2010Prop47
 90
       50
102
RTVSPost2010PropOp47
 70
     0
102
RTVSPost2010Prop48
 90
       50
102
RTVSPost2010PropOp48
 70
     0
102
RTVSPost2010Prop49
280
     0
102
RTVSPost2010PropOp49
 70
     0
102
RTVSPost2010Prop50
 90
       50
102
RTVSPost2010PropOp50
 70
     0
102
RTVSPost2010Prop51ColorIndex
 90
      256
102
RTVSPost2010Prop51ColorRGB
 90
-16777216
102
RTVSPost2010PropOp51
 70
     0
102
RTVSPost2010Prop52
140
1.0
102
RTVSPost2010PropOp52
 70
     0
102
RTVSPost2010Prop53
 90
        2
102
RTVSPost2010PropOp53
 70
     0
102
RTVSPost2010Prop54
  1
strokes_ogs.tif
102
RTVSPost2010PropOp54
 70
     0
102
RTVSPost2010Prop55
280
     0
102
RTVSPost2010PropOp55
 70
     0
102
RTVSPost2010Prop56
140
1.0
102
RTVSPost2010PropOp56
 70
     0
102
RTVSPost2010Prop57
140
1.0
102
RTVSPost2010PropOp57
 70
     0
  0
XRECORD
  5
1C0
102
{ACAD_REACTORS
330
1BF
102
}
330
1BF
100
AcDbXrecord
280
     1
102
RTVSPost2010Prop28
280
     0
102
RTVSPost2010PropOp28
 70
     1
102
RTVSPost2010Prop29
280
     1
102
RTVSPost2010PropOp29
 70
     1
102
RTVSPost2010Prop30
280
     1
102
RTVSPost2010PropOp30
 70
     1
102
RTVSPost2010Prop31
280
     0
102
RTVSPost2010PropOp31
 70
     1
102
RTVSPost2010Prop32
280
     0
102
RTVSPost2010PropOp32
 70
     1
102
RTVSPost2010Prop33
280
     0
102
RTVSPost2010PropOp33
 70
     1
102
RTVSPost2010Prop34
280
     0
102
RTVSPost2010PropOp34
 70
     1
102
RTVSPost2010Prop35
280
     0
102
RTVSPost2010PropOp35
 70
     1
102
RTVSPost2010Prop36
280
     0
102
RTVSPost2010PropOp36
 70
     1
102
RTVSPost2010Prop37
 90
       50
102
RTVSPost2010PropOp37
 70
     1
102
RTVSPost2010Prop38
140
0.0
102
RTVSPost2010PropOp38
 70
     1
102
RTVSPost2010Prop39
140
1.0
102
RTVSPost2010PropOp39
 70
     1
102
RTVSPost2010Prop40
 90
        0
102
RTVSPost2010PropOp40
 70
     1
102
RTVSPost2010Prop41ColorIndex
 90
       18
102
RTVSPost2010Prop41ColorRGB
 90
        0
102
RTVSPost2010PropOp41
 70
     1
102
RTVSPost2010Prop42
 90
       50
102
RTVSPost2010PropOp42
 70
     1
102
RTVSPost2010Prop43
 90
        3
102
RTVSPost2010PropOp43
 70
     1
102
RTVSPost2010Prop44ColorIndex
 90
        5
102
RTVSPost2010Prop44ColorRGB
 90
      255
102
RTVSPost2010PropOp44
 70
     1
102
RTVSPost2010Prop45
280
     0
102
RTVSPost2010PropOp45
 70
     1
102
RTVSPost2010Prop46
 90
       50
102
RTVSPost2010PropOp46
 70
     1
102
RTVSPost2010Prop47
 90
       50
102
RTVSPost2010PropOp47
 70
     1
102
RTVSPost2010Prop48
 90
       50
102
RTVSPost2010PropOp48
 70
     1
102
RTVSPost2010Prop49
280
     0
102
RTVSPost2010PropOp49
 70
     1
102
RTVSPost2010Prop50
 90
       50
102
RTVSPost2010PropOp50
 70
     1
102
RTVSPost2010Prop51ColorIndex
 90
      256
102
RTVSPost2010Prop51ColorRGB
 90
-16777216
102
RTVSPost2010PropOp51
 70
     0
102
RTVSPost2010Prop52
140
1.0
102
RTVSPost2010PropOp52
 70
     0
102
RTVSPost2010Prop53
 90
        2
102
RTVSPost2010PropOp53
 70
     1
102
RTVSPost2010Prop54
  1
strokes_ogs.tif
102
RTVSPost2010PropOp54
 70
     1
102
RTVSPost2010Prop55
280
     0
102
RTVSPost2010PropOp55
 70
     1
102
RTVSPost2010Prop56
140
1.0
102
RTVSPost2010PropOp56
 70
     1
102
RTVSPost2010Prop57
140
1.0
102
RTVSPost2010PropOp57
 70
     1
  0
XRECORD
  5
1D6
102
{ACAD_REACTORS
330
1D5
102
}
330
1D5
100
AcDbXrecord
280
     1
102
RTVSPost2010Prop28
280
     0
102
RTVSPost2010PropOp28
 70
     1
102
RTVSPost2010Prop29
280
     1
102
RTVSPost2010PropOp29
 70
     1
102
RTVSPost2010Prop30
280
     1
102
RTVSPost2010PropOp30
 70
     1
102
RTVSPost2010Prop31
280
     0
102
RTVSPost2010PropOp31
 70
     1
102
RTVSPost2010Prop32
280
     0
102
RTVSPost2010PropOp32
 70
     1
102
RTVSPost2010Prop33
280
     0
102
RTVSPost2010PropOp33
 70
     1
102
RTVSPost2010Prop34
280
     0
102
RTVSPost2010PropOp34
 70
     1
102
RTVSPost2010Prop35
280
     0
102
RTVSPost2010PropOp35
 70
     1
102
RTVSPost2010Prop36
280
     0
102
RTVSPost2010PropOp36
 70
     1
102
RTVSPost2010Prop37
 90
       50
102
RTVSPost2010PropOp37
 70
     1
102
RTVSPost2010Prop38
140
0.0
102
RTVSPost2010PropOp38
 70
     1
102
RTVSPost2010Prop39
140
1.0
102
RTVSPost2010PropOp39
 70
     1
102
RTVSPost2010Prop40
 90
        0
102
RTVSPost2010PropOp40
 70
     1
102
RTVSPost2010Prop41ColorIndex
 90
       18
102
RTVSPost2010Prop41ColorRGB
 90
        0
102
RTVSPost2010PropOp41
 70
     1
102
RTVSPost2010Prop42
 90
       50
102
RTVSPost2010PropOp42
 70
     1
102
RTVSPost2010Prop43
 90
        3
102
RTVSPost2010PropOp43
 70
     1
102
RTVSPost2010Prop44ColorIndex
 90
        5
102
RTVSPost2010Prop44ColorRGB
 90
      255
102
RTVSPost2010PropOp44
 70
     1
102
RTVSPost2010Prop45
280
     0
102
RTVSPost2010PropOp45
 70
     1
102
RTVSPost2010Prop46
 90
       50
102
RTVSPost2010PropOp46
 70
     1
102
RTVSPost2010Prop47
 90
       50
102
RTVSPost2010PropOp47
 70
     1
102
RTVSPost2010Prop48
 90
       50
102
RTVSPost2010PropOp48
 70
     1
102
RTVSPost2010Prop49
280
     0
102
RTVSPost2010PropOp49
 70
     1
102
RTVSPost2010Prop50
 90
       50
102
RTVSPost2010PropOp50
 70
     1
102
RTVSPost2010Prop51ColorIndex
 90
      256
102
RTVSPost2010Prop51ColorRGB
 90
-16777216
102
RTVSPost2010PropOp51
 70
     0
102
RTVSPost2010Prop52
140
1.0
102
RTVSPost2010PropOp52
 70
     0
102
RTVSPost2010Prop53
 90
        2
102
RTVSPost2010PropOp53
 70
     1
102
RTVSPost2010Prop54
  1
strokes_ogs.tif
102
RTVSPost2010PropOp54
 70
     1
102
RTVSPost2010Prop55
280
     0
102
RTVSPost2010PropOp55
 70
     1
102
RTVSPost2010Prop56
140
1.0
102
RTVSPost2010PropOp56
 70
     1
102
RTVSPost2010Prop57
140
1.0
102
RTVSPost2010PropOp57
 70
     1
  0
XRECORD
  5
1D4
102
{ACAD_REACTORS
330
1D3
102
}
330
1D3
100
AcDbXrecord
280
     1
102
RTVSPost2010Prop28
280
     0
102
RTVSPost2010PropOp28
 70
     1
102
RTVSPost2010Prop29
280
     1
102
RTVSPost2010PropOp29
 70
     1
102
RTVSPost2010Prop30
280
     1
102
RTVSPost2010PropOp30
 70
     1
102
RTVSPost2010Prop31
280
     0
102
RTVSPost2010PropOp31
 70
     1
102
RTVSPost2010Prop32
280
     0
102
RTVSPost2010PropOp32
 70
     1
102
RTVSPost2010Prop33
280
     0
102
RTVSPost2010PropOp33
 70
     1
102
RTVSPost2010Prop34
280
     0
102
RTVSPost2010PropOp34
 70
     1
102
RTVSPost2010Prop35
280
     0
102
RTVSPost2010PropOp35
 70
     1
102
RTVSPost2010Prop36
280
     0
102
RTVSPost2010PropOp36
 70
     1
102
RTVSPost2010Prop37
 90
       50
102
RTVSPost2010PropOp37
 70
     1
102
RTVSPost2010Prop38
140
0.0
102
RTVSPost2010PropOp38
 70
     1
102
RTVSPost2010Prop39
140
1.0
102
RTVSPost2010PropOp39
 70
     1
102
RTVSPost2010Prop40
 90
        0
102
RTVSPost2010PropOp40
 70
     1
102
RTVSPost2010Prop41ColorIndex
 90
       18
102
RTVSPost2010Prop41ColorRGB
 90
        0
102
RTVSPost2010PropOp41
 70
     1
102
RTVSPost2010Prop42
 90
       50
102
RTVSPost2010PropOp42
 70
     1
102
RTVSPost2010Prop43
 90
        3
102
RTVSPost2010PropOp43
 70
     1
102
RTVSPost2010Prop44ColorIndex
 90
        5
102
RTVSPost2010Prop44ColorRGB
 90
      255
102
RTVSPost2010PropOp44
 70
     1
102
RTVSPost2010Prop45
280
     0
102
RTVSPost2010PropOp45
 70
     1
102
RTVSPost2010Prop46
 90
       50
102
RTVSPost2010PropOp46
 70
     1
102
RTVSPost2010Prop47
 90
       50
102
RTVSPost2010PropOp47
 70
     1
102
RTVSPost2010Prop48
 90
       50
102
RTVSPost2010PropOp48
 70
     1
102
RTVSPost2010Prop49
280
     0
102
RTVSPost2010PropOp49
 70
     1
102
RTVSPost2010Prop50
 90
       50
102
RTVSPost2010PropOp50
 70
     1
102
RTVSPost2010Prop51ColorIndex
 90
      256
102
RTVSPost2010Prop51ColorRGB
 90
-16777216
102
RTVSPost2010PropOp51
 70
     0
102
RTVSPost2010Prop52
140
1.0
102
RTVSPost2010PropOp52
 70
     0
102
RTVSPost2010Prop53
 90
        2
102
RTVSPost2010PropOp53
 70
     1
102
RTVSPost2010Prop54
  1
strokes_ogs.tif
102
RTVSPost2010PropOp54
 70
     1
102
RTVSPost2010Prop55
280
     0
102
RTVSPost2010PropOp55
 70
     1
102
RTVSPost2010Prop56
140
1.0
102
RTVSPost2010PropOp56
 70
     1
102
RTVSPost2010Prop57
140
1.0
102
RTVSPost2010PropOp57
 70
     1
  0
XRECORD
  5
1CE
102
{ACAD_REACTORS
330
1CD
102
}
330
1CD
100
AcDbXrecord
280
     1
102
RTVSPost2010Prop28
280
     0
102
RTVSPost2010PropOp28
 70
     1
102
RTVSPost2010Prop29
280
     1
102
RTVSPost2010PropOp29
 70
     1
102
RTVSPost2010Prop30
280
     1
102
RTVSPost2010PropOp30
 70
     1
102
RTVSPost2010Prop31
280
     0
102
RTVSPost2010PropOp31
 70
     1
102
RTVSPost2010Prop32
280
     0
102
RTVSPost2010PropOp32
 70
     1
102
RTVSPost2010Prop33
280
     0
102
RTVSPost2010PropOp33
 70
     1
102
RTVSPost2010Prop34
280
     0
102
RTVSPost2010PropOp34
 70
     1
102
RTVSPost2010Prop35
280
     0
102
RTVSPost2010PropOp35
 70
     1
102
RTVSPost2010Prop36
280
     0
102
RTVSPost2010PropOp36
 70
     1
102
RTVSPost2010Prop37
 90
       50
102
RTVSPost2010PropOp37
 70
     1
102
RTVSPost2010Prop38
140
0.0
102
RTVSPost2010PropOp38
 70
     1
102
RTVSPost2010Prop39
140
1.0
102
RTVSPost2010PropOp39
 70
     1
102
RTVSPost2010Prop40
 90
        0
102
RTVSPost2010PropOp40
 70
     1
102
RTVSPost2010Prop41ColorIndex
 90
       18
102
RTVSPost2010Prop41ColorRGB
 90
        0
102
RTVSPost2010PropOp41
 70
     1
102
RTVSPost2010Prop42
 90
       50
102
RTVSPost2010PropOp42
 70
     1
102
RTVSPost2010Prop43
 90
        3
102
RTVSPost2010PropOp43
 70
     1
102
RTVSPost2010Prop44ColorIndex
 90
        5
102
RTVSPost2010Prop44ColorRGB
 90
      255
102
RTVSPost2010PropOp44
 70
     1
102
RTVSPost2010Prop45
280
     0
102
RTVSPost2010PropOp45
 70
     1
102
RTVSPost2010Prop46
 90
       50
102
RTVSPost2010PropOp46
 70
     1
102
RTVSPost2010Prop47
 90
       50
102
RTVSPost2010PropOp47
 70
     1
102
RTVSPost2010Prop48
 90
       50
102
RTVSPost2010PropOp48
 70
     1
102
RTVSPost2010Prop49
280
     0
102
RTVSPost2010PropOp49
 70
     1
102
RTVSPost2010Prop50
 90
       50
102
RTVSPost2010PropOp50
 70
     1
102
RTVSPost2010Prop51ColorIndex
 90
      256
102
RTVSPost2010Prop51ColorRGB
 90
-16777216
102
RTVSPost2010PropOp51
 70
     0
102
RTVSPost2010Prop52
140
1.0
102
RTVSPost2010PropOp52
 70
     0
102
RTVSPost2010Prop53
 90
        2
102
RTVSPost2010PropOp53
 70
     1
102
RTVSPost2010Prop54
  1
strokes_ogs.tif
102
RTVSPost2010PropOp54
 70
     1
102
RTVSPost2010Prop55
280
     0
102
RTVSPost2010PropOp55
 70
     1
102
RTVSPost2010Prop56
140
1.0
102
RTVSPost2010PropOp56
 70
     1
102
RTVSPost2010Prop57
140
1.0
102
RTVSPost2010PropOp57
 70
     1
  0
XRECORD
  5
1D0
102
{ACAD_REACTORS
330
1CF
102
}
330
1CF
100
AcDbXrecord
280
     1
102
RTVSPost2010Prop28
280
     0
102
RTVSPost2010PropOp28
 70
     1
102
RTVSPost2010Prop29
280
     1
102
RTVSPost2010PropOp29
 70
     1
102
RTVSPost2010Prop30
280
     1
102
RTVSPost2010PropOp30
 70
     1
102
RTVSPost2010Prop31
280
     0
102
RTVSPost2010PropOp31
 70
     1
102
RTVSPost2010Prop32
280
     0
102
RTVSPost2010PropOp32
 70
     1
102
RTVSPost2010Prop33
280
     0
102
RTVSPost2010PropOp33
 70
     1
102
RTVSPost2010Prop34
280
     0
102
RTVSPost2010PropOp34
 70
     1
102
RTVSPost2010Prop35
280
     0
102
RTVSPost2010PropOp35
 70
     1
102
RTVSPost2010Prop36
280
     0
102
RTVSPost2010PropOp36
 70
     1
102
RTVSPost2010Prop37
 90
       50
102
RTVSPost2010PropOp37
 70
     1
102
RTVSPost2010Prop38
140
0.0
102
RTVSPost2010PropOp38
 70
     1
102
RTVSPost2010Prop39
140
1.0
102
RTVSPost2010PropOp39
 70
     1
102
RTVSPost2010Prop40
 90
        0
102
RTVSPost2010PropOp40
 70
     1
102
RTVSPost2010Prop41ColorIndex
 90
       18
102
RTVSPost2010Prop41ColorRGB
 90
        0
102
RTVSPost2010PropOp41
 70
     1
102
RTVSPost2010Prop42
 90
       50
102
RTVSPost2010PropOp42
 70
     1
102
RTVSPost2010Prop43
 90
        3
102
RTVSPost2010PropOp43
 70
     1
102
RTVSPost2010Prop44ColorIndex
 90
        5
102
RTVSPost2010Prop44ColorRGB
 90
      255
102
RTVSPost2010PropOp44
 70
     1
102
RTVSPost2010Prop45
280
     0
102
RTVSPost2010PropOp45
 70
     1
102
RTVSPost2010Prop46
 90
       50
102
RTVSPost2010PropOp46
 70
     1
102
RTVSPost2010Prop47
 90
       50
102
RTVSPost2010PropOp47
 70
     1
102
RTVSPost2010Prop48
 90
       50
102
RTVSPost2010PropOp48
 70
     1
102
RTVSPost2010Prop49
280
     0
102
RTVSPost2010PropOp49
 70
     1
102
RTVSPost2010Prop50
 90
       50
102
RTVSPost2010PropOp50
 70
     1
102
RTVSPost2010Prop51ColorIndex
 90
      256
102
RTVSPost2010Prop51ColorRGB
 90
-16777216
102
RTVSPost2010PropOp51
 70
     0
102
RTVSPost2010Prop52
140
1.0
102
RTVSPost2010PropOp52
 70
     0
102
RTVSPost2010Prop53
 90
        2
102
RTVSPost2010PropOp53
 70
     1
102
RTVSPost2010Prop54
  1
strokes_ogs.tif
102
RTVSPost2010PropOp54
 70
     1
102
RTVSPost2010Prop55
280
     0
102
RTVSPost2010PropOp55
 70
     1
102
RTVSPost2010Prop56
140
1.0
102
RTVSPost2010PropOp56
 70
     1
102
RTVSPost2010Prop57
140
1.0
102
RTVSPost2010PropOp57
 70
     1
  0
XRECORD
  5
1C6
102
{ACAD_REACTORS
330
1C5
102
}
330
1C5
100
AcDbXrecord
280
     1
102
RTVSPost2010Prop28
280
     0
102
RTVSPost2010PropOp28
 70
     1
102
RTVSPost2010Prop29
280
     1
102
RTVSPost2010PropOp29
 70
     1
102
RTVSPost2010Prop30
280
     1
102
RTVSPost2010PropOp30
 70
     1
102
RTVSPost2010Prop31
280
     0
102
RTVSPost2010PropOp31
 70
     1
102
RTVSPost2010Prop32
280
     0
102
RTVSPost2010PropOp32
 70
     1
102
RTVSPost2010Prop33
280
     0
102
RTVSPost2010PropOp33
 70
     1
102
RTVSPost2010Prop34
280
     0
102
RTVSPost2010PropOp34
 70
     1
102
RTVSPost2010Prop35
280
     0
102
RTVSPost2010PropOp35
 70
     1
102
RTVSPost2010Prop36
280
     0
102
RTVSPost2010PropOp36
 70
     1
102
RTVSPost2010Prop37
 90
       50
102
RTVSPost2010PropOp37
 70
     1
102
RTVSPost2010Prop38
140
0.0
102
RTVSPost2010PropOp38
 70
     1
102
RTVSPost2010Prop39
140
1.0
102
RTVSPost2010PropOp39
 70
     1
102
RTVSPost2010Prop40
 90
        0
102
RTVSPost2010PropOp40
 70
     1
102
RTVSPost2010Prop41ColorIndex
 90
       18
102
RTVSPost2010Prop41ColorRGB
 90
        0
102
RTVSPost2010PropOp41
 70
     1
102
RTVSPost2010Prop42
 90
       50
102
RTVSPost2010PropOp42
 70
     1
102
RTVSPost2010Prop43
 90
        3
102
RTVSPost2010PropOp43
 70
     1
102
RTVSPost2010Prop44ColorIndex
 90
        5
102
RTVSPost2010Prop44ColorRGB
 90
      255
102
RTVSPost2010PropOp44
 70
     1
102
RTVSPost2010Prop45
280
     0
102
RTVSPost2010PropOp45
 70
     1
102
RTVSPost2010Prop46
 90
       50
102
RTVSPost2010PropOp46
 70
     1
102
RTVSPost2010Prop47
 90
       50
102
RTVSPost2010PropOp47
 70
     1
102
RTVSPost2010Prop48
 90
       50
102
RTVSPost2010PropOp48
 70
     1
102
RTVSPost2010Prop49
280
     0
102
RTVSPost2010PropOp49
 70
     1
102
RTVSPost2010Prop50
 90
       50
102
RTVSPost2010PropOp50
 70
     1
102
RTVSPost2010Prop51ColorIndex
 90
      256
102
RTVSPost2010Prop51ColorRGB
 90
-16777216
102
RTVSPost2010PropOp51
 70
     0
102
RTVSPost2010Prop52
140
1.0
102
RTVSPost2010PropOp52
 70
     0
102
RTVSPost2010Prop53
 90
        2
102
RTVSPost2010PropOp53
 70
     1
102
RTVSPost2010Prop54
  1
strokes_ogs.tif
102
RTVSPost2010PropOp54
 70
     1
102
RTVSPost2010Prop55
280
     0
102
RTVSPost2010PropOp55
 70
     1
102
RTVSPost2010Prop56
140
1.0
102
RTVSPost2010PropOp56
 70
     1
102
RTVSPost2010Prop57
140
1.0
102
RTVSPost2010PropOp57
 70
     1
  0
XRECORD
  5
1BA
102
{ACAD_REACTORS
330
1B9
102
}
330
1B9
100
AcDbXrecord
280
     1
102
RTVSPost2010Prop28
280
     0
102
RTVSPost2010PropOp28
 70
     1
102
RTVSPost2010Prop29
280
     1
102
RTVSPost2010PropOp29
 70
     1
102
RTVSPost2010Prop30
280
     1
102
RTVSPost2010PropOp30
 70
     1
102
RTVSPost2010Prop31
280
     0
102
RTVSPost2010PropOp31
 70
     1
102
RTVSPost2010Prop32
280
     0
102
RTVSPost2010PropOp32
 70
     1
102
RTVSPost2010Prop33
280
     0
102
RTVSPost2010PropOp33
 70
     1
102
RTVSPost2010Prop34
280
     0
102
RTVSPost2010PropOp34
 70
     1
102
RTVSPost2010Prop35
280
     0
102
RTVSPost2010PropOp35
 70
     1
102
RTVSPost2010Prop36
280
     0
102
RTVSPost2010PropOp36
 70
     1
102
RTVSPost2010Prop37
 90
       50
102
RTVSPost2010PropOp37
 70
     1
102
RTVSPost2010Prop38
140
0.0
102
RTVSPost2010PropOp38
 70
     1
102
RTVSPost2010Prop39
140
1.0
102
RTVSPost2010PropOp39
 70
     1
102
RTVSPost2010Prop40
 90
        0
102
RTVSPost2010PropOp40
 70
     1
102
RTVSPost2010Prop41ColorIndex
 90
       18
102
RTVSPost2010Prop41ColorRGB
 90
        0
102
RTVSPost2010PropOp41
 70
     1
102
RTVSPost2010Prop42
 90
       50
102
RTVSPost2010PropOp42
 70
     1
102
RTVSPost2010Prop43
 90
        3
102
RTVSPost2010PropOp43
 70
     1
102
RTVSPost2010Prop44ColorIndex
 90
        5
102
RTVSPost2010Prop44ColorRGB
 90
      255
102
RTVSPost2010PropOp44
 70
     1
102
RTVSPost2010Prop45
280
     0
102
RTVSPost2010PropOp45
 70
     1
102
RTVSPost2010Prop46
 90
       50
102
RTVSPost2010PropOp46
 70
     1
102
RTVSPost2010Prop47
 90
       50
102
RTVSPost2010PropOp47
 70
     1
102
RTVSPost2010Prop48
 90
       50
102
RTVSPost2010PropOp48
 70
     1
102
RTVSPost2010Prop49
280
     0
102
RTVSPost2010PropOp49
 70
     1
102
RTVSPost2010Prop50
 90
       50
102
RTVSPost2010PropOp50
 70
     1
102
RTVSPost2010Prop51ColorIndex
 90
      256
102
RTVSPost2010Prop51ColorRGB
 90
-16777216
102
RTVSPost2010PropOp51
 70
     0
102
RTVSPost2010Prop52
140
1.0
102
RTVSPost2010PropOp52
 70
     0
102
RTVSPost2010Prop53
 90
        2
102
RTVSPost2010PropOp53
 70
     1
102
RTVSPost2010Prop54
  1
strokes_ogs.tif
102
RTVSPost2010PropOp54
 70
     1
102
RTVSPost2010Prop55
280
     0
102
RTVSPost2010PropOp55
 70
     1
102
RTVSPost2010Prop56
140
1.0
102
RTVSPost2010PropOp56
 70
     1
102
RTVSPost2010Prop57
140
1.0
102
RTVSPost2010PropOp57
 70
     1
  0
XRECORD
  5
1D2
102
{ACAD_REACTORS
330
1D1
102
}
330
1D1
100
AcDbXrecord
280
     1
102
RTVSPost2010Prop28
280
     0
102
RTVSPost2010PropOp28
 70
     1
102
RTVSPost2010Prop29
280
     1
102
RTVSPost2010PropOp29
 70
     1
102
RTVSPost2010Prop30
280
     1
102
RTVSPost2010PropOp30
 70
     1
102
RTVSPost2010Prop31
280
     0
102
RTVSPost2010PropOp31
 70
     1
102
RTVSPost2010Prop32
280
     0
102
RTVSPost2010PropOp32
 70
     1
102
RTVSPost2010Prop33
280
     0
102
RTVSPost2010PropOp33
 70
     1
102
RTVSPost2010Prop34
280
     0
102
RTVSPost2010PropOp34
 70
     1
102
RTVSPost2010Prop35
280
     0
102
RTVSPost2010PropOp35
 70
     1
102
RTVSPost2010Prop36
280
     0
102
RTVSPost2010PropOp36
 70
     1
102
RTVSPost2010Prop37
 90
       50
102
RTVSPost2010PropOp37
 70
     1
102
RTVSPost2010Prop38
140
0.0
102
RTVSPost2010PropOp38
 70
     1
102
RTVSPost2010Prop39
140
1.0
102
RTVSPost2010PropOp39
 70
     1
102
RTVSPost2010Prop40
 90
        0
102
RTVSPost2010PropOp40
 70
     1
102
RTVSPost2010Prop41ColorIndex
 90
       18
102
RTVSPost2010Prop41ColorRGB
 90
        0
102
RTVSPost2010PropOp41
 70
     1
102
RTVSPost2010Prop42
 90
       50
102
RTVSPost2010PropOp42
 70
     1
102
RTVSPost2010Prop43
 90
        3
102
RTVSPost2010PropOp43
 70
     1
102
RTVSPost2010Prop44ColorIndex
 90
        5
102
RTVSPost2010Prop44ColorRGB
 90
      255
102
RTVSPost2010PropOp44
 70
     1
102
RTVSPost2010Prop45
280
     0
102
RTVSPost2010PropOp45
 70
     1
102
RTVSPost2010Prop46
 90
       50
102
RTVSPost2010PropOp46
 70
     1
102
RTVSPost2010Prop47
 90
       50
102
RTVSPost2010PropOp47
 70
     1
102
RTVSPost2010Prop48
 90
       50
102
RTVSPost2010PropOp48
 70
     1
102
RTVSPost2010Prop49
280
     0
102
RTVSPost2010PropOp49
 70
     1
102
RTVSPost2010Prop50
 90
       50
102
RTVSPost2010PropOp50
 70
     1
102
RTVSPost2010Prop51ColorIndex
 90
      256
102
RTVSPost2010Prop51ColorRGB
 90
-16777216
102
RTVSPost2010PropOp51
 70
     0
102
RTVSPost2010Prop52
140
1.0
102
RTVSPost2010PropOp52
 70
     0
102
RTVSPost2010Prop53
 90
        2
102
RTVSPost2010PropOp53
 70
     1
102
RTVSPost2010Prop54
  1
strokes_ogs.tif
102
RTVSPost2010PropOp54
 70
     1
102
RTVSPost2010Prop55
280
     0
102
RTVSPost2010PropOp55
 70
     1
102
RTVSPost2010Prop56
140
1.0
102
RTVSPost2010PropOp56
 70
     1
102
RTVSPost2010Prop57
140
1.0
102
RTVSPost2010PropOp57
 70
     1
  0
ENDSEC
  0
EOF
