ISO-10303-21;
HEADER;
/* Generated by software containing ST-Developer
 * from STEP Tools, Inc. (www.steptools.com) 
 */
/* OPTION: using custom renumber hook */

FILE_DESCRIPTION(
/* description */ ('STEP AP214'),
/* implementation_level */ '2;1');

FILE_NAME(
/* name */ 'AMF80168',
/* time_stamp */ '2022-11-11T10:43:40+01:00',
/* author */ ('License CC BY-ND 4.0'),
/* organization */ ('CADENAS'),
/* preprocessor_version */ 'ST-DEVELOPER v18.102',
/* originating_system */ 'PARTsolutions',
/* authorisation */ '  ');

FILE_SCHEMA (('AUTOMOTIVE_DESIGN {1 0 10303 214 3 1 1}'));
ENDSEC;

DATA;
#10=PROPERTY_DEFINITION_REPRESENTATION(#14,#12);
#11=PROPERTY_DEFINITION_REPRESENTATION(#15,#13);
#12=REPRESENTATION('',(#16),#457);
#13=REPRESENTATION('',(#17),#457);
#14=PROPERTY_DEFINITION('pmi validation property','',#462);
#15=PROPERTY_DEFINITION('pmi validation property','',#462);
#16=VALUE_REPRESENTATION_ITEM('number of annotations',COUNT_MEASURE(0.));
#17=VALUE_REPRESENTATION_ITEM('number of views',COUNT_MEASURE(0.));
#18=SHAPE_REPRESENTATION_RELATIONSHIP('','',#291,#19);
#19=ADVANCED_BREP_SHAPE_REPRESENTATION('',(#289),#457);
#20=CYLINDRICAL_SURFACE('',#309,5.053);
#21=CONICAL_SURFACE('',#307,6.,0.785398163397448);
#22=CONICAL_SURFACE('',#311,5.053,0.785398163397448);
#23=CIRCLE('',#296,6.);
#24=CIRCLE('',#302,6.);
#25=CIRCLE('',#308,5.053);
#26=CIRCLE('',#310,5.053);
#27=ORIENTED_EDGE('',*,*,#95,.T.);
#28=ORIENTED_EDGE('',*,*,#96,.F.);
#29=ORIENTED_EDGE('',*,*,#97,.F.);
#30=ORIENTED_EDGE('',*,*,#98,.T.);
#31=ORIENTED_EDGE('',*,*,#99,.T.);
#32=ORIENTED_EDGE('',*,*,#100,.F.);
#33=ORIENTED_EDGE('',*,*,#101,.F.);
#34=ORIENTED_EDGE('',*,*,#96,.T.);
#35=ORIENTED_EDGE('',*,*,#102,.F.);
#36=ORIENTED_EDGE('',*,*,#103,.T.);
#37=ORIENTED_EDGE('',*,*,#104,.F.);
#38=ORIENTED_EDGE('',*,*,#105,.F.);
#39=ORIENTED_EDGE('',*,*,#100,.T.);
#40=ORIENTED_EDGE('',*,*,#106,.T.);
#41=ORIENTED_EDGE('',*,*,#107,.F.);
#42=ORIENTED_EDGE('',*,*,#108,.F.);
#43=ORIENTED_EDGE('',*,*,#104,.T.);
#44=ORIENTED_EDGE('',*,*,#109,.T.);
#45=ORIENTED_EDGE('',*,*,#110,.F.);
#46=ORIENTED_EDGE('',*,*,#111,.F.);
#47=ORIENTED_EDGE('',*,*,#107,.T.);
#48=ORIENTED_EDGE('',*,*,#112,.T.);
#49=ORIENTED_EDGE('',*,*,#113,.F.);
#50=ORIENTED_EDGE('',*,*,#114,.F.);
#51=ORIENTED_EDGE('',*,*,#110,.T.);
#52=ORIENTED_EDGE('',*,*,#115,.T.);
#53=ORIENTED_EDGE('',*,*,#116,.F.);
#54=ORIENTED_EDGE('',*,*,#117,.F.);
#55=ORIENTED_EDGE('',*,*,#113,.T.);
#56=ORIENTED_EDGE('',*,*,#118,.T.);
#57=ORIENTED_EDGE('',*,*,#119,.T.);
#58=ORIENTED_EDGE('',*,*,#120,.F.);
#59=ORIENTED_EDGE('',*,*,#121,.F.);
#60=ORIENTED_EDGE('',*,*,#116,.T.);
#61=ORIENTED_EDGE('',*,*,#122,.T.);
#62=ORIENTED_EDGE('',*,*,#123,.F.);
#63=ORIENTED_EDGE('',*,*,#124,.F.);
#64=ORIENTED_EDGE('',*,*,#120,.T.);
#65=ORIENTED_EDGE('',*,*,#125,.T.);
#66=ORIENTED_EDGE('',*,*,#98,.F.);
#67=ORIENTED_EDGE('',*,*,#126,.F.);
#68=ORIENTED_EDGE('',*,*,#123,.T.);
#69=ORIENTED_EDGE('',*,*,#97,.T.);
#70=ORIENTED_EDGE('',*,*,#101,.T.);
#71=ORIENTED_EDGE('',*,*,#105,.T.);
#72=ORIENTED_EDGE('',*,*,#108,.T.);
#73=ORIENTED_EDGE('',*,*,#111,.T.);
#74=ORIENTED_EDGE('',*,*,#114,.T.);
#75=ORIENTED_EDGE('',*,*,#117,.T.);
#76=ORIENTED_EDGE('',*,*,#121,.T.);
#77=ORIENTED_EDGE('',*,*,#124,.T.);
#78=ORIENTED_EDGE('',*,*,#126,.T.);
#79=ORIENTED_EDGE('',*,*,#95,.F.);
#80=ORIENTED_EDGE('',*,*,#125,.F.);
#81=ORIENTED_EDGE('',*,*,#122,.F.);
#82=ORIENTED_EDGE('',*,*,#119,.F.);
#83=ORIENTED_EDGE('',*,*,#115,.F.);
#84=ORIENTED_EDGE('',*,*,#112,.F.);
#85=ORIENTED_EDGE('',*,*,#109,.F.);
#86=ORIENTED_EDGE('',*,*,#106,.F.);
#87=ORIENTED_EDGE('',*,*,#103,.F.);
#88=ORIENTED_EDGE('',*,*,#99,.F.);
#89=ORIENTED_EDGE('',*,*,#127,.T.);
#90=ORIENTED_EDGE('',*,*,#118,.F.);
#91=ORIENTED_EDGE('',*,*,#128,.T.);
#92=ORIENTED_EDGE('',*,*,#127,.F.);
#93=ORIENTED_EDGE('',*,*,#102,.T.);
#94=ORIENTED_EDGE('',*,*,#128,.F.);
#95=EDGE_CURVE('',#129,#130,#153,.T.);
#96=EDGE_CURVE('',#131,#130,#154,.T.);
#97=EDGE_CURVE('',#132,#131,#155,.T.);
#98=EDGE_CURVE('',#132,#129,#156,.T.);
#99=EDGE_CURVE('',#130,#133,#157,.T.);
#100=EDGE_CURVE('',#134,#133,#158,.T.);
#101=EDGE_CURVE('',#131,#134,#159,.T.);
#102=EDGE_CURVE('',#135,#135,#23,.T.);
#103=EDGE_CURVE('',#133,#136,#160,.T.);
#104=EDGE_CURVE('',#137,#136,#161,.T.);
#105=EDGE_CURVE('',#134,#137,#162,.T.);
#106=EDGE_CURVE('',#136,#138,#163,.T.);
#107=EDGE_CURVE('',#139,#138,#164,.T.);
#108=EDGE_CURVE('',#137,#139,#165,.T.);
#109=EDGE_CURVE('',#138,#140,#166,.T.);
#110=EDGE_CURVE('',#141,#140,#167,.T.);
#111=EDGE_CURVE('',#139,#141,#168,.T.);
#112=EDGE_CURVE('',#140,#142,#169,.T.);
#113=EDGE_CURVE('',#143,#142,#170,.T.);
#114=EDGE_CURVE('',#141,#143,#171,.T.);
#115=EDGE_CURVE('',#142,#144,#172,.T.);
#116=EDGE_CURVE('',#145,#144,#173,.T.);
#117=EDGE_CURVE('',#143,#145,#174,.T.);
#118=EDGE_CURVE('',#146,#146,#24,.T.);
#119=EDGE_CURVE('',#144,#147,#175,.T.);
#120=EDGE_CURVE('',#148,#147,#176,.T.);
#121=EDGE_CURVE('',#145,#148,#177,.T.);
#122=EDGE_CURVE('',#147,#149,#178,.T.);
#123=EDGE_CURVE('',#150,#149,#179,.T.);
#124=EDGE_CURVE('',#148,#150,#180,.T.);
#125=EDGE_CURVE('',#149,#129,#181,.T.);
#126=EDGE_CURVE('',#150,#132,#182,.T.);
#127=EDGE_CURVE('',#151,#151,#25,.T.);
#128=EDGE_CURVE('',#152,#152,#26,.T.);
#129=VERTEX_POINT('',#385);
#130=VERTEX_POINT('',#386);
#131=VERTEX_POINT('',#388);
#132=VERTEX_POINT('',#390);
#133=VERTEX_POINT('',#394);
#134=VERTEX_POINT('',#396);
#135=VERTEX_POINT('',#400);
#136=VERTEX_POINT('',#402);
#137=VERTEX_POINT('',#404);
#138=VERTEX_POINT('',#408);
#139=VERTEX_POINT('',#410);
#140=VERTEX_POINT('',#414);
#141=VERTEX_POINT('',#416);
#142=VERTEX_POINT('',#420);
#143=VERTEX_POINT('',#422);
#144=VERTEX_POINT('',#426);
#145=VERTEX_POINT('',#428);
#146=VERTEX_POINT('',#432);
#147=VERTEX_POINT('',#434);
#148=VERTEX_POINT('',#436);
#149=VERTEX_POINT('',#440);
#150=VERTEX_POINT('',#442);
#151=VERTEX_POINT('',#451);
#152=VERTEX_POINT('',#454);
#153=LINE('',#384,#183);
#154=LINE('',#387,#184);
#155=LINE('',#389,#185);
#156=LINE('',#391,#186);
#157=LINE('',#393,#187);
#158=LINE('',#395,#188);
#159=LINE('',#397,#189);
#160=LINE('',#401,#190);
#161=LINE('',#403,#191);
#162=LINE('',#405,#192);
#163=LINE('',#407,#193);
#164=LINE('',#409,#194);
#165=LINE('',#411,#195);
#166=LINE('',#413,#196);
#167=LINE('',#415,#197);
#168=LINE('',#417,#198);
#169=LINE('',#419,#199);
#170=LINE('',#421,#200);
#171=LINE('',#423,#201);
#172=LINE('',#425,#202);
#173=LINE('',#427,#203);
#174=LINE('',#429,#204);
#175=LINE('',#433,#205);
#176=LINE('',#435,#206);
#177=LINE('',#437,#207);
#178=LINE('',#439,#208);
#179=LINE('',#441,#209);
#180=LINE('',#443,#210);
#181=LINE('',#445,#211);
#182=LINE('',#446,#212);
#183=VECTOR('',#316,1000.);
#184=VECTOR('',#317,1000.);
#185=VECTOR('',#318,1000.);
#186=VECTOR('',#319,1000.);
#187=VECTOR('',#322,1000.);
#188=VECTOR('',#323,1000.);
#189=VECTOR('',#324,1000.);
#190=VECTOR('',#329,1000.);
#191=VECTOR('',#330,1000.);
#192=VECTOR('',#331,1000.);
#193=VECTOR('',#334,1000.);
#194=VECTOR('',#335,1000.);
#195=VECTOR('',#336,1000.);
#196=VECTOR('',#339,1000.);
#197=VECTOR('',#340,1000.);
#198=VECTOR('',#341,1000.);
#199=VECTOR('',#344,1000.);
#200=VECTOR('',#345,1000.);
#201=VECTOR('',#346,1000.);
#202=VECTOR('',#349,1000.);
#203=VECTOR('',#350,1000.);
#204=VECTOR('',#351,1000.);
#205=VECTOR('',#356,1000.);
#206=VECTOR('',#357,1000.);
#207=VECTOR('',#358,1000.);
#208=VECTOR('',#361,1000.);
#209=VECTOR('',#362,1000.);
#210=VECTOR('',#363,1000.);
#211=VECTOR('',#366,1000.);
#212=VECTOR('',#367,1000.);
#213=EDGE_LOOP('',(#27,#28,#29,#30));
#214=EDGE_LOOP('',(#31,#32,#33,#34));
#215=EDGE_LOOP('',(#35));
#216=EDGE_LOOP('',(#36,#37,#38,#39));
#217=EDGE_LOOP('',(#40,#41,#42,#43));
#218=EDGE_LOOP('',(#44,#45,#46,#47));
#219=EDGE_LOOP('',(#48,#49,#50,#51));
#220=EDGE_LOOP('',(#52,#53,#54,#55));
#221=EDGE_LOOP('',(#56));
#222=EDGE_LOOP('',(#57,#58,#59,#60));
#223=EDGE_LOOP('',(#61,#62,#63,#64));
#224=EDGE_LOOP('',(#65,#66,#67,#68));
#225=EDGE_LOOP('',(#69,#70,#71,#72,#73,#74,#75,#76,#77,#78));
#226=EDGE_LOOP('',(#79,#80,#81,#82,#83,#84,#85,#86,#87,#88));
#227=EDGE_LOOP('',(#89));
#228=EDGE_LOOP('',(#90));
#229=EDGE_LOOP('',(#91));
#230=EDGE_LOOP('',(#92));
#231=EDGE_LOOP('',(#93));
#232=EDGE_LOOP('',(#94));
#233=FACE_BOUND('',#213,.T.);
#234=FACE_BOUND('',#214,.T.);
#235=FACE_BOUND('',#215,.T.);
#236=FACE_BOUND('',#216,.T.);
#237=FACE_BOUND('',#217,.T.);
#238=FACE_BOUND('',#218,.T.);
#239=FACE_BOUND('',#219,.T.);
#240=FACE_BOUND('',#220,.T.);
#241=FACE_BOUND('',#221,.T.);
#242=FACE_BOUND('',#222,.T.);
#243=FACE_BOUND('',#223,.T.);
#244=FACE_BOUND('',#224,.T.);
#245=FACE_BOUND('',#225,.T.);
#246=FACE_BOUND('',#226,.T.);
#247=FACE_BOUND('',#227,.T.);
#248=FACE_BOUND('',#228,.T.);
#249=FACE_BOUND('',#229,.T.);
#250=FACE_BOUND('',#230,.T.);
#251=FACE_BOUND('',#231,.T.);
#252=FACE_BOUND('',#232,.T.);
#253=PLANE('',#293);
#254=PLANE('',#294);
#255=PLANE('',#295);
#256=PLANE('',#297);
#257=PLANE('',#298);
#258=PLANE('',#299);
#259=PLANE('',#300);
#260=PLANE('',#301);
#261=PLANE('',#303);
#262=PLANE('',#304);
#263=PLANE('',#305);
#264=PLANE('',#306);
#265=ADVANCED_FACE('',(#233),#253,.F.);
#266=ADVANCED_FACE('',(#234),#254,.F.);
#267=ADVANCED_FACE('',(#235,#236),#255,.F.);
#268=ADVANCED_FACE('',(#237),#256,.F.);
#269=ADVANCED_FACE('',(#238),#257,.F.);
#270=ADVANCED_FACE('',(#239),#258,.F.);
#271=ADVANCED_FACE('',(#240),#259,.F.);
#272=ADVANCED_FACE('',(#241,#242),#260,.F.);
#273=ADVANCED_FACE('',(#243),#261,.F.);
#274=ADVANCED_FACE('',(#244),#262,.F.);
#275=ADVANCED_FACE('',(#245),#263,.T.);
#276=ADVANCED_FACE('',(#246),#264,.F.);
#277=ADVANCED_FACE('',(#247,#248),#21,.F.);
#278=ADVANCED_FACE('',(#249,#250),#20,.F.);
#279=ADVANCED_FACE('',(#251,#252),#22,.F.);
#280=CLOSED_SHELL('',(#265,#266,#267,#268,#269,#270,#271,#272,#273,#274,
#275,#276,#277,#278,#279));
#281=STYLED_ITEM('',(#282),#289);
#282=PRESENTATION_STYLE_ASSIGNMENT((#283));
#283=SURFACE_STYLE_USAGE(.BOTH.,#284);
#284=SURFACE_SIDE_STYLE('',(#285));
#285=SURFACE_STYLE_FILL_AREA(#286);
#286=FILL_AREA_STYLE('',(#287));
#287=FILL_AREA_STYLE_COLOUR('',#288);
#288=COLOUR_RGB('',0.5686274766922,0.5686274766922,0.5686274766922);
#289=MANIFOLD_SOLID_BREP('AMF80168',#280);
#290=SHAPE_DEFINITION_REPRESENTATION(#462,#291);
#291=SHAPE_REPRESENTATION('AMF80168',(#292),#457);
#292=AXIS2_PLACEMENT_3D('',#382,#312,#313);
#293=AXIS2_PLACEMENT_3D('',#383,#314,#315);
#294=AXIS2_PLACEMENT_3D('',#392,#320,#321);
#295=AXIS2_PLACEMENT_3D('',#398,#325,#326);
#296=AXIS2_PLACEMENT_3D('',#399,#327,#328);
#297=AXIS2_PLACEMENT_3D('',#406,#332,#333);
#298=AXIS2_PLACEMENT_3D('',#412,#337,#338);
#299=AXIS2_PLACEMENT_3D('',#418,#342,#343);
#300=AXIS2_PLACEMENT_3D('',#424,#347,#348);
#301=AXIS2_PLACEMENT_3D('',#430,#352,#353);
#302=AXIS2_PLACEMENT_3D('',#431,#354,#355);
#303=AXIS2_PLACEMENT_3D('',#438,#359,#360);
#304=AXIS2_PLACEMENT_3D('',#444,#364,#365);
#305=AXIS2_PLACEMENT_3D('',#447,#368,#369);
#306=AXIS2_PLACEMENT_3D('',#448,#370,#371);
#307=AXIS2_PLACEMENT_3D('',#449,#372,#373);
#308=AXIS2_PLACEMENT_3D('',#450,#374,#375);
#309=AXIS2_PLACEMENT_3D('',#452,#376,#377);
#310=AXIS2_PLACEMENT_3D('',#453,#378,#379);
#311=AXIS2_PLACEMENT_3D('',#455,#380,#381);
#312=DIRECTION('',(0.,0.,1.));
#313=DIRECTION('',(1.,0.,0.));
#314=DIRECTION('',(1.,0.,0.));
#315=DIRECTION('',(0.,0.,-1.));
#316=DIRECTION('',(0.,-1.,0.));
#317=DIRECTION('',(0.,0.,-1.));
#318=DIRECTION('',(0.,-1.,0.));
#319=DIRECTION('',(0.,0.,-1.));
#320=DIRECTION('',(0.707106781186547,0.707106781186548,0.));
#321=DIRECTION('',(-0.707106781186548,0.707106781186547,0.));
#322=DIRECTION('',(0.707106781186548,-0.707106781186547,0.));
#323=DIRECTION('',(0.,0.,-1.));
#324=DIRECTION('',(0.707106781186548,-0.707106781186547,0.));
#325=DIRECTION('',(0.,1.,0.));
#326=DIRECTION('',(0.,0.,1.));
#327=DIRECTION('',(0.,-1.,0.));
#328=DIRECTION('',(0.,0.,-1.));
#329=DIRECTION('',(1.,0.,0.));
#330=DIRECTION('',(0.,0.,-1.));
#331=DIRECTION('',(1.,0.,0.));
#332=DIRECTION('',(-0.707106781186547,0.707106781186548,0.));
#333=DIRECTION('',(-0.707106781186548,-0.707106781186547,0.));
#334=DIRECTION('',(0.707106781186548,0.707106781186547,0.));
#335=DIRECTION('',(0.,0.,-1.));
#336=DIRECTION('',(0.707106781186548,0.707106781186547,0.));
#337=DIRECTION('',(-1.,0.,0.));
#338=DIRECTION('',(0.,0.,1.));
#339=DIRECTION('',(0.,1.,0.));
#340=DIRECTION('',(0.,0.,-1.));
#341=DIRECTION('',(0.,1.,0.));
#342=DIRECTION('',(0.,-1.,0.));
#343=DIRECTION('',(0.,0.,-1.));
#344=DIRECTION('',(-1.,0.,0.));
#345=DIRECTION('',(0.,0.,-1.));
#346=DIRECTION('',(-1.,0.,0.));
#347=DIRECTION('',(-1.,0.,0.));
#348=DIRECTION('',(0.,0.,1.));
#349=DIRECTION('',(0.,1.,0.));
#350=DIRECTION('',(0.,0.,-1.));
#351=DIRECTION('',(0.,1.,0.));
#352=DIRECTION('',(0.,-1.,0.));
#353=DIRECTION('',(0.,0.,-1.));
#354=DIRECTION('',(0.,-1.,0.));
#355=DIRECTION('',(0.,0.,-1.));
#356=DIRECTION('',(-1.,0.,0.));
#357=DIRECTION('',(0.,0.,-1.));
#358=DIRECTION('',(-1.,0.,0.));
#359=DIRECTION('',(1.,1.92747052886312E-16,0.));
#360=DIRECTION('',(-1.92747052886312E-16,1.,0.));
#361=DIRECTION('',(1.92747052886312E-16,-1.,0.));
#362=DIRECTION('',(0.,0.,-1.));
#363=DIRECTION('',(1.92747052886312E-16,-1.,0.));
#364=DIRECTION('',(0.,-1.,0.));
#365=DIRECTION('',(0.,0.,-1.));
#366=DIRECTION('',(-1.,0.,0.));
#367=DIRECTION('',(-1.,0.,0.));
#368=DIRECTION('',(0.,0.,1.));
#369=DIRECTION('',(1.,0.,0.));
#370=DIRECTION('',(0.,0.,1.));
#371=DIRECTION('',(1.,0.,0.));
#372=DIRECTION('',(0.,1.,0.));
#373=DIRECTION('',(0.,0.,1.));
#374=DIRECTION('',(0.,-1.,0.));
#375=DIRECTION('',(0.,0.,-1.));
#376=DIRECTION('',(0.,-1.,0.));
#377=DIRECTION('',(0.,0.,-1.));
#378=DIRECTION('',(0.,-1.,0.));
#379=DIRECTION('',(0.,0.,-1.));
#380=DIRECTION('',(0.,-1.,0.));
#381=DIRECTION('',(0.,0.,-1.));
#382=CARTESIAN_POINT('',(0.,0.,0.));
#383=CARTESIAN_POINT('',(-12.5,9.,12.5));
#384=CARTESIAN_POINT('',(-12.5,9.,-12.5));
#385=CARTESIAN_POINT('',(-12.5,9.,-12.5));
#386=CARTESIAN_POINT('',(-12.5,2.5,-12.5));
#387=CARTESIAN_POINT('',(-12.5,2.5,12.5));
#388=CARTESIAN_POINT('',(-12.5,2.5,12.5));
#389=CARTESIAN_POINT('',(-12.5,9.,12.5));
#390=CARTESIAN_POINT('',(-12.5,9.,12.5));
#391=CARTESIAN_POINT('',(-12.5,9.,12.5));
#392=CARTESIAN_POINT('',(-12.5,2.5,12.5));
#393=CARTESIAN_POINT('',(-12.5,2.5,-12.5));
#394=CARTESIAN_POINT('',(-10.,0.,-12.5));
#395=CARTESIAN_POINT('',(-10.,0.,12.5));
#396=CARTESIAN_POINT('',(-10.,0.,12.5));
#397=CARTESIAN_POINT('',(-12.5,2.5,12.5));
#398=CARTESIAN_POINT('',(-10.,0.,12.5));
#399=CARTESIAN_POINT('',(0.,-1.0842021724855E-16,0.));
#400=CARTESIAN_POINT('',(0.,-1.0842021724855E-16,-6.));
#401=CARTESIAN_POINT('',(-10.,0.,-12.5));
#402=CARTESIAN_POINT('',(10.,0.,-12.5));
#403=CARTESIAN_POINT('',(10.,0.,12.5));
#404=CARTESIAN_POINT('',(10.,0.,12.5));
#405=CARTESIAN_POINT('',(-10.,0.,12.5));
#406=CARTESIAN_POINT('',(10.,0.,12.5));
#407=CARTESIAN_POINT('',(10.,0.,-12.5));
#408=CARTESIAN_POINT('',(12.5,2.5,-12.5));
#409=CARTESIAN_POINT('',(12.5,2.5,12.5));
#410=CARTESIAN_POINT('',(12.5,2.5,12.5));
#411=CARTESIAN_POINT('',(10.,0.,12.5));
#412=CARTESIAN_POINT('',(12.5,2.5,12.5));
#413=CARTESIAN_POINT('',(12.5,2.5,-12.5));
#414=CARTESIAN_POINT('',(12.5,9.,-12.5));
#415=CARTESIAN_POINT('',(12.5,9.,12.5));
#416=CARTESIAN_POINT('',(12.5,9.,12.5));
#417=CARTESIAN_POINT('',(12.5,2.5,12.5));
#418=CARTESIAN_POINT('',(12.5,9.,12.5));
#419=CARTESIAN_POINT('',(12.5,9.,-12.5));
#420=CARTESIAN_POINT('',(7.85,9.,-12.5));
#421=CARTESIAN_POINT('',(7.85,9.,12.5));
#422=CARTESIAN_POINT('',(7.85,9.,12.5));
#423=CARTESIAN_POINT('',(12.5,9.,12.5));
#424=CARTESIAN_POINT('',(7.85,9.,12.5));
#425=CARTESIAN_POINT('',(7.85,9.,-12.5));
#426=CARTESIAN_POINT('',(7.85,18.,-12.5));
#427=CARTESIAN_POINT('',(7.85,18.,12.5));
#428=CARTESIAN_POINT('',(7.85,18.,12.5));
#429=CARTESIAN_POINT('',(7.85,9.,12.5));
#430=CARTESIAN_POINT('',(7.85,18.,12.5));
#431=CARTESIAN_POINT('',(0.,18.,0.));
#432=CARTESIAN_POINT('',(0.,18.,-6.));
#433=CARTESIAN_POINT('',(7.85,18.,-12.5));
#434=CARTESIAN_POINT('',(-7.85,18.,-12.5));
#435=CARTESIAN_POINT('',(-7.85,18.,12.5));
#436=CARTESIAN_POINT('',(-7.85,18.,12.5));
#437=CARTESIAN_POINT('',(7.85,18.,12.5));
#438=CARTESIAN_POINT('',(-7.85,18.,12.5));
#439=CARTESIAN_POINT('',(-7.85,18.,-12.5));
#440=CARTESIAN_POINT('',(-7.85,9.,-12.5));
#441=CARTESIAN_POINT('',(-7.85,9.,12.5));
#442=CARTESIAN_POINT('',(-7.85,9.,12.5));
#443=CARTESIAN_POINT('',(-7.85,18.,12.5));
#444=CARTESIAN_POINT('',(-7.85,9.,12.5));
#445=CARTESIAN_POINT('',(-7.85,9.,-12.5));
#446=CARTESIAN_POINT('',(-7.85,9.,12.5));
#447=CARTESIAN_POINT('',(0.,0.,12.5));
#448=CARTESIAN_POINT('',(0.,0.,-12.5));
#449=CARTESIAN_POINT('',(0.,18.,0.));
#450=CARTESIAN_POINT('',(0.,17.053,0.));
#451=CARTESIAN_POINT('',(0.,17.053,-5.053));
#452=CARTESIAN_POINT('',(0.,0.,0.));
#453=CARTESIAN_POINT('',(0.,0.947,0.));
#454=CARTESIAN_POINT('',(0.,0.947,-5.053));
#455=CARTESIAN_POINT('',(0.,0.947,0.));
#456=MECHANICAL_DESIGN_GEOMETRIC_PRESENTATION_REPRESENTATION('',(#281),
#457);
#457=(
GEOMETRIC_REPRESENTATION_CONTEXT(3)
GLOBAL_UNCERTAINTY_ASSIGNED_CONTEXT((#458))
GLOBAL_UNIT_ASSIGNED_CONTEXT((#461,#460,#459))
REPRESENTATION_CONTEXT('AMF80168','TOP_LEVEL_ASSEMBLY_PART')
);
#458=UNCERTAINTY_MEASURE_WITH_UNIT(LENGTH_MEASURE(0.005),#461,
'DISTANCE_ACCURACY_VALUE','Maximum Tolerance applied to model');
#459=(
NAMED_UNIT(*)
SI_UNIT($,.STERADIAN.)
SOLID_ANGLE_UNIT()
);
#460=(
NAMED_UNIT(*)
PLANE_ANGLE_UNIT()
SI_UNIT($,.RADIAN.)
);
#461=(
LENGTH_UNIT()
NAMED_UNIT(*)
SI_UNIT(.MILLI.,.METRE.)
);
#462=PRODUCT_DEFINITION_SHAPE('','',#463);
#463=PRODUCT_DEFINITION('','',#465,#464);
#464=PRODUCT_DEFINITION_CONTEXT('',#471,'design');
#465=PRODUCT_DEFINITION_FORMATION_WITH_SPECIFIED_SOURCE('','',#467,
 .NOT_KNOWN.);
#466=PRODUCT_RELATED_PRODUCT_CATEGORY('','',(#467));
#467=PRODUCT('AMF80168','AMF80168','AMF80168',(#469));
#468=PRODUCT_CATEGORY('','');
#469=PRODUCT_CONTEXT('',#471,'mechanical');
#470=APPLICATION_PROTOCOL_DEFINITION('international standard',
'automotive_design',2010,#471);
#471=APPLICATION_CONTEXT(
'core data for automotive mechanical design processes');
ENDSEC;
END-ISO-10303-21;
