ISO-10303-21;
HEADER;
FILE_DESCRIPTION (( 'STEP AP203' ),
    '1' );
FILE_NAME ('509.RING_D_3D-Zeichnung.STEP',
    '2024-03-20T08:14:19',
    ( '' ),
    ( '' ),
    'SwSTEP 2.0',
    'SolidWorks 2023',
    '' );
FILE_SCHEMA (( 'CONFIG_CONTROL_DESIGN' ));
ENDSEC;

DATA;
#1 = SECURITY_CLASSIFICATION ( '', '', #34 ) ;
#2 = APPROVAL_DATE_TIME ( #69, #75 ) ;
#3 = ORIENTED_EDGE ( 'NONE', *, *, #390, .F. ) ;
#4 = MECHANICAL_CONTEXT ( 'NONE', #423, 'mechanical' ) ;
#5 = CARTESIAN_POINT ( 'NONE',  ( 0.000000000000000000, 0.000000000000000000, 0.000000000000000000 ) ) ;
#6 = APPROVAL_DATE_TIME ( #414, #351 ) ;
#7 = EDGE_LOOP ( 'NONE', ( #3, #185, #346, #215 ) ) ;
#8 = APPROVAL_STATUS ( 'not_yet_approved' ) ;
#9 = ORIENTED_EDGE ( 'NONE', *, *, #390, .T. ) ;
#10 =( GEOMETRIC_REPRESENTATION_CONTEXT ( 3 ) GLOBAL_UNCERTAINTY_ASSIGNED_CONTEXT ( ( #321 ) ) GLOBAL_UNIT_ASSIGNED_CONTEXT ( ( #191, #51, #148 ) ) REPRESENTATION_CONTEXT ( 'NONE', 'WORKASPACE' ) );
#11 = PERSON_AND_ORGANIZATION_ROLE ( 'classification_officer' ) ;
#12 = DIRECTION ( 'NONE',  ( -1.000000000000000000, 0.000000000000000000, 0.000000000000000000 ) ) ;
#13 = DIRECTION ( 'NONE',  ( 0.000000000000000000, 0.000000000000000000, -1.000000000000000000 ) ) ;
#14 = DIRECTION ( 'NONE',  ( 1.000000000000000000, 0.000000000000000000, 0.000000000000000000 ) ) ;
#15 = APPROVAL_ROLE ( '' ) ;
#16 = LOCAL_TIME ( 9, 14, 19.00000000000000000, #433 ) ;
#17 = CC_DESIGN_SECURITY_CLASSIFICATION ( #52, ( #270 ) ) ;
#18 = CC_DESIGN_PERSON_AND_ORGANIZATION_ASSIGNMENT ( #301, #63, ( #50 ) ) ;
#19 = APPROVAL_DATE_TIME ( #83, #413 ) ;
#20 = EDGE_CURVE ( 'NONE', #285, #187, #113, .T. ) ;
#21 = DIRECTION ( 'NONE',  ( 0.000000000000000000, 0.000000000000000000, 1.000000000000000000 ) ) ;
#22 = CALENDAR_DATE ( 2024, 20, 3 ) ;
#23 = AXIS2_PLACEMENT_3D ( 'NONE', #157, #393, #154 ) ;
#24 = PERSON_AND_ORGANIZATION ( #219, #395 ) ;
#25 = ITEM_DEFINED_TRANSFORMATION ( 'NONE', 'NONE', #45,  #23 ) ;
#26 = APPROVAL_STATUS ( 'not_yet_approved' ) ;
#27 = PERSON_AND_ORGANIZATION ( #219, #395 ) ;
#28 = CC_DESIGN_APPROVAL ( #257, ( #416 ) ) ;
#29 = DATE_AND_TIME ( #96, #16 ) ;
#30 = CC_DESIGN_PERSON_AND_ORGANIZATION_ASSIGNMENT ( #129, #399, ( #270 ) ) ;
#31 = APPROVAL_STATUS ( 'not_yet_approved' ) ;
#32 = ORIENTED_EDGE ( 'NONE', *, *, #66, .T. ) ;
#33 = AXIS2_PLACEMENT_3D ( 'NONE', #243, #182, #316 ) ;
#34 = SECURITY_CLASSIFICATION_LEVEL ( 'unclassified' ) ;
#35 = CARTESIAN_POINT ( 'NONE',  ( 0.000000000000000000, 0.000000000000000000, 0.000000000000000000 ) ) ;
#36 = SECURITY_CLASSIFICATION ( '', '', #379 ) ;
#37 = APPROVAL_STATUS ( 'not_yet_approved' ) ;
#38 = DIRECTION ( 'NONE',  ( 0.000000000000000000, 0.000000000000000000, -1.000000000000000000 ) ) ;
#39 = PRODUCT_DEFINITION ( 'UNKNOWN', '', #176, #78 ) ;
#40 = PERSON_AND_ORGANIZATION_ROLE ( 'classification_officer' ) ;
#41 = ORIENTED_EDGE ( 'NONE', *, *, #20, .F. ) ;
#42 = CIRCLE ( 'NONE', #100, 0.02626500000000000015 ) ;
#43 = COORDINATED_UNIVERSAL_TIME_OFFSET ( 1, 0, .AHEAD. ) ;
#44 = DIRECTION ( 'NONE',  ( -1.000000000000000000, 0.000000000000000000, 0.000000000000000000 ) ) ;
#45 = AXIS2_PLACEMENT_3D ( 'NONE', #259, #14, #13 ) ;
#46 = UNCERTAINTY_MEASURE_WITH_UNIT (LENGTH_MEASURE( 1.000000000000000082E-05 ), #361, 'distance_accuracy_value', 'NONE');
#47 = DATE_AND_TIME ( #322, #280 ) ;
#48 = APPROVAL_PERSON_ORGANIZATION ( #265, #127, #121 ) ;
#49 = CARTESIAN_POINT ( 'NONE',  ( -0.02495500000000000149, 0.000000000000000000, 0.000000000000000000 ) ) ;
#50 = PRODUCT_DEFINITION ( 'UNKNOWN', '', #270, #262 ) ;
#51 =( NAMED_UNIT ( * ) PLANE_ANGLE_UNIT ( ) SI_UNIT ( $, .RADIAN. ) );
#52 = SECURITY_CLASSIFICATION ( '', '', #170 ) ;
#53 = COORDINATED_UNIVERSAL_TIME_OFFSET ( 1, 0, .AHEAD. ) ;
#54 = PRODUCT_RELATED_PRODUCT_CATEGORY ( 'detail', '', ( #263 ) ) ;
#55 = COORDINATED_UNIVERSAL_TIME_OFFSET ( 1, 0, .AHEAD. ) ;
#56 = CIRCLE ( 'NONE', #171, 0.02364499999999999935 ) ;
#57 =( NAMED_UNIT ( * ) SI_UNIT ( $, .STERADIAN. ) SOLID_ANGLE_UNIT ( ) );
#58 = APPROVAL_ROLE ( '' ) ;
#59 = MECHANICAL_CONTEXT ( 'NONE', #377, 'mechanical' ) ;
#60 = DATE_AND_TIME ( #195, #204 ) ;
#61 = ORGANIZATION ( 'NAUO-ORG1', 'UNSPECIFIED', 'UNSPECIFIED' ) ;
#62 = DATE_AND_TIME ( #403, #364 ) ;
#63 = PERSON_AND_ORGANIZATION_ROLE ( 'creator' ) ;
#64 = CC_DESIGN_PERSON_AND_ORGANIZATION_ASSIGNMENT ( #229, #123, ( #416 ) ) ;
#65 = CALENDAR_DATE ( 2024, 20, 3 ) ;
#66 = EDGE_CURVE ( 'NONE', #173, #206, #350, .T. ) ;
#67 = AXIS2_PLACEMENT_3D ( 'NONE', #223, #21, #293 ) ;
#68 = PERSON_AND_ORGANIZATION ( #219, #395 ) ;
#69 = DATE_AND_TIME ( #214, #230 ) ;
#70 = DIRECTION ( 'NONE',  ( 0.000000000000000000, -1.000000000000000000, 0.000000000000000000 ) ) ;
#71 = PERSON_AND_ORGANIZATION ( #219, #395 ) ;
#72 = DIRECTION ( 'NONE',  ( 0.000000000000000000, 0.000000000000000000, -1.000000000000000000 ) ) ;
#73 = CC_DESIGN_SECURITY_CLASSIFICATION ( #416, ( #326 ) ) ;
#74 = CC_DESIGN_APPROVAL ( #75, ( #176 ) ) ;
#75 = APPROVAL ( #31, 'UNSPECIFIED' ) ;
#76 = PERSON_AND_ORGANIZATION ( #219, #395 ) ;
#77 = DIRECTION ( 'NONE',  ( -1.000000000000000000, 0.000000000000000000, 0.000000000000000000 ) ) ;
#78 = DESIGN_CONTEXT ( 'detailed design', #253, 'design' ) ;
#79 = AXIS2_PLACEMENT_3D ( 'NONE', #282, #70, #38 ) ;
#80 = CONTEXT_DEPENDENT_SHAPE_REPRESENTATION ( #242, #153 ) ;
#81 = CARTESIAN_POINT ( 'NONE',  ( 0.000000000000000000, 0.000000000000000000, 0.000000000000000000 ) ) ;
#82 = AXIS2_PLACEMENT_3D ( 'NONE', #49, #190, #84 ) ;
#83 = DATE_AND_TIME ( #422, #305 ) ;
#84 = DIRECTION ( 'NONE',  ( 0.000000000000000000, 0.000000000000000000, -1.000000000000000000 ) ) ;
#85 = PERSON_AND_ORGANIZATION ( #219, #395 ) ;
#86 = CC_DESIGN_PERSON_AND_ORGANIZATION_ASSIGNMENT ( #265, #294, ( #192 ) ) ;
#87 = LOCAL_TIME ( 9, 14, 19.00000000000000000, #337 ) ;
#88 = PERSON_AND_ORGANIZATION_ROLE ( 'design_supplier' ) ;
#89 = CALENDAR_DATE ( 2024, 20, 3 ) ;
#90 = PRODUCT_DEFINITION_SHAPE ( 'NONE', 'NONE',  #39 ) ;
#91 = PERSON_AND_ORGANIZATION_ROLE ( 'creator' ) ;
#92 = LOCAL_TIME ( 9, 14, 19.00000000000000000, #184 ) ;
#93 = APPROVAL_STATUS ( 'not_yet_approved' ) ;
#94 = PRODUCT ( '509.RING_D_3D-Zeichnung', '509.RING_D_3D-Zeichnung', '', ( #59 ) ) ;
#95 = CC_DESIGN_PERSON_AND_ORGANIZATION_ASSIGNMENT ( #155, #365, ( #194 ) ) ;
#96 = CALENDAR_DATE ( 2024, 20, 3 ) ;
#97 = ADVANCED_FACE ( 'NONE', ( #389 ), #330, .T. ) ;
#98 = AXIS2_PLACEMENT_3D ( 'NONE', #392, #344, #12 ) ;
#99 = DATE_AND_TIME ( #22, #224 ) ;
#100 = AXIS2_PLACEMENT_3D ( 'NONE', #35, #279, #411 ) ;
#101 = DATE_TIME_ROLE ( 'classification_date' ) ;
#102 = CARTESIAN_POINT ( 'NONE',  ( 0.02626500000000000015, 3.216534817960524689E-18, 0.000000000000000000 ) ) ;
#103 = EDGE_CURVE ( 'NONE', #187, #206, #367, .T. ) ;
#104 = CALENDAR_DATE ( 2024, 20, 3 ) ;
#105 = EDGE_LOOP ( 'NONE', ( #109, #314, #267, #251 ) ) ;
#106 = DIRECTION ( 'NONE',  ( -1.224646799147351975E-16, 1.000000000000000000, 0.000000000000000000 ) ) ;
#107 = LOCAL_TIME ( 9, 14, 19.00000000000000000, #122 ) ;
#108 = PERSON_AND_ORGANIZATION ( #219, #395 ) ;
#109 = ORIENTED_EDGE ( 'NONE', *, *, #66, .F. ) ;
#110 = APPROVAL ( #26, 'UNSPECIFIED' ) ;
#111 = DATE_AND_TIME ( #315, #327 ) ;
#112 = FACE_OUTER_BOUND ( 'NONE', #131, .T. ) ;
#113 = CIRCLE ( 'NONE', #274, 0.02364499999999999935 ) ;
#114 = DIRECTION ( 'NONE',  ( 0.000000000000000000, 0.000000000000000000, 1.000000000000000000 ) ) ;
#115 = CC_DESIGN_APPROVAL ( #351, ( #52 ) ) ;
#116 = APPROVAL ( #348, 'UNSPECIFIED' ) ;
#117 = APPLICATION_CONTEXT ( 'configuration controlled 3d designs of mechanical parts and assemblies' ) ;
#118 = PERSON ( 'NAUO-PER2', 'UNSPECIFIED', 'UNSPECIFIED', ('UNSPECIFIED'), ('UNSPECIFIED'), ('UNSPECIFIED') ) ;
#119 = AXIS2_PLACEMENT_3D ( 'NONE', #291, #114, #221 ) ;
#120 = DATE_AND_TIME ( #125, #244 ) ;
#121 = APPROVAL_ROLE ( '' ) ;
#122 = COORDINATED_UNIVERSAL_TIME_OFFSET ( 1, 0, .AHEAD. ) ;
#123 = PERSON_AND_ORGANIZATION_ROLE ( 'classification_officer' ) ;
#124 = APPROVAL_PERSON_ORGANIZATION ( #85, #413, #15 ) ;
#125 = CALENDAR_DATE ( 2024, 20, 3 ) ;
#126 = APPROVAL_STATUS ( 'not_yet_approved' ) ;
#127 = APPROVAL ( #159, 'UNKNOWN' ) ;
#128 = CIRCLE ( 'NONE', #196, 0.001309999999999998666 ) ;
#129 = PERSON_AND_ORGANIZATION ( #219, #395 ) ;
#130 = COORDINATED_UNIVERSAL_TIME_OFFSET ( 1, 0, .AHEAD. ) ;
#131 = EDGE_LOOP ( 'NONE', ( #342, #32, #146, #41 ) ) ;
#132 = LOCAL_TIME ( 9, 14, 19.00000000000000000, #410 ) ;
#133 = PERSON_AND_ORGANIZATION ( #219, #395 ) ;
#134 = CARTESIAN_POINT ( 'NONE',  ( 0.02364499999999999935, 2.895677356583915054E-18, 0.000000000000000000 ) ) ;
#135 = SHAPE_DEFINITION_REPRESENTATION ( #297, #378 ) ;
#136 = FACE_OUTER_BOUND ( 'NONE', #7, .T. ) ;
#137 = APPROVAL_DATE_TIME ( #111, #116 ) ;
#138 = CC_DESIGN_DATE_AND_TIME_ASSIGNMENT ( #120, #307, ( #50 ) ) ;
#139 = CC_DESIGN_SECURITY_CLASSIFICATION ( #192, ( #435 ) ) ;
#140 = CC_DESIGN_APPROVAL ( #396, ( #270 ) ) ;
#141 = CALENDAR_DATE ( 2024, 20, 3 ) ;
#142 = ORIENTED_EDGE ( 'NONE', *, *, #427, .F. ) ;
#143 = EDGE_CURVE ( 'NONE', #173, #285, #128, .T. ) ;
#144 = SHAPE_REPRESENTATION ( 'O____48.7.STEP', ( #23 ), #394 ) ;
#145 = CONTEXT_DEPENDENT_SHAPE_REPRESENTATION ( #177, #231 ) ;
#146 = ORIENTED_EDGE ( 'NONE', *, *, #427, .T. ) ;
#147 = UNCERTAINTY_MEASURE_WITH_UNIT (LENGTH_MEASURE( 1.000000000000000082E-05 ), #256, 'distance_accuracy_value', 'NONE');
#148 =( NAMED_UNIT ( * ) SI_UNIT ( $, .STERADIAN. ) SOLID_ANGLE_UNIT ( ) );
#149 = APPLICATION_PROTOCOL_DEFINITION ( 'international standard', 'config_control_design', 1994, #360 ) ;
#150 = APPLICATION_CONTEXT ( 'configuration controlled 3d designs of mechanical parts and assemblies' ) ;
#151 = CC_DESIGN_APPROVAL ( #116, ( #39 ) ) ;
#152 = CC_DESIGN_PERSON_AND_ORGANIZATION_ASSIGNMENT ( #108, #240, ( #39 ) ) ;
#153 = PRODUCT_DEFINITION_SHAPE ( 'NONE', 'NONE',  #434 ) ;
#154 = DIRECTION ( 'NONE',  ( 1.000000000000000000, 0.000000000000000000, 0.000000000000000000 ) ) ;
#155 = PERSON_AND_ORGANIZATION ( #219, #395 ) ;
#156 = AXIS2_PLACEMENT_3D ( 'NONE', #175, #179, #311 ) ;
#157 = CARTESIAN_POINT ( 'NONE',  ( 0.000000000000000000, 0.000000000000000000, 0.000000000000000000 ) ) ;
#158 = APPROVAL ( #338, 'UNSPECIFIED' ) ;
#159 = APPROVAL_STATUS ( 'not_yet_approved' ) ;
#160 = DATE_TIME_ROLE ( 'classification_date' ) ;
#161 = DATE_AND_TIME ( #165, #369 ) ;
#162 = PRODUCT_DEFINITION_SHAPE ( 'NONE', 'NONE',  #194 ) ;
#163 = APPLICATION_PROTOCOL_DEFINITION ( 'international standard', 'config_control_design', 1994, #117 ) ;
#164 = CC_DESIGN_APPROVAL ( #127, ( #192 ) ) ;
#165 = CALENDAR_DATE ( 2024, 20, 3 ) ;
#166 = APPROVAL_ROLE ( '' ) ;
#167 = COORDINATED_UNIVERSAL_TIME_OFFSET ( 1, 0, .AHEAD. ) ;
#168 = APPROVAL_PERSON_ORGANIZATION ( #199, #257, #264 ) ;
#169 = CC_DESIGN_DATE_AND_TIME_ASSIGNMENT ( #188, #429, ( #192 ) ) ;
#170 = SECURITY_CLASSIFICATION_LEVEL ( 'unclassified' ) ;
#171 = AXIS2_PLACEMENT_3D ( 'NONE', #241, #209, #77 ) ;
#172 = CALENDAR_DATE ( 2024, 20, 3 ) ;
#173 = VERTEX_POINT ( 'NONE', #102 ) ;
#174 = PERSON_AND_ORGANIZATION ( #219, #395 ) ;
#175 = CARTESIAN_POINT ( 'NONE',  ( 0.000000000000000000, 0.000000000000000000, 0.000000000000000000 ) ) ;
#176 = PRODUCT_DEFINITION_FORMATION_WITH_SPECIFIED_SOURCE ( 'ANY', '', #302, .NOT_KNOWN. ) ;
#177 =( REPRESENTATION_RELATIONSHIP ('NONE','NONE', #378, #144 ) REPRESENTATION_RELATIONSHIP_WITH_TRANSFORMATION ( #25 )SHAPE_REPRESENTATION_RELATIONSHIP( ) );
#178 = DATE_AND_TIME ( #228, #397 ) ;
#179 = DIRECTION ( 'NONE',  ( 0.000000000000000000, 0.000000000000000000, -1.000000000000000000 ) ) ;
#180 = CC_DESIGN_PERSON_AND_ORGANIZATION_ASSIGNMENT ( #24, #430, ( #263 ) ) ;
#181 = PERSON_AND_ORGANIZATION ( #219, #395 ) ;
#182 = DIRECTION ( 'NONE',  ( 0.000000000000000000, 0.000000000000000000, -1.000000000000000000 ) ) ;
#183 = AXIS2_PLACEMENT_3D ( 'NONE', #81, #356, #44 ) ;
#184 = COORDINATED_UNIVERSAL_TIME_OFFSET ( 1, 0, .AHEAD. ) ;
#185 = ORIENTED_EDGE ( 'NONE', *, *, #103, .F. ) ;
#186 = AXIS2_PLACEMENT_3D ( 'NONE', #258, #359, #329 ) ;
#187 = VERTEX_POINT ( 'NONE', #412 ) ;
#188 = DATE_AND_TIME ( #89, #380 ) ;
#189 = SHAPE_REPRESENTATION_RELATIONSHIP ( 'NONE' , 'NONE' ,  #144, #324 ) ;
#190 = DIRECTION ( 'NONE',  ( 0.000000000000000000, -1.000000000000000000, 0.000000000000000000 ) ) ;
#191 =( LENGTH_UNIT ( ) NAMED_UNIT ( * ) SI_UNIT ( $, .METRE. ) );
#192 = SECURITY_CLASSIFICATION ( '', '', #355 ) ;
#193 = CC_DESIGN_APPROVAL ( #404, ( #1 ) ) ;
#194 = PRODUCT_DEFINITION ( 'UNKNOWN', '', #326, #249 ) ;
#195 = CALENDAR_DATE ( 2024, 20, 3 ) ;
#196 = AXIS2_PLACEMENT_3D ( 'NONE', #415, #320, #217 ) ;
#197 = EDGE_CURVE ( 'NONE', #187, #285, #56, .T. ) ;
#198 = PERSON_AND_ORGANIZATION ( #219, #395 ) ;
#199 = PERSON_AND_ORGANIZATION ( #219, #395 ) ;
#200 = ADVANCED_FACE ( 'NONE', ( #136 ), #227, .T. ) ;
#201 = MECHANICAL_CONTEXT ( 'NONE', #150, 'mechanical' ) ;
#202 = CC_DESIGN_PERSON_AND_ORGANIZATION_ASSIGNMENT ( #174, #208, ( #176 ) ) ;
#203 = SECURITY_CLASSIFICATION_LEVEL ( 'unclassified' ) ;
#204 = LOCAL_TIME ( 9, 14, 19.00000000000000000, #53 ) ;
#205 = SHAPE_DEFINITION_REPRESENTATION ( #90, #144 ) ;
#206 = VERTEX_POINT ( 'NONE', #353 ) ;
#207 = DATE_AND_TIME ( #317, #92 ) ;
#208 = PERSON_AND_ORGANIZATION_ROLE ( 'design_supplier' ) ;
#209 = DIRECTION ( 'NONE',  ( 0.000000000000000000, 0.000000000000000000, -1.000000000000000000 ) ) ;
#210 = CC_DESIGN_APPROVAL ( #110, ( #50 ) ) ;
#211 = APPROVAL_PERSON_ORGANIZATION ( #133, #362, #345 ) ;
#212 = APPLICATION_PROTOCOL_DEFINITION ( 'international standard', 'config_control_design', 1994, #253 ) ;
#213 = ORIENTED_EDGE ( 'NONE', *, *, #197, .F. ) ;
#214 = CALENDAR_DATE ( 2024, 20, 3 ) ;
#215 = ORIENTED_EDGE ( 'NONE', *, *, #225, .T. ) ;
#216 = APPROVAL_DATE_TIME ( #426, #404 ) ;
#217 = DIRECTION ( 'NONE',  ( -1.000000000000000000, -1.224646799147352961E-16, 0.000000000000000000 ) ) ;
#218 = CIRCLE ( 'NONE', #82, 0.001309999999999999967 ) ;
#219 = PERSON ( 'UNSPECIFIED', 'UNSPECIFIED', 'UNSPECIFIED', ('UNSPECIFIED'), ('UNSPECIFIED'), ('UNSPECIFIED') ) ;
#220 = APPROVAL_STATUS ( 'not_yet_approved' ) ;
#221 = DIRECTION ( 'NONE',  ( 1.000000000000000000, 0.000000000000000000, 0.000000000000000000 ) ) ;
#222 = PRODUCT_RELATED_PRODUCT_CATEGORY ( 'detail', '', ( #94 ) ) ;
#223 = CARTESIAN_POINT ( 'NONE',  ( 0.000000000000000000, 0.000000000000000000, 0.000000000000000000 ) ) ;
#224 = LOCAL_TIME ( 9, 14, 19.00000000000000000, #296 ) ;
#225 = EDGE_CURVE ( 'NONE', #285, #173, #233, .T. ) ;
#226 = DIRECTION ( 'NONE',  ( 0.000000000000000000, 0.000000000000000000, 1.000000000000000000 ) ) ;
#227 = TOROIDAL_SURFACE ( 'NONE', #33, 0.02495500000000000149, 0.001309999999999999967 ) ;
#228 = CALENDAR_DATE ( 2024, 20, 3 ) ;
#229 = PERSON_AND_ORGANIZATION ( #219, #395 ) ;
#230 = LOCAL_TIME ( 9, 14, 19.00000000000000000, #287 ) ;
#231 = PRODUCT_DEFINITION_SHAPE ( 'NONE', 'NONE',  #435 ) ;
#232 = DATE_TIME_ROLE ( 'creation_date' ) ;
#233 = CIRCLE ( 'NONE', #408, 0.001309999999999998666 ) ;
#234 = APPROVAL_DATE_TIME ( #29, #396 ) ;
#235 = CC_DESIGN_DATE_AND_TIME_ASSIGNMENT ( #178, #383, ( #52 ) ) ;
#236 = COORDINATED_UNIVERSAL_TIME_OFFSET ( 1, 0, .AHEAD. ) ;
#237 = AXIS2_PLACEMENT_3D ( 'NONE', #420, #226, #289 ) ;
#238 = APPROVAL_STATUS ( 'not_yet_approved' ) ;
#239 = FACE_OUTER_BOUND ( 'NONE', #105, .T. ) ;
#240 = PERSON_AND_ORGANIZATION_ROLE ( 'creator' ) ;
#241 = CARTESIAN_POINT ( 'NONE',  ( 0.000000000000000000, 0.000000000000000000, 1.604287306883035177E-19 ) ) ;
#242 =( REPRESENTATION_RELATIONSHIP ('NONE','NONE', #363, #378 ) REPRESENTATION_RELATIONSHIP_WITH_TRANSFORMATION ( #309 )SHAPE_REPRESENTATION_RELATIONSHIP( ) );
#243 = CARTESIAN_POINT ( 'NONE',  ( 0.000000000000000000, 0.000000000000000000, 0.000000000000000000 ) ) ;
#244 = LOCAL_TIME ( 9, 14, 19.00000000000000000, #167 ) ;
#245 = LOCAL_TIME ( 9, 14, 19.00000000000000000, #277 ) ;
#246 = COORDINATED_UNIVERSAL_TIME_OFFSET ( 1, 0, .AHEAD. ) ;
#247 = DIRECTION ( 'NONE',  ( -1.000000000000000000, 0.000000000000000000, 0.000000000000000000 ) ) ;
#248 = CC_DESIGN_PERSON_AND_ORGANIZATION_ASSIGNMENT ( #300, #11, ( #1 ) ) ;
#249 = DESIGN_CONTEXT ( 'detailed design', #360, 'design' ) ;
#250 = PERSON_AND_ORGANIZATION ( #219, #395 ) ;
#251 = ORIENTED_EDGE ( 'NONE', *, *, #103, .T. ) ;
#252 = CALENDAR_DATE ( 2024, 20, 3 ) ;
#253 = APPLICATION_CONTEXT ( 'configuration controlled 3d designs of mechanical parts and assemblies' ) ;
#254 = PERSON ( 'NAUO-PER1', 'UNSPECIFIED', 'UNSPECIFIED', ('UNSPECIFIED'), ('UNSPECIFIED'), ('UNSPECIFIED') ) ;
#255 = LOCAL_TIME ( 9, 14, 19.00000000000000000, #43 ) ;
#256 =( LENGTH_UNIT ( ) NAMED_UNIT ( * ) SI_UNIT ( $, .METRE. ) );
#257 = APPROVAL ( #93, 'UNSPECIFIED' ) ;
#258 = CARTESIAN_POINT ( 'NONE',  ( 0.000000000000000000, 0.000000000000000000, 0.000000000000000000 ) ) ;
#259 = CARTESIAN_POINT ( 'NONE',  ( 0.0005900000000000000296, 0.000000000000000000, 0.000000000000000000 ) ) ;
#260 = PERSON_AND_ORGANIZATION ( #219, #395 ) ;
#261 = CC_DESIGN_DATE_AND_TIME_ASSIGNMENT ( #388, #341, ( #39 ) ) ;
#262 = DESIGN_CONTEXT ( 'detailed design', #117, 'design' ) ;
#263 = PRODUCT ( '509.02.26_D_3D-Zeichnung.STEP', '509.02.26_D_3D-Zeichnung.STEP', '', ( #201 ) ) ;
#264 = APPROVAL_ROLE ( '' ) ;
#265 = PERSON_AND_ORGANIZATION ( #118, #298 ) ;
#266 = APPROVAL_ROLE ( '' ) ;
#267 = ORIENTED_EDGE ( 'NONE', *, *, #20, .T. ) ;
#268 = COORDINATED_UNIVERSAL_TIME_OFFSET ( 1, 0, .AHEAD. ) ;
#269 = APPROVAL_DATE_TIME ( #99, #257 ) ;
#270 = PRODUCT_DEFINITION_FORMATION_WITH_SPECIFIED_SOURCE ( 'ANY', '', #263, .NOT_KNOWN. ) ;
#271 = CC_DESIGN_APPROVAL ( #362, ( #36 ) ) ;
#272 = APPROVAL_ROLE ( '' ) ;
#273 = CC_DESIGN_DATE_AND_TIME_ASSIGNMENT ( #60, #232, ( #194 ) ) ;
#274 = AXIS2_PLACEMENT_3D ( 'NONE', #382, #288, #247 ) ;
#275 = PERSON_AND_ORGANIZATION ( #219, #395 ) ;
#276 = ADVANCED_FACE ( 'NONE', ( #112 ), #373, .T. ) ;
#277 = COORDINATED_UNIVERSAL_TIME_OFFSET ( 1, 0, .AHEAD. ) ;
#278 = PERSON_AND_ORGANIZATION_ROLE ( 'design_owner' ) ;
#279 = DIRECTION ( 'NONE',  ( 0.000000000000000000, 0.000000000000000000, -1.000000000000000000 ) ) ;
#280 = LOCAL_TIME ( 9, 14, 19.00000000000000000, #55 ) ;
#281 = APPROVAL_ROLE ( '' ) ;
#282 = CARTESIAN_POINT ( 'NONE',  ( -0.02495500000000000149, 0.000000000000000000, 0.000000000000000000 ) ) ;
#283 = PRODUCT_RELATED_PRODUCT_CATEGORY ( 'detail', '', ( #302 ) ) ;
#284 = APPROVAL_ROLE ( '' ) ;
#285 = VERTEX_POINT ( 'NONE', #134 ) ;
#286 = APPROVAL_PERSON_ORGANIZATION ( #68, #396, #272 ) ;
#287 = COORDINATED_UNIVERSAL_TIME_OFFSET ( 1, 0, .AHEAD. ) ;
#288 = DIRECTION ( 'NONE',  ( 0.000000000000000000, 0.000000000000000000, -1.000000000000000000 ) ) ;
#289 = DIRECTION ( 'NONE',  ( 1.000000000000000000, 0.000000000000000000, 0.000000000000000000 ) ) ;
#290 = CC_DESIGN_SECURITY_CLASSIFICATION ( #36, ( #176 ) ) ;
#291 = CARTESIAN_POINT ( 'NONE',  ( 0.000000000000000000, 0.000000000000000000, 0.000000000000000000 ) ) ;
#292 = COORDINATED_UNIVERSAL_TIME_OFFSET ( 1, 0, .AHEAD. ) ;
#293 = DIRECTION ( 'NONE',  ( 1.000000000000000000, 0.000000000000000000, 0.000000000000000000 ) ) ;
#294 = PERSON_AND_ORGANIZATION_ROLE ( 'classification_officer' ) ;
#295 = APPROVAL_PERSON_ORGANIZATION ( #313, #351, #284 ) ;
#296 = COORDINATED_UNIVERSAL_TIME_OFFSET ( 1, 0, .AHEAD. ) ;
#297 = PRODUCT_DEFINITION_SHAPE ( 'NONE', 'NONE',  #50 ) ;
#298 = ORGANIZATION ( 'NAUO-ORG2', 'UNSPECIFIED', 'UNSPECIFIED' ) ;
#299 = APPROVAL_DATE_TIME ( #400, #158 ) ;
#300 = PERSON_AND_ORGANIZATION ( #254, #61 ) ;
#301 = PERSON_AND_ORGANIZATION ( #219, #395 ) ;
#302 = PRODUCT ( 'O____48.7.STEP', 'O____48.7.STEP', '', ( #4 ) ) ;
#303 = PERSON_AND_ORGANIZATION ( #219, #395 ) ;
#304 = CC_DESIGN_PERSON_AND_ORGANIZATION_ASSIGNMENT ( #198, #370, ( #326 ) ) ;
#305 = LOCAL_TIME ( 9, 14, 19.00000000000000000, #292 ) ;
#306 = ADVANCED_FACE ( 'NONE', ( #239 ), #425, .T. ) ;
#307 = DATE_TIME_ROLE ( 'creation_date' ) ;
#308 = CLOSED_SHELL ( 'NONE', ( #306, #200, #97, #276 ) ) ;
#309 = ITEM_DEFINED_TRANSFORMATION ( 'NONE', 'NONE', #67,  #119 ) ;
#310 = APPLICATION_PROTOCOL_DEFINITION ( 'international standard', 'config_control_design', 1994, #423 ) ;
#311 = DIRECTION ( 'NONE',  ( -1.000000000000000000, 0.000000000000000000, 0.000000000000000000 ) ) ;
#312 = APPROVAL_PERSON_ORGANIZATION ( #300, #404, #58 ) ;
#313 = PERSON_AND_ORGANIZATION ( #219, #395 ) ;
#314 = ORIENTED_EDGE ( 'NONE', *, *, #225, .F. ) ;
#315 = CALENDAR_DATE ( 2024, 20, 3 ) ;
#316 = DIRECTION ( 'NONE',  ( -1.000000000000000000, 0.000000000000000000, 0.000000000000000000 ) ) ;
#317 = CALENDAR_DATE ( 2024, 20, 3 ) ;
#318 = ORIENTED_EDGE ( 'NONE', *, *, #143, .T. ) ;
#319 = CC_DESIGN_PERSON_AND_ORGANIZATION_ASSIGNMENT ( #303, #91, ( #326 ) ) ;
#320 = DIRECTION ( 'NONE',  ( -1.224646799147351975E-16, 1.000000000000000000, 0.000000000000000000 ) ) ;
#321 = UNCERTAINTY_MEASURE_WITH_UNIT (LENGTH_MEASURE( 1.000000000000000082E-05 ), #191, 'distance_accuracy_value', 'NONE');
#322 = CALENDAR_DATE ( 2024, 20, 3 ) ;
#323 =( NAMED_UNIT ( * ) SI_UNIT ( $, .STERADIAN. ) SOLID_ANGLE_UNIT ( ) );
#324 = ADVANCED_BREP_SHAPE_REPRESENTATION ( '', ( #334, #23 ), #394 ) ;
#325 =( NAMED_UNIT ( * ) PLANE_ANGLE_UNIT ( ) SI_UNIT ( $, .RADIAN. ) );
#326 = PRODUCT_DEFINITION_FORMATION_WITH_SPECIFIED_SOURCE ( 'ANY', '', #94, .NOT_KNOWN. ) ;
#327 = LOCAL_TIME ( 9, 14, 19.00000000000000000, #246 ) ;
#328 = CC_DESIGN_DATE_AND_TIME_ASSIGNMENT ( #161, #332, ( #1 ) ) ;
#329 = DIRECTION ( 'NONE',  ( 1.000000000000000000, 0.000000000000000000, 0.000000000000000000 ) ) ;
#330 = TOROIDAL_SURFACE ( 'NONE', #406, 0.02495500000000000149, 0.001309999999999999967 ) ;
#331 = COORDINATED_UNIVERSAL_TIME_OFFSET ( 1, 0, .AHEAD. ) ;
#332 = DATE_TIME_ROLE ( 'classification_date' ) ;
#333 = SHAPE_DEFINITION_REPRESENTATION ( #162, #363 ) ;
#334 = MANIFOLD_SOLID_BREP ( 'NONE', #308 ) ;
#335 = PERSON_AND_ORGANIZATION ( #219, #395 ) ;
#336 = CC_DESIGN_DATE_AND_TIME_ASSIGNMENT ( #62, #160, ( #416 ) ) ;
#337 = COORDINATED_UNIVERSAL_TIME_OFFSET ( 1, 0, .AHEAD. ) ;
#338 = APPROVAL_STATUS ( 'not_yet_approved' ) ;
#339 = APPROVAL_PERSON_ORGANIZATION ( #27, #158, #266 ) ;
#340 = CC_DESIGN_PERSON_AND_ORGANIZATION_ASSIGNMENT ( #250, #40, ( #36 ) ) ;
#341 = DATE_TIME_ROLE ( 'creation_date' ) ;
#342 = ORIENTED_EDGE ( 'NONE', *, *, #143, .F. ) ;
#343 = APPROVAL_DATE_TIME ( #391, #362 ) ;
#344 = DIRECTION ( 'NONE',  ( 0.000000000000000000, 0.000000000000000000, -1.000000000000000000 ) ) ;
#345 = APPROVAL_ROLE ( '' ) ;
#346 = ORIENTED_EDGE ( 'NONE', *, *, #197, .T. ) ;
#347 = APPROVAL_PERSON_ORGANIZATION ( #76, #116, #281 ) ;
#348 = APPROVAL_STATUS ( 'not_yet_approved' ) ;
#349 = EDGE_LOOP ( 'NONE', ( #142, #9, #318, #213 ) ) ;
#350 = CIRCLE ( 'NONE', #156, 0.02626500000000000015 ) ;
#351 = APPROVAL ( #238, 'UNSPECIFIED' ) ;
#352 = PERSON_AND_ORGANIZATION_ROLE ( 'creator' ) ;
#353 = CARTESIAN_POINT ( 'NONE',  ( -0.02626500000000000015, 0.000000000000000000, 0.000000000000000000 ) ) ;
#354 = CC_DESIGN_PERSON_AND_ORGANIZATION_ASSIGNMENT ( #260, #366, ( #94 ) ) ;
#355 = SECURITY_CLASSIFICATION_LEVEL ( 'unclassified' ) ;
#356 = DIRECTION ( 'NONE',  ( 0.000000000000000000, 0.000000000000000000, -1.000000000000000000 ) ) ;
#357 = APPROVAL_DATE_TIME ( #47, #127 ) ;
#358 =( NAMED_UNIT ( * ) PLANE_ANGLE_UNIT ( ) SI_UNIT ( $, .RADIAN. ) );
#359 = DIRECTION ( 'NONE',  ( 0.000000000000000000, 0.000000000000000000, 1.000000000000000000 ) ) ;
#360 = APPLICATION_CONTEXT ( 'configuration controlled 3d designs of mechanical parts and assemblies' ) ;
#361 =( LENGTH_UNIT ( ) NAMED_UNIT ( * ) SI_UNIT ( $, .METRE. ) );
#362 = APPROVAL ( #8, 'UNSPECIFIED' ) ;
#363 = SHAPE_REPRESENTATION ( '509.RING_D_3D-Zeichnung', ( #237, #67 ), #375 ) ;
#364 = LOCAL_TIME ( 9, 14, 19.00000000000000000, #236 ) ;
#365 = PERSON_AND_ORGANIZATION_ROLE ( 'creator' ) ;
#366 = PERSON_AND_ORGANIZATION_ROLE ( 'design_owner' ) ;
#367 = CIRCLE ( 'NONE', #79, 0.001309999999999999967 ) ;
#368 = APPLICATION_PROTOCOL_DEFINITION ( 'international standard', 'config_control_design', 1994, #377 ) ;
#369 = LOCAL_TIME ( 9, 14, 19.00000000000000000, #398 ) ;
#370 = PERSON_AND_ORGANIZATION_ROLE ( 'design_supplier' ) ;
#371 = APPLICATION_PROTOCOL_DEFINITION ( 'international standard', 'config_control_design', 1994, #150 ) ;
#372 = PERSON_AND_ORGANIZATION ( #219, #395 ) ;
#373 = TOROIDAL_SURFACE ( 'NONE', #183, 0.02495500000000000149, 0.001309999999999999967 ) ;
#374 = CC_DESIGN_PERSON_AND_ORGANIZATION_ASSIGNMENT ( #71, #352, ( #176 ) ) ;
#375 =( GEOMETRIC_REPRESENTATION_CONTEXT ( 3 ) GLOBAL_UNCERTAINTY_ASSIGNED_CONTEXT ( ( #147 ) ) GLOBAL_UNIT_ASSIGNED_CONTEXT ( ( #256, #358, #323 ) ) REPRESENTATION_CONTEXT ( 'NONE', 'WORKASPACE' ) );
#376 = PERSON_AND_ORGANIZATION_ROLE ( 'classification_officer' ) ;
#377 = APPLICATION_CONTEXT ( 'configuration controlled 3d designs of mechanical parts and assemblies' ) ;
#378 = SHAPE_REPRESENTATION ( '509.02.26_D_3D-Zeichnung.STEP', ( #119, #45 ), #10 ) ;
#379 = SECURITY_CLASSIFICATION_LEVEL ( 'unclassified' ) ;
#380 = LOCAL_TIME ( 9, 14, 19.00000000000000000, #268 ) ;
#381 = APPROVAL_ROLE ( '' ) ;
#382 = CARTESIAN_POINT ( 'NONE',  ( 0.000000000000000000, 0.000000000000000000, 1.604287306883035177E-19 ) ) ;
#383 = DATE_TIME_ROLE ( 'classification_date' ) ;
#384 = DIRECTION ( 'NONE',  ( -1.000000000000000000, -1.224646799147352961E-16, 0.000000000000000000 ) ) ;
#385 = CC_DESIGN_APPROVAL ( #158, ( #326 ) ) ;
#386 = CC_DESIGN_SECURITY_CLASSIFICATION ( #1, ( #434 ) ) ;
#387 = CC_DESIGN_PERSON_AND_ORGANIZATION_ASSIGNMENT ( #275, #376, ( #52 ) ) ;
#388 = DATE_AND_TIME ( #172, #402 ) ;
#389 = FACE_OUTER_BOUND ( 'NONE', #349, .T. ) ;
#390 = EDGE_CURVE ( 'NONE', #206, #173, #42, .T. ) ;
#391 = DATE_AND_TIME ( #141, #245 ) ;
#392 = CARTESIAN_POINT ( 'NONE',  ( 0.000000000000000000, 0.000000000000000000, 0.000000000000000000 ) ) ;
#393 = DIRECTION ( 'NONE',  ( 0.000000000000000000, 0.000000000000000000, 1.000000000000000000 ) ) ;
#394 =( GEOMETRIC_REPRESENTATION_CONTEXT ( 3 ) GLOBAL_UNCERTAINTY_ASSIGNED_CONTEXT ( ( #46 ) ) GLOBAL_UNIT_ASSIGNED_CONTEXT ( ( #361, #325, #57 ) ) REPRESENTATION_CONTEXT ( 'NONE', 'WORKASPACE' ) );
#395 = ORGANIZATION ( 'UNSPECIFIED', 'UNSPECIFIED', '' ) ;
#396 = APPROVAL ( #126, 'UNSPECIFIED' ) ;
#397 = LOCAL_TIME ( 9, 14, 19.00000000000000000, #331 ) ;
#398 = COORDINATED_UNIVERSAL_TIME_OFFSET ( 1, 0, .AHEAD. ) ;
#399 = PERSON_AND_ORGANIZATION_ROLE ( 'creator' ) ;
#400 = DATE_AND_TIME ( #65, #107 ) ;
#401 = CC_DESIGN_APPROVAL ( #413, ( #194 ) ) ;
#402 = LOCAL_TIME ( 9, 14, 19.00000000000000000, #130 ) ;
#403 = CALENDAR_DATE ( 2024, 20, 3 ) ;
#404 = APPROVAL ( #37, 'UNKNOWN' ) ;
#405 = DATE_AND_TIME ( #407, #87 ) ;
#406 = AXIS2_PLACEMENT_3D ( 'NONE', #5, #72, #409 ) ;
#407 = CALENDAR_DATE ( 2024, 20, 3 ) ;
#408 = AXIS2_PLACEMENT_3D ( 'NONE', #418, #106, #384 ) ;
#409 = DIRECTION ( 'NONE',  ( -1.000000000000000000, 0.000000000000000000, 0.000000000000000000 ) ) ;
#410 = COORDINATED_UNIVERSAL_TIME_OFFSET ( 1, 0, .AHEAD. ) ;
#411 = DIRECTION ( 'NONE',  ( -1.000000000000000000, 0.000000000000000000, 0.000000000000000000 ) ) ;
#412 = CARTESIAN_POINT ( 'NONE',  ( -0.02364499999999999935, 0.000000000000000000, 1.604287306883030122E-19 ) ) ;
#413 = APPROVAL ( #220, 'UNSPECIFIED' ) ;
#414 = DATE_AND_TIME ( #104, #132 ) ;
#415 = CARTESIAN_POINT ( 'NONE',  ( 0.02495500000000000149, 3.056106087272220064E-18, 0.000000000000000000 ) ) ;
#416 = SECURITY_CLASSIFICATION ( '', '', #203 ) ;
#417 = PERSON_AND_ORGANIZATION ( #219, #395 ) ;
#418 = CARTESIAN_POINT ( 'NONE',  ( 0.02495500000000000149, 3.056106087272220064E-18, 0.000000000000000000 ) ) ;
#419 = CC_DESIGN_PERSON_AND_ORGANIZATION_ASSIGNMENT ( #181, #278, ( #302 ) ) ;
#420 = CARTESIAN_POINT ( 'NONE',  ( 0.000000000000000000, 0.000000000000000000, 0.000000000000000000 ) ) ;
#421 = APPROVAL_PERSON_ORGANIZATION ( #417, #75, #381 ) ;
#422 = CALENDAR_DATE ( 2024, 20, 3 ) ;
#423 = APPLICATION_CONTEXT ( 'configuration controlled 3d designs of mechanical parts and assemblies' ) ;
#424 = CC_DESIGN_PERSON_AND_ORGANIZATION_ASSIGNMENT ( #372, #88, ( #270 ) ) ;
#425 = TOROIDAL_SURFACE ( 'NONE', #98, 0.02495500000000000149, 0.001309999999999999967 ) ;
#426 = DATE_AND_TIME ( #252, #255 ) ;
#427 = EDGE_CURVE ( 'NONE', #206, #187, #218, .T. ) ;
#428 = APPROVAL_DATE_TIME ( #405, #110 ) ;
#429 = DATE_TIME_ROLE ( 'classification_date' ) ;
#430 = PERSON_AND_ORGANIZATION_ROLE ( 'design_owner' ) ;
#431 = CC_DESIGN_DATE_AND_TIME_ASSIGNMENT ( #207, #101, ( #36 ) ) ;
#432 = APPROVAL_PERSON_ORGANIZATION ( #335, #110, #166 ) ;
#433 = COORDINATED_UNIVERSAL_TIME_OFFSET ( 1, 0, .AHEAD. ) ;
#434 = NEXT_ASSEMBLY_USAGE_OCCURRENCE ( 'NAUO1', ' ', ' ', #194, #50, $ ) ;
#435 = NEXT_ASSEMBLY_USAGE_OCCURRENCE ( 'NAUO2', ' ', ' ', #50, #39, $ ) ;
ENDSEC;
END-ISO-10303-21;
