ISO-10303-21;
HEADER;
FILE_DESCRIPTION (( 'STEP AP203' ),
    '1' );
FILE_NAME ('409.RING_D_3D-Zeichnung.STEP',
    '2024-03-20T08:12:55',
    ( '' ),
    ( '' ),
    'SwSTEP 2.0',
    'SolidWorks 2023',
    '' );
FILE_SCHEMA (( 'CONFIG_CONTROL_DESIGN' ));
ENDSEC;

DATA;
#1 = CALENDAR_DATE ( 2024, 20, 3 ) ;
#2 = AXIS2_PLACEMENT_3D ( 'NONE', #384, #130, #267 ) ;
#3 = AXIS2_PLACEMENT_3D ( 'NONE', #86, #54, #329 ) ;
#4 = LOCAL_TIME ( 9, 12, 55.00000000000000000, #381 ) ;
#5 = APPROVAL_ROLE ( '' ) ;
#6 = CARTESIAN_POINT ( 'NONE',  ( 0.000000000000000000, 0.000000000000000000, 0.000000000000000000 ) ) ;
#7 = COORDINATED_UNIVERSAL_TIME_OFFSET ( 1, 0, .AHEAD. ) ;
#8 = DIRECTION ( 'NONE',  ( 0.000000000000000000, 0.000000000000000000, 1.000000000000000000 ) ) ;
#9 = DATE_AND_TIME ( #413, #428 ) ;
#10 = APPLICATION_PROTOCOL_DEFINITION ( 'international standard', 'config_control_design', 1994, #324 ) ;
#11 = AXIS2_PLACEMENT_3D ( 'NONE', #61, #335, #32 ) ;
#12 = CC_DESIGN_APPROVAL ( #134, ( #182 ) ) ;
#13 = CALENDAR_DATE ( 2024, 20, 3 ) ;
#14 = CC_DESIGN_PERSON_AND_ORGANIZATION_ASSIGNMENT ( #97, #236, ( #53 ) ) ;
#15 = APPROVAL_ROLE ( '' ) ;
#16 = PERSON_AND_ORGANIZATION ( #108, #293 ) ;
#17 = CONTEXT_DEPENDENT_SHAPE_REPRESENTATION ( #349, #201 ) ;
#18 = PERSON_AND_ORGANIZATION_ROLE ( 'creator' ) ;
#19 = EDGE_CURVE ( 'NONE', #81, #265, #317, .T. ) ;
#20 = CC_DESIGN_DATE_AND_TIME_ASSIGNMENT ( #252, #277, ( #390 ) ) ;
#21 = AXIS2_PLACEMENT_3D ( 'NONE', #89, #299, #373 ) ;
#22 = CC_DESIGN_APPROVAL ( #313, ( #138 ) ) ;
#23 = CC_DESIGN_APPROVAL ( #345, ( #353 ) ) ;
#24 = APPROVAL ( #167, 'UNSPECIFIED' ) ;
#25 = CC_DESIGN_PERSON_AND_ORGANIZATION_ASSIGNMENT ( #16, #18, ( #104 ) ) ;
#26 = CC_DESIGN_DATE_AND_TIME_ASSIGNMENT ( #9, #380, ( #353 ) ) ;
#27 = CALENDAR_DATE ( 2024, 20, 3 ) ;
#28 = CARTESIAN_POINT ( 'NONE',  ( 0.000000000000000000, 0.000000000000000000, 0.000000000000000000 ) ) ;
#29 = LOCAL_TIME ( 9, 12, 55.00000000000000000, #328 ) ;
#30 = PERSON_AND_ORGANIZATION ( #108, #293 ) ;
#31 = DIRECTION ( 'NONE',  ( -1.000000000000000000, 0.000000000000000000, 0.000000000000000000 ) ) ;
#32 = DIRECTION ( 'NONE',  ( -1.000000000000000000, 0.000000000000000000, 0.000000000000000000 ) ) ;
#33 = UNCERTAINTY_MEASURE_WITH_UNIT (LENGTH_MEASURE( 1.000000000000000082E-05 ), #229, 'distance_accuracy_value', 'NONE');
#34 = DIRECTION ( 'NONE',  ( 0.000000000000000000, 0.000000000000000000, 1.000000000000000000 ) ) ;
#35 = APPLICATION_CONTEXT ( 'configuration controlled 3d designs of mechanical parts and assemblies' ) ;
#36 = APPROVAL_PERSON_ORGANIZATION ( #145, #345, #149 ) ;
#37 = APPROVAL_ROLE ( '' ) ;
#38 = COORDINATED_UNIVERSAL_TIME_OFFSET ( 1, 0, .AHEAD. ) ;
#39 = APPROVAL_STATUS ( 'not_yet_approved' ) ;
#40 = PERSON_AND_ORGANIZATION ( #108, #293 ) ;
#41 = DATE_AND_TIME ( #13, #323 ) ;
#42 = AXIS2_PLACEMENT_3D ( 'NONE', #136, #303, #204 ) ;
#43 =( GEOMETRIC_REPRESENTATION_CONTEXT ( 3 ) GLOBAL_UNCERTAINTY_ASSIGNED_CONTEXT ( ( #125 ) ) GLOBAL_UNIT_ASSIGNED_CONTEXT ( ( #232, #333, #371 ) ) REPRESENTATION_CONTEXT ( 'NONE', 'WORKASPACE' ) );
#44 = CONTEXT_DEPENDENT_SHAPE_REPRESENTATION ( #297, #392 ) ;
#45 = APPROVAL_ROLE ( '' ) ;
#46 = DATE_AND_TIME ( #414, #251 ) ;
#47 = TOROIDAL_SURFACE ( 'NONE', #173, 0.02000499999999999848, 0.001309999999999999967 ) ;
#48 = ORIENTED_EDGE ( 'NONE', *, *, #19, .F. ) ;
#49 = APPROVAL_ROLE ( '' ) ;
#50 = PRODUCT ( 'O____38.7.STEP', 'O____38.7.STEP', '', ( #169 ) ) ;
#51 = CC_DESIGN_PERSON_AND_ORGANIZATION_ASSIGNMENT ( #140, #377, ( #50 ) ) ;
#52 = TOROIDAL_SURFACE ( 'NONE', #364, 0.02000499999999999848, 0.001309999999999999967 ) ;
#53 = PRODUCT_DEFINITION_FORMATION_WITH_SPECIFIED_SOURCE ( 'ANY', '', #50, .NOT_KNOWN. ) ;
#54 = DIRECTION ( 'NONE',  ( -1.224646799147355919E-16, 1.000000000000000000, 0.000000000000000000 ) ) ;
#55 = UNCERTAINTY_MEASURE_WITH_UNIT (LENGTH_MEASURE( 1.000000000000000082E-05 ), #58, 'distance_accuracy_value', 'NONE');
#56 = ADVANCED_FACE ( 'NONE', ( #171 ), #283, .T. ) ;
#57 = MANIFOLD_SOLID_BREP ( 'NONE', #137 ) ;
#58 =( LENGTH_UNIT ( ) NAMED_UNIT ( * ) SI_UNIT ( $, .METRE. ) );
#59 = DIRECTION ( 'NONE',  ( 0.000000000000000000, 0.000000000000000000, -1.000000000000000000 ) ) ;
#60 = LOCAL_TIME ( 9, 12, 55.00000000000000000, #119 ) ;
#61 = CARTESIAN_POINT ( 'NONE',  ( 0.000000000000000000, 0.000000000000000000, 1.604287306883035177E-19 ) ) ;
#62 = SECURITY_CLASSIFICATION_LEVEL ( 'unclassified' ) ;
#63 = DIRECTION ( 'NONE',  ( 0.000000000000000000, -1.000000000000000000, 0.000000000000000000 ) ) ;
#64 = SHAPE_DEFINITION_REPRESENTATION ( #269, #85 ) ;
#65 = CARTESIAN_POINT ( 'NONE',  ( 9.000000000000000567E-05, 0.000000000000000000, 0.000000000000000000 ) ) ;
#66 = CC_DESIGN_PERSON_AND_ORGANIZATION_ASSIGNMENT ( #194, #123, ( #244 ) ) ;
#67 = APPROVAL_STATUS ( 'not_yet_approved' ) ;
#68 = DIRECTION ( 'NONE',  ( 1.000000000000000000, 0.000000000000000000, 0.000000000000000000 ) ) ;
#69 = APPROVAL_PERSON_ORGANIZATION ( #74, #216, #146 ) ;
#70 = COORDINATED_UNIVERSAL_TIME_OFFSET ( 1, 0, .AHEAD. ) ;
#71 = CALENDAR_DATE ( 2024, 20, 3 ) ;
#72 = CC_DESIGN_PERSON_AND_ORGANIZATION_ASSIGNMENT ( #418, #311, ( #279 ) ) ;
#73 = DATE_AND_TIME ( #179, #261 ) ;
#74 = PERSON_AND_ORGANIZATION ( #108, #293 ) ;
#75 = SHAPE_DEFINITION_REPRESENTATION ( #228, #200 ) ;
#76 = APPROVAL_STATUS ( 'not_yet_approved' ) ;
#77 = PERSON_AND_ORGANIZATION ( #108, #293 ) ;
#78 = APPROVAL_STATUS ( 'not_yet_approved' ) ;
#79 = APPLICATION_PROTOCOL_DEFINITION ( 'international standard', 'config_control_design', 1994, #257 ) ;
#80 = COORDINATED_UNIVERSAL_TIME_OFFSET ( 1, 0, .AHEAD. ) ;
#81 = VERTEX_POINT ( 'NONE', #304 ) ;
#82 =( GEOMETRIC_REPRESENTATION_CONTEXT ( 3 ) GLOBAL_UNCERTAINTY_ASSIGNED_CONTEXT ( ( #55 ) ) GLOBAL_UNIT_ASSIGNED_CONTEXT ( ( #58, #199, #164 ) ) REPRESENTATION_CONTEXT ( 'NONE', 'WORKASPACE' ) );
#83 = ORIENTED_EDGE ( 'NONE', *, *, #289, .T. ) ;
#84 = APPROVAL_DATE_TIME ( #124, #155 ) ;
#85 = SHAPE_REPRESENTATION ( '409.02.20_D_3D-Zeichnung.STEP', ( #98, #352 ), #82 ) ;
#86 = CARTESIAN_POINT ( 'NONE',  ( 0.02000499999999999848, 2.449905921694279720E-18, 0.000000000000000000 ) ) ;
#87 = CC_DESIGN_PERSON_AND_ORGANIZATION_ASSIGNMENT ( #143, #135, ( #353 ) ) ;
#88 = CC_DESIGN_SECURITY_CLASSIFICATION ( #353, ( #53 ) ) ;
#89 = CARTESIAN_POINT ( 'NONE',  ( 0.02000499999999999848, 2.449905921694279720E-18, 0.000000000000000000 ) ) ;
#90 = PRODUCT ( '409.02.20_D_3D-Zeichnung.STEP', '409.02.20_D_3D-Zeichnung.STEP', '', ( #354 ) ) ;
#91 = CALENDAR_DATE ( 2024, 20, 3 ) ;
#92 = DIRECTION ( 'NONE',  ( -1.000000000000000000, 0.000000000000000000, 0.000000000000000000 ) ) ;
#93 = COORDINATED_UNIVERSAL_TIME_OFFSET ( 1, 0, .AHEAD. ) ;
#94 = CARTESIAN_POINT ( 'NONE',  ( 0.000000000000000000, 0.000000000000000000, 0.000000000000000000 ) ) ;
#95 = CARTESIAN_POINT ( 'NONE',  ( 0.000000000000000000, 0.000000000000000000, 0.000000000000000000 ) ) ;
#96 = DESIGN_CONTEXT ( 'detailed design', #405, 'design' ) ;
#97 = PERSON_AND_ORGANIZATION ( #108, #293 ) ;
#98 = AXIS2_PLACEMENT_3D ( 'NONE', #240, #264, #68 ) ;
#99 = CC_DESIGN_SECURITY_CLASSIFICATION ( #182, ( #244 ) ) ;
#100 = CARTESIAN_POINT ( 'NONE',  ( 0.000000000000000000, 0.000000000000000000, 0.000000000000000000 ) ) ;
#101 = DATE_AND_TIME ( #27, #156 ) ;
#102 = CC_DESIGN_DATE_AND_TIME_ASSIGNMENT ( #332, #407, ( #182 ) ) ;
#103 = DATE_AND_TIME ( #273, #318 ) ;
#104 = PRODUCT_DEFINITION ( 'UNKNOWN', '', #279, #295 ) ;
#105 = COORDINATED_UNIVERSAL_TIME_OFFSET ( 1, 0, .AHEAD. ) ;
#106 = CC_DESIGN_PERSON_AND_ORGANIZATION_ASSIGNMENT ( #411, #315, ( #138 ) ) ;
#107 = LOCAL_TIME ( 9, 12, 55.00000000000000000, #241 ) ;
#108 = PERSON ( 'UNSPECIFIED', 'UNSPECIFIED', 'UNSPECIFIED', ('UNSPECIFIED'), ('UNSPECIFIED'), ('UNSPECIFIED') ) ;
#109 = ORGANIZATION ( 'NAUO-ORG2', 'UNSPECIFIED', 'UNSPECIFIED' ) ;
#110 = PERSON_AND_ORGANIZATION_ROLE ( 'classification_officer' ) ;
#111 = SHAPE_DEFINITION_REPRESENTATION ( #166, #408 ) ;
#112 = CALENDAR_DATE ( 2024, 20, 3 ) ;
#113 = APPLICATION_CONTEXT ( 'configuration controlled 3d designs of mechanical parts and assemblies' ) ;
#114 = APPROVAL_DATE_TIME ( #218, #262 ) ;
#115 = CC_DESIGN_APPROVAL ( #230, ( #279 ) ) ;
#116 = CALENDAR_DATE ( 2024, 20, 3 ) ;
#117 = PERSON_AND_ORGANIZATION_ROLE ( 'design_supplier' ) ;
#118 = PRODUCT_DEFINITION ( 'UNKNOWN', '', #53, #395 ) ;
#119 = COORDINATED_UNIVERSAL_TIME_OFFSET ( 1, 0, .AHEAD. ) ;
#120 = EDGE_CURVE ( 'NONE', #331, #424, #249, .T. ) ;
#121 = EDGE_LOOP ( 'NONE', ( #369, #48, #260, #294 ) ) ;
#122 = ORGANIZATION ( 'NAUO-ORG1', 'UNSPECIFIED', 'UNSPECIFIED' ) ;
#123 = PERSON_AND_ORGANIZATION_ROLE ( 'creator' ) ;
#124 = DATE_AND_TIME ( #161, #174 ) ;
#125 = UNCERTAINTY_MEASURE_WITH_UNIT (LENGTH_MEASURE( 1.000000000000000082E-05 ), #232, 'distance_accuracy_value', 'NONE');
#126 = CC_DESIGN_SECURITY_CLASSIFICATION ( #217, ( #279 ) ) ;
#127 = DIRECTION ( 'NONE',  ( -1.000000000000000000, 0.000000000000000000, 0.000000000000000000 ) ) ;
#128 = ORIENTED_EDGE ( 'NONE', *, *, #120, .F. ) ;
#129 = DIRECTION ( 'NONE',  ( 1.000000000000000000, 0.000000000000000000, 0.000000000000000000 ) ) ;
#130 = DIRECTION ( 'NONE',  ( 0.000000000000000000, -1.000000000000000000, 0.000000000000000000 ) ) ;
#131 = PERSON_AND_ORGANIZATION ( #108, #293 ) ;
#132 =( NAMED_UNIT ( * ) PLANE_ANGLE_UNIT ( ) SI_UNIT ( $, .RADIAN. ) );
#133 = DIRECTION ( 'NONE',  ( -1.000000000000000000, 0.000000000000000000, 0.000000000000000000 ) ) ;
#134 = APPROVAL ( #67, 'UNSPECIFIED' ) ;
#135 = PERSON_AND_ORGANIZATION_ROLE ( 'classification_officer' ) ;
#136 = CARTESIAN_POINT ( 'NONE',  ( 0.000000000000000000, 0.000000000000000000, 0.000000000000000000 ) ) ;
#137 = CLOSED_SHELL ( 'NONE', ( #344, #276, #190, #56 ) ) ;
#138 = SECURITY_CLASSIFICATION ( '', '', #253 ) ;
#139 = ORIENTED_EDGE ( 'NONE', *, *, #374, .T. ) ;
#140 = PERSON_AND_ORGANIZATION ( #108, #293 ) ;
#141 = EDGE_CURVE ( 'NONE', #424, #81, #250, .T. ) ;
#142 = CC_DESIGN_PERSON_AND_ORGANIZATION_ASSIGNMENT ( #370, #177, ( #53 ) ) ;
#143 = PERSON_AND_ORGANIZATION ( #108, #293 ) ;
#144 = APPLICATION_PROTOCOL_DEFINITION ( 'international standard', 'config_control_design', 1994, #233 ) ;
#145 = PERSON_AND_ORGANIZATION ( #108, #293 ) ;
#146 = APPROVAL_ROLE ( '' ) ;
#147 = TOROIDAL_SURFACE ( 'NONE', #235, 0.02000499999999999848, 0.001309999999999999967 ) ;
#148 = CC_DESIGN_APPROVAL ( #216, ( #217 ) ) ;
#149 = APPROVAL_ROLE ( '' ) ;
#150 = COORDINATED_UNIVERSAL_TIME_OFFSET ( 1, 0, .AHEAD. ) ;
#151 = APPROVAL_DATE_TIME ( #346, #313 ) ;
#152 = APPROVAL_STATUS ( 'not_yet_approved' ) ;
#153 = DATE_AND_TIME ( #157, #203 ) ;
#154 = DATE_AND_TIME ( #71, #192 ) ;
#155 = APPROVAL ( #195, 'UNSPECIFIED' ) ;
#156 = LOCAL_TIME ( 9, 12, 55.00000000000000000, #93 ) ;
#157 = CALENDAR_DATE ( 2024, 20, 3 ) ;
#158 = CC_DESIGN_DATE_AND_TIME_ASSIGNMENT ( #73, #214, ( #138 ) ) ;
#159 = PERSON_AND_ORGANIZATION_ROLE ( 'creator' ) ;
#160 = APPROVAL_PERSON_ORGANIZATION ( #316, #185, #184 ) ;
#161 = CALENDAR_DATE ( 2024, 20, 3 ) ;
#162 = DIRECTION ( 'NONE',  ( -1.000000000000000000, 0.000000000000000000, 0.000000000000000000 ) ) ;
#163 = APPROVAL_PERSON_ORGANIZATION ( #30, #24, #5 ) ;
#164 =( NAMED_UNIT ( * ) SI_UNIT ( $, .STERADIAN. ) SOLID_ANGLE_UNIT ( ) );
#165 = EDGE_LOOP ( 'NONE', ( #325, #258, #391, #223 ) ) ;
#166 = PRODUCT_DEFINITION_SHAPE ( 'NONE', 'NONE',  #104 ) ;
#167 = APPROVAL_STATUS ( 'not_yet_approved' ) ;
#168 = CARTESIAN_POINT ( 'NONE',  ( -0.02131500000000000061, 0.000000000000000000, 0.000000000000000000 ) ) ;
#169 = MECHANICAL_CONTEXT ( 'NONE', #113, 'mechanical' ) ;
#170 = DIRECTION ( 'NONE',  ( 0.000000000000000000, 0.000000000000000000, -1.000000000000000000 ) ) ;
#171 = FACE_OUTER_BOUND ( 'NONE', #362, .T. ) ;
#172 = APPROVAL_DATE_TIME ( #101, #134 ) ;
#173 = AXIS2_PLACEMENT_3D ( 'NONE', #100, #59, #133 ) ;
#174 = LOCAL_TIME ( 9, 12, 55.00000000000000000, #197 ) ;
#175 = APPROVAL_PERSON_ORGANIZATION ( #411, #313, #15 ) ;
#176 = APPROVAL ( #78, 'UNKNOWN' ) ;
#177 = PERSON_AND_ORGANIZATION_ROLE ( 'design_supplier' ) ;
#178 = DIRECTION ( 'NONE',  ( 1.000000000000000000, 0.000000000000000000, 0.000000000000000000 ) ) ;
#179 = CALENDAR_DATE ( 2024, 20, 3 ) ;
#180 = APPLICATION_PROTOCOL_DEFINITION ( 'international standard', 'config_control_design', 1994, #405 ) ;
#181 = AXIS2_PLACEMENT_3D ( 'NONE', #205, #327, #433 ) ;
#182 = SECURITY_CLASSIFICATION ( '', '', #288 ) ;
#183 = ITEM_DEFINED_TRANSFORMATION ( 'NONE', 'NONE', #352,  #42 ) ;
#184 = APPROVAL_ROLE ( '' ) ;
#185 = APPROVAL ( #152, 'UNSPECIFIED' ) ;
#186 = PERSON_AND_ORGANIZATION ( #193, #122 ) ;
#187 = DATE_TIME_ROLE ( 'creation_date' ) ;
#188 = COORDINATED_UNIVERSAL_TIME_OFFSET ( 1, 0, .AHEAD. ) ;
#189 = ORIENTED_EDGE ( 'NONE', *, *, #141, .F. ) ;
#190 = ADVANCED_FACE ( 'NONE', ( #263 ), #52, .T. ) ;
#191 = CIRCLE ( 'NONE', #2, 0.001309999999999999967 ) ;
#192 = LOCAL_TIME ( 9, 12, 55.00000000000000000, #105 ) ;
#193 = PERSON ( 'NAUO-PER1', 'UNSPECIFIED', 'UNSPECIFIED', ('UNSPECIFIED'), ('UNSPECIFIED'), ('UNSPECIFIED') ) ;
#194 = PERSON_AND_ORGANIZATION ( #108, #293 ) ;
#195 = APPROVAL_STATUS ( 'not_yet_approved' ) ;
#196 = AXIS2_PLACEMENT_3D ( 'NONE', #28, #8, #178 ) ;
#197 = COORDINATED_UNIVERSAL_TIME_OFFSET ( 1, 0, .AHEAD. ) ;
#198 = PRODUCT_DEFINITION ( 'UNKNOWN', '', #244, #96 ) ;
#199 =( NAMED_UNIT ( * ) PLANE_ANGLE_UNIT ( ) SI_UNIT ( $, .RADIAN. ) );
#200 = SHAPE_REPRESENTATION ( 'O____38.7.STEP', ( #42 ), #389 ) ;
#201 = PRODUCT_DEFINITION_SHAPE ( 'NONE', 'NONE',  #435 ) ;
#202 = EDGE_CURVE ( 'NONE', #81, #424, #255, .T. ) ;
#203 = LOCAL_TIME ( 9, 12, 55.00000000000000000, #320 ) ;
#204 = DIRECTION ( 'NONE',  ( 1.000000000000000000, 0.000000000000000000, 0.000000000000000000 ) ) ;
#205 = CARTESIAN_POINT ( 'NONE',  ( 0.000000000000000000, 0.000000000000000000, 1.604287306883035177E-19 ) ) ;
#206 = DIRECTION ( 'NONE',  ( 0.000000000000000000, 2.888000000000000134E-11, 1.000000000000000000 ) ) ;
#207 = APPROVAL_ROLE ( '' ) ;
#208 = SHAPE_REPRESENTATION_RELATIONSHIP ( 'NONE' , 'NONE' ,  #200, #227 ) ;
#209 = DATE_AND_TIME ( #1, #237 ) ;
#210 = PERSON_AND_ORGANIZATION_ROLE ( 'classification_officer' ) ;
#211 = CC_DESIGN_SECURITY_CLASSIFICATION ( #138, ( #435 ) ) ;
#212 = CALENDAR_DATE ( 2024, 20, 3 ) ;
#213 = DATE_AND_TIME ( #321, #286 ) ;
#214 = DATE_TIME_ROLE ( 'classification_date' ) ;
#215 = PERSON_AND_ORGANIZATION ( #108, #293 ) ;
#216 = APPROVAL ( #76, 'UNSPECIFIED' ) ;
#217 = SECURITY_CLASSIFICATION ( '', '', #278 ) ;
#218 = DATE_AND_TIME ( #351, #4 ) ;
#219 = DATE_AND_TIME ( #116, #410 ) ;
#220 = EDGE_CURVE ( 'NONE', #424, #331, #340, .T. ) ;
#221 = AXIS2_PLACEMENT_3D ( 'NONE', #339, #63, #290 ) ;
#222 = APPROVAL_PERSON_ORGANIZATION ( #254, #155, #49 ) ;
#223 = ORIENTED_EDGE ( 'NONE', *, *, #202, .F. ) ;
#224 = PERSON_AND_ORGANIZATION ( #108, #293 ) ;
#225 = CC_DESIGN_PERSON_AND_ORGANIZATION_ASSIGNMENT ( #398, #159, ( #198 ) ) ;
#226 = CC_DESIGN_APPROVAL ( #385, ( #53 ) ) ;
#227 = ADVANCED_BREP_SHAPE_REPRESENTATION ( '', ( #57, #42 ), #389 ) ;
#228 = PRODUCT_DEFINITION_SHAPE ( 'NONE', 'NONE',  #118 ) ;
#229 =( LENGTH_UNIT ( ) NAMED_UNIT ( * ) SI_UNIT ( $, .METRE. ) );
#230 = APPROVAL ( #409, 'UNSPECIFIED' ) ;
#231 = CC_DESIGN_PERSON_AND_ORGANIZATION_ASSIGNMENT ( #186, #110, ( #390 ) ) ;
#232 =( LENGTH_UNIT ( ) NAMED_UNIT ( * ) SI_UNIT ( $, .METRE. ) );
#233 = APPLICATION_CONTEXT ( 'configuration controlled 3d designs of mechanical parts and assemblies' ) ;
#234 = DIRECTION ( 'NONE',  ( -1.000000000000000000, 0.000000000000000000, 0.000000000000000000 ) ) ;
#235 = AXIS2_PLACEMENT_3D ( 'NONE', #6, #309, #162 ) ;
#236 = PERSON_AND_ORGANIZATION_ROLE ( 'creator' ) ;
#237 = LOCAL_TIME ( 9, 12, 55.00000000000000000, #401 ) ;
#238 = FACE_OUTER_BOUND ( 'NONE', #121, .T. ) ;
#239 = PERSON_AND_ORGANIZATION ( #108, #293 ) ;
#240 = CARTESIAN_POINT ( 'NONE',  ( 0.000000000000000000, 0.000000000000000000, 0.000000000000000000 ) ) ;
#241 = COORDINATED_UNIVERSAL_TIME_OFFSET ( 1, 0, .AHEAD. ) ;
#242 = PERSON_AND_ORGANIZATION_ROLE ( 'design_owner' ) ;
#243 = CIRCLE ( 'NONE', #417, 0.02131500000000000061 ) ;
#244 = PRODUCT_DEFINITION_FORMATION_WITH_SPECIFIED_SOURCE ( 'ANY', '', #90, .NOT_KNOWN. ) ;
#245 = APPROVAL_STATUS ( 'not_yet_approved' ) ;
#246 = COORDINATED_UNIVERSAL_TIME_OFFSET ( 1, 0, .AHEAD. ) ;
#247 = ITEM_DEFINED_TRANSFORMATION ( 'NONE', 'NONE', #305,  #98 ) ;
#248 = DATE_AND_TIME ( #382, #422 ) ;
#249 = CIRCLE ( 'NONE', #3, 0.001309999999999998666 ) ;
#250 = CIRCLE ( 'NONE', #181, 0.01869499999999999981 ) ;
#251 = LOCAL_TIME ( 9, 12, 55.00000000000000000, #150 ) ;
#252 = DATE_AND_TIME ( #322, #60 ) ;
#253 = SECURITY_CLASSIFICATION_LEVEL ( 'unclassified' ) ;
#254 = PERSON_AND_ORGANIZATION ( #108, #293 ) ;
#255 = CIRCLE ( 'NONE', #11, 0.01869499999999999981 ) ;
#256 = APPROVAL_PERSON_ORGANIZATION ( #275, #262, #280 ) ;
#257 = APPLICATION_CONTEXT ( 'configuration controlled 3d designs of mechanical parts and assemblies' ) ;
#258 = ORIENTED_EDGE ( 'NONE', *, *, #312, .T. ) ;
#259 = PRODUCT_RELATED_PRODUCT_CATEGORY ( 'detail', '', ( #334 ) ) ;
#260 = ORIENTED_EDGE ( 'NONE', *, *, #202, .T. ) ;
#261 = LOCAL_TIME ( 9, 12, 55.00000000000000000, #387 ) ;
#262 = APPROVAL ( #378, 'UNSPECIFIED' ) ;
#263 = FACE_OUTER_BOUND ( 'NONE', #165, .T. ) ;
#264 = DIRECTION ( 'NONE',  ( 0.000000000000000000, 0.000000000000000000, 1.000000000000000000 ) ) ;
#265 = VERTEX_POINT ( 'NONE', #168 ) ;
#266 = PERSON ( 'NAUO-PER2', 'UNSPECIFIED', 'UNSPECIFIED', ('UNSPECIFIED'), ('UNSPECIFIED'), ('UNSPECIFIED') ) ;
#267 = DIRECTION ( 'NONE',  ( 0.000000000000000000, 0.000000000000000000, -1.000000000000000000 ) ) ;
#268 = DIRECTION ( 'NONE',  ( 0.000000000000000000, 0.000000000000000000, 1.000000000000000000 ) ) ;
#269 = PRODUCT_DEFINITION_SHAPE ( 'NONE', 'NONE',  #198 ) ;
#270 = DIRECTION ( 'NONE',  ( -1.000000000000000000, 0.000000000000000000, 0.000000000000000000 ) ) ;
#271 = APPLICATION_PROTOCOL_DEFINITION ( 'international standard', 'config_control_design', 1994, #35 ) ;
#272 = APPROVAL_PERSON_ORGANIZATION ( #186, #176, #284 ) ;
#273 = CALENDAR_DATE ( 2024, 20, 3 ) ;
#274 = CC_DESIGN_DATE_AND_TIME_ASSIGNMENT ( #103, #296, ( #118 ) ) ;
#275 = PERSON_AND_ORGANIZATION ( #108, #293 ) ;
#276 = ADVANCED_FACE ( 'NONE', ( #238 ), #47, .T. ) ;
#277 = DATE_TIME_ROLE ( 'classification_date' ) ;
#278 = SECURITY_CLASSIFICATION_LEVEL ( 'unclassified' ) ;
#279 = PRODUCT_DEFINITION_FORMATION_WITH_SPECIFIED_SOURCE ( 'ANY', '', #334, .NOT_KNOWN. ) ;
#280 = APPROVAL_ROLE ( '' ) ;
#281 = APPROVAL_DATE_TIME ( #46, #185 ) ;
#282 = APPROVAL_DATE_TIME ( #153, #176 ) ;
#283 = TOROIDAL_SURFACE ( 'NONE', #383, 0.02000499999999999848, 0.001309999999999999967 ) ;
#284 = APPROVAL_ROLE ( '' ) ;
#285 = DATE_TIME_ROLE ( 'creation_date' ) ;
#286 = LOCAL_TIME ( 9, 12, 55.00000000000000000, #246 ) ;
#287 = CC_DESIGN_PERSON_AND_ORGANIZATION_ASSIGNMENT ( #224, #363, ( #244 ) ) ;
#288 = SECURITY_CLASSIFICATION_LEVEL ( 'unclassified' ) ;
#289 = EDGE_CURVE ( 'NONE', #265, #81, #191, .T. ) ;
#290 = DIRECTION ( 'NONE',  ( 0.000000000000000000, 0.000000000000000000, -1.000000000000000000 ) ) ;
#291 = DATE_AND_TIME ( #91, #29 ) ;
#292 = CARTESIAN_POINT ( 'NONE',  ( 0.000000000000000000, 0.000000000000000000, 0.000000000000000000 ) ) ;
#293 = ORGANIZATION ( 'UNSPECIFIED', 'UNSPECIFIED', '' ) ;
#294 = ORIENTED_EDGE ( 'NONE', *, *, #220, .T. ) ;
#295 = DESIGN_CONTEXT ( 'detailed design', #233, 'design' ) ;
#296 = DATE_TIME_ROLE ( 'creation_date' ) ;
#297 =( REPRESENTATION_RELATIONSHIP ('NONE','NONE', #408, #85 ) REPRESENTATION_RELATIONSHIP_WITH_TRANSFORMATION ( #247 )SHAPE_REPRESENTATION_RELATIONSHIP( ) );
#298 = CARTESIAN_POINT ( 'NONE',  ( 0.000000000000000000, 0.000000000000000000, 0.000000000000000000 ) ) ;
#299 = DIRECTION ( 'NONE',  ( -1.224646799147355919E-16, 1.000000000000000000, 0.000000000000000000 ) ) ;
#300 = CALENDAR_DATE ( 2024, 20, 3 ) ;
#301 = ORIENTED_EDGE ( 'NONE', *, *, #19, .T. ) ;
#302 = APPROVAL_STATUS ( 'not_yet_approved' ) ;
#303 = DIRECTION ( 'NONE',  ( 0.000000000000000000, 0.000000000000000000, 1.000000000000000000 ) ) ;
#304 = CARTESIAN_POINT ( 'NONE',  ( -0.01869499999999999981, 0.000000000000000000, 1.604287306883035177E-19 ) ) ;
#305 = AXIS2_PLACEMENT_3D ( 'NONE', #94, #268, #129 ) ;
#306 = CC_DESIGN_DATE_AND_TIME_ASSIGNMENT ( #248, #314, ( #217 ) ) ;
#307 = APPLICATION_PROTOCOL_DEFINITION ( 'international standard', 'config_control_design', 1994, #113 ) ;
#308 = APPROVAL_PERSON_ORGANIZATION ( #239, #385, #37 ) ;
#309 = DIRECTION ( 'NONE',  ( 0.000000000000000000, 0.000000000000000000, -1.000000000000000000 ) ) ;
#310 = COORDINATED_UNIVERSAL_TIME_OFFSET ( 1, 0, .AHEAD. ) ;
#311 = PERSON_AND_ORGANIZATION_ROLE ( 'creator' ) ;
#312 = EDGE_CURVE ( 'NONE', #265, #331, #421, .T. ) ;
#313 = APPROVAL ( #39, 'UNKNOWN' ) ;
#314 = DATE_TIME_ROLE ( 'classification_date' ) ;
#315 = PERSON_AND_ORGANIZATION_ROLE ( 'classification_officer' ) ;
#316 = PERSON_AND_ORGANIZATION ( #108, #293 ) ;
#317 = CIRCLE ( 'NONE', #221, 0.001309999999999999967 ) ;
#318 = LOCAL_TIME ( 9, 12, 55.00000000000000000, #70 ) ;
#319 = PERSON_AND_ORGANIZATION_ROLE ( 'design_owner' ) ;
#320 = COORDINATED_UNIVERSAL_TIME_OFFSET ( 1, 0, .AHEAD. ) ;
#321 = CALENDAR_DATE ( 2024, 20, 3 ) ;
#322 = CALENDAR_DATE ( 2024, 20, 3 ) ;
#323 = LOCAL_TIME ( 9, 12, 55.00000000000000000, #38 ) ;
#324 = APPLICATION_CONTEXT ( 'configuration controlled 3d designs of mechanical parts and assemblies' ) ;
#325 = ORIENTED_EDGE ( 'NONE', *, *, #289, .F. ) ;
#326 = AXIS2_PLACEMENT_3D ( 'NONE', #298, #34, #432 ) ;
#327 = DIRECTION ( 'NONE',  ( 0.000000000000000000, 0.000000000000000000, -1.000000000000000000 ) ) ;
#328 = COORDINATED_UNIVERSAL_TIME_OFFSET ( 1, 0, .AHEAD. ) ;
#329 = DIRECTION ( 'NONE',  ( -1.000000000000000000, -1.224646799147355919E-16, 0.000000000000000000 ) ) ;
#330 = APPROVAL_PERSON_ORGANIZATION ( #348, #230, #45 ) ;
#331 = VERTEX_POINT ( 'NONE', #403 ) ;
#332 = DATE_AND_TIME ( #212, #107 ) ;
#333 =( NAMED_UNIT ( * ) PLANE_ANGLE_UNIT ( ) SI_UNIT ( $, .RADIAN. ) );
#334 = PRODUCT ( '409.RING_D_3D-Zeichnung', '409.RING_D_3D-Zeichnung', '', ( #415 ) ) ;
#335 = DIRECTION ( 'NONE',  ( 0.000000000000000000, 0.000000000000000000, -1.000000000000000000 ) ) ;
#336 = APPROVAL_DATE_TIME ( #404, #24 ) ;
#337 =( NAMED_UNIT ( * ) SI_UNIT ( $, .STERADIAN. ) SOLID_ANGLE_UNIT ( ) );
#338 = CC_DESIGN_PERSON_AND_ORGANIZATION_ASSIGNMENT ( #423, #425, ( #182 ) ) ;
#339 = CARTESIAN_POINT ( 'NONE',  ( -0.02000499999999999848, 0.000000000000000000, 0.000000000000000000 ) ) ;
#340 = CIRCLE ( 'NONE', #21, 0.001309999999999998666 ) ;
#341 = CC_DESIGN_SECURITY_CLASSIFICATION ( #390, ( #434 ) ) ;
#342 = APPROVAL_DATE_TIME ( #209, #385 ) ;
#343 = COORDINATED_UNIVERSAL_TIME_OFFSET ( 1, 0, .AHEAD. ) ;
#344 = ADVANCED_FACE ( 'NONE', ( #397 ), #147, .T. ) ;
#345 = APPROVAL ( #245, 'UNSPECIFIED' ) ;
#346 = DATE_AND_TIME ( #112, #366 ) ;
#347 = APPROVAL_DATE_TIME ( #154, #230 ) ;
#348 = PERSON_AND_ORGANIZATION ( #108, #293 ) ;
#349 =( REPRESENTATION_RELATIONSHIP ('NONE','NONE', #85, #200 ) REPRESENTATION_RELATIONSHIP_WITH_TRANSFORMATION ( #183 )SHAPE_REPRESENTATION_RELATIONSHIP( ) );
#350 = SECURITY_CLASSIFICATION_LEVEL ( 'unclassified' ) ;
#351 = CALENDAR_DATE ( 2024, 20, 3 ) ;
#352 = AXIS2_PLACEMENT_3D ( 'NONE', #65, #31, #206 ) ;
#353 = SECURITY_CLASSIFICATION ( '', '', #62 ) ;
#354 = MECHANICAL_CONTEXT ( 'NONE', #257, 'mechanical' ) ;
#355 = CC_DESIGN_PERSON_AND_ORGANIZATION_ASSIGNMENT ( #131, #431, ( #118 ) ) ;
#356 = APPROVAL_DATE_TIME ( #219, #345 ) ;
#357 = EDGE_LOOP ( 'NONE', ( #393, #367, #361, #301 ) ) ;
#358 = AXIS2_PLACEMENT_3D ( 'NONE', #95, #400, #234 ) ;
#359 = CC_DESIGN_APPROVAL ( #24, ( #118 ) ) ;
#360 = CC_DESIGN_PERSON_AND_ORGANIZATION_ASSIGNMENT ( #40, #210, ( #217 ) ) ;
#361 = ORIENTED_EDGE ( 'NONE', *, *, #141, .T. ) ;
#362 = EDGE_LOOP ( 'NONE', ( #128, #139, #83, #189 ) ) ;
#363 = PERSON_AND_ORGANIZATION_ROLE ( 'design_supplier' ) ;
#364 = AXIS2_PLACEMENT_3D ( 'NONE', #430, #399, #92 ) ;
#365 = CC_DESIGN_APPROVAL ( #155, ( #244 ) ) ;
#366 = LOCAL_TIME ( 9, 12, 55.00000000000000000, #80 ) ;
#367 = ORIENTED_EDGE ( 'NONE', *, *, #220, .F. ) ;
#368 = CC_DESIGN_APPROVAL ( #262, ( #104 ) ) ;
#369 = ORIENTED_EDGE ( 'NONE', *, *, #312, .F. ) ;
#370 = PERSON_AND_ORGANIZATION ( #108, #293 ) ;
#371 =( NAMED_UNIT ( * ) SI_UNIT ( $, .STERADIAN. ) SOLID_ANGLE_UNIT ( ) );
#372 = CC_DESIGN_DATE_AND_TIME_ASSIGNMENT ( #291, #285, ( #198 ) ) ;
#373 = DIRECTION ( 'NONE',  ( -1.000000000000000000, -1.224646799147355919E-16, 0.000000000000000000 ) ) ;
#374 = EDGE_CURVE ( 'NONE', #331, #265, #243, .T. ) ;
#375 = PRODUCT_RELATED_PRODUCT_CATEGORY ( 'detail', '', ( #50 ) ) ;
#376 = CC_DESIGN_APPROVAL ( #185, ( #198 ) ) ;
#377 = PERSON_AND_ORGANIZATION_ROLE ( 'design_owner' ) ;
#378 = APPROVAL_STATUS ( 'not_yet_approved' ) ;
#379 = PERSON_AND_ORGANIZATION ( #108, #293 ) ;
#380 = DATE_TIME_ROLE ( 'classification_date' ) ;
#381 = COORDINATED_UNIVERSAL_TIME_OFFSET ( 1, 0, .AHEAD. ) ;
#382 = CALENDAR_DATE ( 2024, 20, 3 ) ;
#383 = AXIS2_PLACEMENT_3D ( 'NONE', #427, #394, #270 ) ;
#384 = CARTESIAN_POINT ( 'NONE',  ( -0.02000499999999999848, 0.000000000000000000, 0.000000000000000000 ) ) ;
#385 = APPROVAL ( #302, 'UNSPECIFIED' ) ;
#386 = PERSON_AND_ORGANIZATION ( #108, #293 ) ;
#387 = COORDINATED_UNIVERSAL_TIME_OFFSET ( 1, 0, .AHEAD. ) ;
#388 = CC_DESIGN_DATE_AND_TIME_ASSIGNMENT ( #213, #187, ( #104 ) ) ;
#389 =( GEOMETRIC_REPRESENTATION_CONTEXT ( 3 ) GLOBAL_UNCERTAINTY_ASSIGNED_CONTEXT ( ( #33 ) ) GLOBAL_UNIT_ASSIGNED_CONTEXT ( ( #229, #132, #337 ) ) REPRESENTATION_CONTEXT ( 'NONE', 'WORKASPACE' ) );
#390 = SECURITY_CLASSIFICATION ( '', '', #350 ) ;
#391 = ORIENTED_EDGE ( 'NONE', *, *, #120, .T. ) ;
#392 = PRODUCT_DEFINITION_SHAPE ( 'NONE', 'NONE',  #434 ) ;
#393 = ORIENTED_EDGE ( 'NONE', *, *, #374, .F. ) ;
#394 = DIRECTION ( 'NONE',  ( 0.000000000000000000, 0.000000000000000000, -1.000000000000000000 ) ) ;
#395 = DESIGN_CONTEXT ( 'detailed design', #35, 'design' ) ;
#396 = CC_DESIGN_APPROVAL ( #176, ( #390 ) ) ;
#397 = FACE_OUTER_BOUND ( 'NONE', #357, .T. ) ;
#398 = PERSON_AND_ORGANIZATION ( #108, #293 ) ;
#399 = DIRECTION ( 'NONE',  ( 0.000000000000000000, 0.000000000000000000, -1.000000000000000000 ) ) ;
#400 = DIRECTION ( 'NONE',  ( 0.000000000000000000, 0.000000000000000000, -1.000000000000000000 ) ) ;
#401 = COORDINATED_UNIVERSAL_TIME_OFFSET ( 1, 0, .AHEAD. ) ;
#402 = LOCAL_TIME ( 9, 12, 55.00000000000000000, #310 ) ;
#403 = CARTESIAN_POINT ( 'NONE',  ( 0.02131500000000000061, 2.610334652382584730E-18, 0.000000000000000000 ) ) ;
#404 = DATE_AND_TIME ( #300, #402 ) ;
#405 = APPLICATION_CONTEXT ( 'configuration controlled 3d designs of mechanical parts and assemblies' ) ;
#406 = CARTESIAN_POINT ( 'NONE',  ( 0.01869499999999999981, 2.289477191005974709E-18, 0.000000000000000000 ) ) ;
#407 = DATE_TIME_ROLE ( 'classification_date' ) ;
#408 = SHAPE_REPRESENTATION ( '409.RING_D_3D-Zeichnung', ( #196, #305 ), #43 ) ;
#409 = APPROVAL_STATUS ( 'not_yet_approved' ) ;
#410 = LOCAL_TIME ( 9, 12, 55.00000000000000000, #188 ) ;
#411 = PERSON_AND_ORGANIZATION ( #266, #109 ) ;
#412 = APPROVAL_DATE_TIME ( #41, #216 ) ;
#413 = CALENDAR_DATE ( 2024, 20, 3 ) ;
#414 = CALENDAR_DATE ( 2024, 20, 3 ) ;
#415 = MECHANICAL_CONTEXT ( 'NONE', #324, 'mechanical' ) ;
#416 = CC_DESIGN_PERSON_AND_ORGANIZATION_ASSIGNMENT ( #215, #319, ( #90 ) ) ;
#417 = AXIS2_PLACEMENT_3D ( 'NONE', #292, #170, #127 ) ;
#418 = PERSON_AND_ORGANIZATION ( #108, #293 ) ;
#419 = APPROVAL_PERSON_ORGANIZATION ( #77, #134, #207 ) ;
#420 = CC_DESIGN_PERSON_AND_ORGANIZATION_ASSIGNMENT ( #386, #242, ( #334 ) ) ;
#421 = CIRCLE ( 'NONE', #358, 0.02131500000000000061 ) ;
#422 = LOCAL_TIME ( 9, 12, 55.00000000000000000, #343 ) ;
#423 = PERSON_AND_ORGANIZATION ( #108, #293 ) ;
#424 = VERTEX_POINT ( 'NONE', #406 ) ;
#425 = PERSON_AND_ORGANIZATION_ROLE ( 'classification_officer' ) ;
#426 = PRODUCT_RELATED_PRODUCT_CATEGORY ( 'detail', '', ( #90 ) ) ;
#427 = CARTESIAN_POINT ( 'NONE',  ( 0.000000000000000000, 0.000000000000000000, 0.000000000000000000 ) ) ;
#428 = LOCAL_TIME ( 9, 12, 55.00000000000000000, #7 ) ;
#429 = CC_DESIGN_PERSON_AND_ORGANIZATION_ASSIGNMENT ( #379, #117, ( #279 ) ) ;
#430 = CARTESIAN_POINT ( 'NONE',  ( 0.000000000000000000, 0.000000000000000000, 0.000000000000000000 ) ) ;
#431 = PERSON_AND_ORGANIZATION_ROLE ( 'creator' ) ;
#432 = DIRECTION ( 'NONE',  ( 1.000000000000000000, 0.000000000000000000, 0.000000000000000000 ) ) ;
#433 = DIRECTION ( 'NONE',  ( -1.000000000000000000, 0.000000000000000000, 0.000000000000000000 ) ) ;
#434 = NEXT_ASSEMBLY_USAGE_OCCURRENCE ( 'NAUO1', ' ', ' ', #104, #198, $ ) ;
#435 = NEXT_ASSEMBLY_USAGE_OCCURRENCE ( 'NAUO2', ' ', ' ', #198, #118, $ ) ;
ENDSEC;
END-ISO-10303-21;
