ISO-10303-21;
HEADER;
FILE_DESCRIPTION (( 'STEP AP203' ),
    '1' );
FILE_NAME ('259.RING_D_3D-Zeichnung.STEP',
    '2024-03-20T08:09:00',
    ( '' ),
    ( '' ),
    'SwSTEP 2.0',
    'SolidWorks 2023',
    '' );
FILE_SCHEMA (( 'CONFIG_CONTROL_DESIGN' ));
ENDSEC;

DATA;
#1 = CARTESIAN_POINT ( 'NONE',  ( 0.000000000000000000, 0.000000000000000000, 0.04750999999999999668 ) ) ;
#2 = AXIS2_PLACEMENT_3D ( 'NONE', #133, #154, #148 ) ;
#3 = CALENDAR_DATE ( 2024, 20, 3 ) ;
#4 = PRODUCT_DEFINITION ( 'UNKNOWN', '', #131, #99 ) ;
#5 = VERTEX_POINT ( 'NONE', #158 ) ;
#6 = DIRECTION ( 'NONE',  ( -1.000000000000000000, 0.000000000000000000, 0.000000000000000000 ) ) ;
#7 = CALENDAR_DATE ( 2024, 20, 3 ) ;
#8 = ADVANCED_FACE ( 'NONE', ( #97 ), #10, .T. ) ;
#9 = APPROVAL_DATE_TIME ( #45, #98 ) ;
#10 = TOROIDAL_SURFACE ( 'NONE', #140, 0.01294000000000000011, 0.0008899999999999999491 ) ;
#11 = TOROIDAL_SURFACE ( 'NONE', #175, 0.01294000000000000011, 0.0008899999999999999491 ) ;
#12 = CC_DESIGN_APPROVAL ( #174, ( #176 ) ) ;
#13 = DIRECTION ( 'NONE',  ( 0.000000000000000000, 0.000000000000000000, -1.000000000000000000 ) ) ;
#14 = PERSON_AND_ORGANIZATION ( #27, #91 ) ;
#15 = ORIENTED_EDGE ( 'NONE', *, *, #185, .T. ) ;
#16 = APPROVAL_PERSON_ORGANIZATION ( #14, #147, #44 ) ;
#17 = ORIENTED_EDGE ( 'NONE', *, *, #66, .T. ) ;
#18 = DIRECTION ( 'NONE',  ( 0.000000000000000000, 0.000000000000000000, -1.000000000000000000 ) ) ;
#19 = APPROVAL_DATE_TIME ( #188, #174 ) ;
#20 = DIRECTION ( 'NONE',  ( 0.000000000000000000, 0.000000000000000000, -1.000000000000000000 ) ) ;
#21 = SECURITY_CLASSIFICATION_LEVEL ( 'unclassified' ) ;
#22 = CARTESIAN_POINT ( 'NONE',  ( 0.000000000000000000, 0.000000000000000000, 0.04750999999999999668 ) ) ;
#23 = CC_DESIGN_PERSON_AND_ORGANIZATION_ASSIGNMENT ( #127, #156, ( #131 ) ) ;
#24 = CIRCLE ( 'NONE', #134, 0.01204999999999999995 ) ;
#25 = DIRECTION ( 'NONE',  ( -1.000000000000000000, -1.224646799147353947E-16, 0.000000000000000000 ) ) ;
#26 = DIRECTION ( 'NONE',  ( 0.000000000000000000, 0.000000000000000000, -1.000000000000000000 ) ) ;
#27 = PERSON ( 'UNSPECIFIED', 'UNSPECIFIED', 'UNSPECIFIED', ('UNSPECIFIED'), ('UNSPECIFIED'), ('UNSPECIFIED') ) ;
#28 = PRODUCT_RELATED_PRODUCT_CATEGORY ( 'detail', '', ( #109 ) ) ;
#29 = MECHANICAL_CONTEXT ( 'NONE', #79, 'mechanical' ) ;
#30 = ORIENTED_EDGE ( 'NONE', *, *, #121, .F. ) ;
#31 = AXIS2_PLACEMENT_3D ( 'NONE', #155, #13, #6 ) ;
#32 = DATE_AND_TIME ( #7, #71 ) ;
#33 = DIRECTION ( 'NONE',  ( -1.000000000000000000, -1.224646799147353947E-16, 0.000000000000000000 ) ) ;
#34 = CARTESIAN_POINT ( 'NONE',  ( -0.01294000000000000011, 0.000000000000000000, 0.04750999999999999668 ) ) ;
#35 = ORIENTED_EDGE ( 'NONE', *, *, #94, .T. ) ;
#36 = ADVANCED_FACE ( 'NONE', ( #49 ), #51, .T. ) ;
#37 = DIRECTION ( 'NONE',  ( 0.000000000000000000, 0.000000000000000000, -1.000000000000000000 ) ) ;
#38 = AXIS2_PLACEMENT_3D ( 'NONE', #111, #163, #25 ) ;
#39 = CC_DESIGN_PERSON_AND_ORGANIZATION_ASSIGNMENT ( #187, #107, ( #176 ) ) ;
#40 = DIRECTION ( 'NONE',  ( -1.000000000000000000, 0.000000000000000000, 0.000000000000000000 ) ) ;
#41 =( NAMED_UNIT ( * ) SI_UNIT ( $, .STERADIAN. ) SOLID_ANGLE_UNIT ( ) );
#42 = APPROVAL_ROLE ( '' ) ;
#43 = CALENDAR_DATE ( 2024, 20, 3 ) ;
#44 = APPROVAL_ROLE ( '' ) ;
#45 = DATE_AND_TIME ( #139, #153 ) ;
#46 = CARTESIAN_POINT ( 'NONE',  ( 0.000000000000000000, 0.000000000000000000, 0.04750999999999999668 ) ) ;
#47 = CIRCLE ( 'NONE', #129, 0.01204999999999999995 ) ;
#48 = CC_DESIGN_APPROVAL ( #98, ( #131 ) ) ;
#49 = FACE_OUTER_BOUND ( 'NONE', #150, .T. ) ;
#50 = DIRECTION ( 'NONE',  ( -1.000000000000000000, 0.000000000000000000, 0.000000000000000000 ) ) ;
#51 = TOROIDAL_SURFACE ( 'NONE', #167, 0.01294000000000000011, 0.0008899999999999999491 ) ;
#52 = EDGE_CURVE ( 'NONE', #5, #61, #47, .T. ) ;
#53 = ADVANCED_FACE ( 'NONE', ( #142 ), #179, .T. ) ;
#54 = APPROVAL_STATUS ( 'not_yet_approved' ) ;
#55 = DIRECTION ( 'NONE',  ( -1.000000000000000000, 0.000000000000000000, 0.000000000000000000 ) ) ;
#56 = DATE_AND_TIME ( #3, #162 ) ;
#57 = EDGE_CURVE ( 'NONE', #61, #96, #88, .T. ) ;
#58 = APPLICATION_PROTOCOL_DEFINITION ( 'international standard', 'config_control_design', 1994, #79 ) ;
#59 = PERSON_AND_ORGANIZATION ( #27, #91 ) ;
#60 = PERSON_AND_ORGANIZATION_ROLE ( 'creator' ) ;
#61 = VERTEX_POINT ( 'NONE', #80 ) ;
#62 = APPROVAL_ROLE ( '' ) ;
#63 = CIRCLE ( 'NONE', #76, 0.0008900000000000019007 ) ;
#64 = LOCAL_TIME ( 9, 9, 0.000000000000000000, #114 ) ;
#65 = DIRECTION ( 'NONE',  ( 0.000000000000000000, -1.000000000000000000, 0.000000000000000000 ) ) ;
#66 = EDGE_CURVE ( 'NONE', #5, #89, #63, .T. ) ;
#67 = CARTESIAN_POINT ( 'NONE',  ( 0.000000000000000000, 0.000000000000000000, 0.04750999999999999668 ) ) ;
#68 = PERSON_AND_ORGANIZATION ( #27, #91 ) ;
#69 = ORIENTED_EDGE ( 'NONE', *, *, #185, .F. ) ;
#70 = DIRECTION ( 'NONE',  ( -1.224646799147353947E-16, 1.000000000000000000, 0.000000000000000000 ) ) ;
#71 = LOCAL_TIME ( 9, 9, 0.000000000000000000, #169 ) ;
#72 = CC_DESIGN_PERSON_AND_ORGANIZATION_ASSIGNMENT ( #189, #60, ( #131 ) ) ;
#73 = PERSON_AND_ORGANIZATION_ROLE ( 'creator' ) ;
#74 = PRODUCT_DEFINITION_SHAPE ( 'NONE', 'NONE',  #4 ) ;
#75 = ADVANCED_FACE ( 'NONE', ( #81 ), #11, .T. ) ;
#76 = AXIS2_PLACEMENT_3D ( 'NONE', #146, #65, #26 ) ;
#77 = DIRECTION ( 'NONE',  ( -1.000000000000000000, 0.000000000000000000, 0.000000000000000000 ) ) ;
#78 = CIRCLE ( 'NONE', #120, 0.0008900000000000019007 ) ;
#79 = APPLICATION_CONTEXT ( 'configuration controlled 3d designs of mechanical parts and assemblies' ) ;
#80 = CARTESIAN_POINT ( 'NONE',  ( 0.01204999999999999995, 1.475699392972559928E-18, 0.04750999999999999668 ) ) ;
#81 = FACE_OUTER_BOUND ( 'NONE', #110, .T. ) ;
#82 = MANIFOLD_SOLID_BREP ( 'NONE', #85 ) ;
#83 = CARTESIAN_POINT ( 'NONE',  ( -0.01383000000000000028, 0.000000000000000000, 0.04750999999999999668 ) ) ;
#84 = DATE_AND_TIME ( #43, #144 ) ;
#85 = CLOSED_SHELL ( 'NONE', ( #75, #36, #53, #8 ) ) ;
#86 = ORIENTED_EDGE ( 'NONE', *, *, #103, .T. ) ;
#87 = APPLICATION_PROTOCOL_DEFINITION ( 'international standard', 'config_control_design', 1994, #145 ) ;
#88 = CIRCLE ( 'NONE', #38, 0.0008900000000000001660 ) ;
#89 = VERTEX_POINT ( 'NONE', #83 ) ;
#90 = APPROVAL_DATE_TIME ( #84, #147 ) ;
#91 = ORGANIZATION ( 'UNSPECIFIED', 'UNSPECIFIED', '' ) ;
#92 = APPROVAL_STATUS ( 'not_yet_approved' ) ;
#93 =( NAMED_UNIT ( * ) PLANE_ANGLE_UNIT ( ) SI_UNIT ( $, .RADIAN. ) );
#94 = EDGE_CURVE ( 'NONE', #89, #5, #78, .T. ) ;
#95 = DATE_TIME_ROLE ( 'classification_date' ) ;
#96 = VERTEX_POINT ( 'NONE', #182 ) ;
#97 = FACE_OUTER_BOUND ( 'NONE', #119, .T. ) ;
#98 = APPROVAL ( #172, 'UNSPECIFIED' ) ;
#99 = DESIGN_CONTEXT ( 'detailed design', #145, 'design' ) ;
#100 =( GEOMETRIC_REPRESENTATION_CONTEXT ( 3 ) GLOBAL_UNCERTAINTY_ASSIGNED_CONTEXT ( ( #184 ) ) GLOBAL_UNIT_ASSIGNED_CONTEXT ( ( #123, #93, #41 ) ) REPRESENTATION_CONTEXT ( 'NONE', 'WORKASPACE' ) );
#101 = AXIS2_PLACEMENT_3D ( 'NONE', #138, #105, #124 ) ;
#102 = ADVANCED_BREP_SHAPE_REPRESENTATION ( '259.RING_D_3D-Zeichnung', ( #82, #101 ), #100 ) ;
#103 = EDGE_CURVE ( 'NONE', #89, #96, #170, .T. ) ;
#104 = ORIENTED_EDGE ( 'NONE', *, *, #57, .T. ) ;
#105 = DIRECTION ( 'NONE',  ( 0.000000000000000000, 0.000000000000000000, 1.000000000000000000 ) ) ;
#106 = EDGE_LOOP ( 'NONE', ( #128, #86, #173, #160 ) ) ;
#107 = PERSON_AND_ORGANIZATION_ROLE ( 'classification_officer' ) ;
#108 = COORDINATED_UNIVERSAL_TIME_OFFSET ( 1, 0, .AHEAD. ) ;
#109 = PRODUCT ( '259.RING_D_3D-Zeichnung', '259.RING_D_3D-Zeichnung', '', ( #29 ) ) ;
#110 = EDGE_LOOP ( 'NONE', ( #30, #136, #15, #17 ) ) ;
#111 = CARTESIAN_POINT ( 'NONE',  ( 0.01294000000000000011, 1.584692958096674838E-18, 0.04750999999999999668 ) ) ;
#112 = AXIS2_PLACEMENT_3D ( 'NONE', #135, #70, #33 ) ;
#113 = DIRECTION ( 'NONE',  ( 0.000000000000000000, 0.000000000000000000, -1.000000000000000000 ) ) ;
#114 = COORDINATED_UNIVERSAL_TIME_OFFSET ( 1, 0, .AHEAD. ) ;
#115 = APPROVAL_PERSON_ORGANIZATION ( #59, #174, #62 ) ;
#116 = CC_DESIGN_PERSON_AND_ORGANIZATION_ASSIGNMENT ( #68, #73, ( #4 ) ) ;
#117 = DIRECTION ( 'NONE',  ( 0.000000000000000000, 0.000000000000000000, -1.000000000000000000 ) ) ;
#118 = CARTESIAN_POINT ( 'NONE',  ( 0.000000000000000000, 0.000000000000000000, 0.04750999999999999668 ) ) ;
#119 = EDGE_LOOP ( 'NONE', ( #159, #190, #35, #69 ) ) ;
#120 = AXIS2_PLACEMENT_3D ( 'NONE', #34, #165, #20 ) ;
#121 = EDGE_CURVE ( 'NONE', #96, #89, #192, .T. ) ;
#122 = COORDINATED_UNIVERSAL_TIME_OFFSET ( 1, 0, .AHEAD. ) ;
#123 =( LENGTH_UNIT ( ) NAMED_UNIT ( * ) SI_UNIT ( $, .METRE. ) );
#124 = DIRECTION ( 'NONE',  ( 1.000000000000000000, 0.000000000000000000, 0.000000000000000000 ) ) ;
#125 = CALENDAR_DATE ( 2024, 20, 3 ) ;
#126 = EDGE_CURVE ( 'NONE', #96, #61, #141, .T. ) ;
#127 = PERSON_AND_ORGANIZATION ( #27, #91 ) ;
#128 = ORIENTED_EDGE ( 'NONE', *, *, #94, .F. ) ;
#129 = AXIS2_PLACEMENT_3D ( 'NONE', #22, #37, #77 ) ;
#130 = ORIENTED_EDGE ( 'NONE', *, *, #66, .F. ) ;
#131 = PRODUCT_DEFINITION_FORMATION_WITH_SPECIFIED_SOURCE ( 'ANY', '', #109, .NOT_KNOWN. ) ;
#132 = CARTESIAN_POINT ( 'NONE',  ( 0.000000000000000000, 0.000000000000000000, 0.04750999999999999668 ) ) ;
#133 = CARTESIAN_POINT ( 'NONE',  ( 0.000000000000000000, 0.000000000000000000, 0.04750999999999999668 ) ) ;
#134 = AXIS2_PLACEMENT_3D ( 'NONE', #1, #18, #55 ) ;
#135 = CARTESIAN_POINT ( 'NONE',  ( 0.01294000000000000011, 1.584692958096674838E-18, 0.04750999999999999668 ) ) ;
#136 = ORIENTED_EDGE ( 'NONE', *, *, #57, .F. ) ;
#137 = APPROVAL_PERSON_ORGANIZATION ( #183, #98, #42 ) ;
#138 = CARTESIAN_POINT ( 'NONE',  ( 0.000000000000000000, 0.000000000000000000, 0.000000000000000000 ) ) ;
#139 = CALENDAR_DATE ( 2024, 20, 3 ) ;
#140 = AXIS2_PLACEMENT_3D ( 'NONE', #132, #117, #50 ) ;
#141 = CIRCLE ( 'NONE', #112, 0.0008900000000000001660 ) ;
#142 = FACE_OUTER_BOUND ( 'NONE', #106, .T. ) ;
#143 = CC_DESIGN_DATE_AND_TIME_ASSIGNMENT ( #56, #152, ( #4 ) ) ;
#144 = LOCAL_TIME ( 9, 9, 0.000000000000000000, #168 ) ;
#145 = APPLICATION_CONTEXT ( 'configuration controlled 3d designs of mechanical parts and assemblies' ) ;
#146 = CARTESIAN_POINT ( 'NONE',  ( -0.01294000000000000011, 0.000000000000000000, 0.04750999999999999668 ) ) ;
#147 = APPROVAL ( #54, 'UNSPECIFIED' ) ;
#148 = DIRECTION ( 'NONE',  ( -1.000000000000000000, 0.000000000000000000, 0.000000000000000000 ) ) ;
#149 = PERSON_AND_ORGANIZATION_ROLE ( 'design_owner' ) ;
#150 = EDGE_LOOP ( 'NONE', ( #191, #130, #166, #104 ) ) ;
#151 = AXIS2_PLACEMENT_3D ( 'NONE', #118, #178, #161 ) ;
#152 = DATE_TIME_ROLE ( 'creation_date' ) ;
#153 = LOCAL_TIME ( 9, 9, 0.000000000000000000, #108 ) ;
#154 = DIRECTION ( 'NONE',  ( 0.000000000000000000, 0.000000000000000000, -1.000000000000000000 ) ) ;
#155 = CARTESIAN_POINT ( 'NONE',  ( 0.000000000000000000, 0.000000000000000000, 0.04750999999999999668 ) ) ;
#156 = PERSON_AND_ORGANIZATION_ROLE ( 'design_supplier' ) ;
#157 = SHAPE_DEFINITION_REPRESENTATION ( #74, #102 ) ;
#158 = CARTESIAN_POINT ( 'NONE',  ( -0.01204999999999999995, 0.000000000000000000, 0.04750999999999999668 ) ) ;
#159 = ORIENTED_EDGE ( 'NONE', *, *, #126, .F. ) ;
#160 = ORIENTED_EDGE ( 'NONE', *, *, #52, .F. ) ;
#161 = DIRECTION ( 'NONE',  ( -1.000000000000000000, 0.000000000000000000, 0.000000000000000000 ) ) ;
#162 = LOCAL_TIME ( 9, 9, 0.000000000000000000, #122 ) ;
#163 = DIRECTION ( 'NONE',  ( -1.224646799147353947E-16, 1.000000000000000000, 0.000000000000000000 ) ) ;
#164 = CC_DESIGN_DATE_AND_TIME_ASSIGNMENT ( #32, #95, ( #176 ) ) ;
#165 = DIRECTION ( 'NONE',  ( 0.000000000000000000, -1.000000000000000000, 0.000000000000000000 ) ) ;
#166 = ORIENTED_EDGE ( 'NONE', *, *, #52, .T. ) ;
#167 = AXIS2_PLACEMENT_3D ( 'NONE', #46, #113, #177 ) ;
#168 = COORDINATED_UNIVERSAL_TIME_OFFSET ( 1, 0, .AHEAD. ) ;
#169 = COORDINATED_UNIVERSAL_TIME_OFFSET ( 1, 0, .AHEAD. ) ;
#170 = CIRCLE ( 'NONE', #2, 0.01383000000000000028 ) ;
#171 = DIRECTION ( 'NONE',  ( 0.000000000000000000, 0.000000000000000000, -1.000000000000000000 ) ) ;
#172 = APPROVAL_STATUS ( 'not_yet_approved' ) ;
#173 = ORIENTED_EDGE ( 'NONE', *, *, #126, .T. ) ;
#174 = APPROVAL ( #92, 'UNSPECIFIED' ) ;
#175 = AXIS2_PLACEMENT_3D ( 'NONE', #67, #171, #40 ) ;
#176 = SECURITY_CLASSIFICATION ( '', '', #21 ) ;
#177 = DIRECTION ( 'NONE',  ( -1.000000000000000000, 0.000000000000000000, 0.000000000000000000 ) ) ;
#178 = DIRECTION ( 'NONE',  ( 0.000000000000000000, 0.000000000000000000, -1.000000000000000000 ) ) ;
#179 = TOROIDAL_SURFACE ( 'NONE', #151, 0.01294000000000000011, 0.0008899999999999999491 ) ;
#180 = CC_DESIGN_APPROVAL ( #147, ( #4 ) ) ;
#181 = CC_DESIGN_PERSON_AND_ORGANIZATION_ASSIGNMENT ( #186, #149, ( #109 ) ) ;
#182 = CARTESIAN_POINT ( 'NONE',  ( 0.01383000000000000028, 1.693686523220789941E-18, 0.04750999999999999668 ) ) ;
#183 = PERSON_AND_ORGANIZATION ( #27, #91 ) ;
#184 = UNCERTAINTY_MEASURE_WITH_UNIT (LENGTH_MEASURE( 1.000000000000000082E-05 ), #123, 'distance_accuracy_value', 'NONE');
#185 = EDGE_CURVE ( 'NONE', #61, #5, #24, .T. ) ;
#186 = PERSON_AND_ORGANIZATION ( #27, #91 ) ;
#187 = PERSON_AND_ORGANIZATION ( #27, #91 ) ;
#188 = DATE_AND_TIME ( #125, #64 ) ;
#189 = PERSON_AND_ORGANIZATION ( #27, #91 ) ;
#190 = ORIENTED_EDGE ( 'NONE', *, *, #121, .T. ) ;
#191 = ORIENTED_EDGE ( 'NONE', *, *, #103, .F. ) ;
#192 = CIRCLE ( 'NONE', #31, 0.01383000000000000028 ) ;
#193 = CC_DESIGN_SECURITY_CLASSIFICATION ( #176, ( #131 ) ) ;
ENDSEC;
END-ISO-10303-21;
