ISO-10303-21;
HEADER;
FILE_DESCRIPTION (( 'STEP AP203' ),
    '1' );
FILE_NAME ('209.RING_D_3D-Zeichnung.STEP',
    '2024-03-20T08:07:24',
    ( '' ),
    ( '' ),
    'SwSTEP 2.0',
    'SolidWorks 2023',
    '' );
FILE_SCHEMA (( 'CONFIG_CONTROL_DESIGN' ));
ENDSEC;

DATA;
#1 = AXIS2_PLACEMENT_3D ( 'NONE', #115, #159, #86 ) ;
#2 = EDGE_CURVE ( 'NONE', #57, #111, #8, .T. ) ;
#3 = PRODUCT_DEFINITION_SHAPE ( 'NONE', 'NONE',  #19 ) ;
#4 = DIRECTION ( 'NONE',  ( 0.000000000000000000, 0.000000000000000000, -1.000000000000000000 ) ) ;
#5 = EDGE_LOOP ( 'NONE', ( #91, #94, #127, #68 ) ) ;
#6 = EDGE_CURVE ( 'NONE', #54, #111, #177, .T. ) ;
#7 = ORGANIZATION ( 'UNSPECIFIED', 'UNSPECIFIED', '' ) ;
#8 = CIRCLE ( 'NONE', #80, 0.01132999999999999979 ) ;
#9 = CARTESIAN_POINT ( 'NONE',  ( -0.01132999999999999979, 0.000000000000000000, 0.03951000000000000345 ) ) ;
#10 = CARTESIAN_POINT ( 'NONE',  ( 0.000000000000000000, 0.000000000000000000, 0.03951000000000000345 ) ) ;
#11 = PERSON_AND_ORGANIZATION ( #17, #7 ) ;
#12 = DIRECTION ( 'NONE',  ( 0.000000000000000000, 0.000000000000000000, 1.000000000000000000 ) ) ;
#13 = APPLICATION_CONTEXT ( 'configuration controlled 3d designs of mechanical parts and assemblies' ) ;
#14 = APPROVAL_ROLE ( '' ) ;
#15 = DIRECTION ( 'NONE',  ( 0.000000000000000000, 0.000000000000000000, -1.000000000000000000 ) ) ;
#16 = CC_DESIGN_DATE_AND_TIME_ASSIGNMENT ( #87, #88, ( #62 ) ) ;
#17 = PERSON ( 'UNSPECIFIED', 'UNSPECIFIED', 'UNSPECIFIED', ('UNSPECIFIED'), ('UNSPECIFIED'), ('UNSPECIFIED') ) ;
#18 = COORDINATED_UNIVERSAL_TIME_OFFSET ( 1, 0, .AHEAD. ) ;
#19 = PRODUCT_DEFINITION ( 'UNKNOWN', '', #167, #145 ) ;
#20 = CIRCLE ( 'NONE', #126, 0.009549999999999999462 ) ;
#21 = CC_DESIGN_SECURITY_CLASSIFICATION ( #62, ( #167 ) ) ;
#22 = ORIENTED_EDGE ( 'NONE', *, *, #73, .F. ) ;
#23 = APPROVAL ( #106, 'UNSPECIFIED' ) ;
#24 = EDGE_LOOP ( 'NONE', ( #22, #170, #35, #107 ) ) ;
#25 = EDGE_CURVE ( 'NONE', #54, #168, #43, .T. ) ;
#26 = APPROVAL_PERSON_ORGANIZATION ( #149, #96, #14 ) ;
#27 =( LENGTH_UNIT ( ) NAMED_UNIT ( * ) SI_UNIT ( $, .METRE. ) );
#28 = CARTESIAN_POINT ( 'NONE',  ( -0.009549999999999999462, 0.000000000000000000, 0.03951000000000000345 ) ) ;
#29 = CARTESIAN_POINT ( 'NONE',  ( 0.000000000000000000, 0.000000000000000000, 0.000000000000000000 ) ) ;
#30 = COORDINATED_UNIVERSAL_TIME_OFFSET ( 1, 0, .AHEAD. ) ;
#31 = CALENDAR_DATE ( 2024, 20, 3 ) ;
#32 = PRODUCT ( '209.RING_D_3D-Zeichnung', '209.RING_D_3D-Zeichnung', '', ( #144 ) ) ;
#33 = AXIS2_PLACEMENT_3D ( 'NONE', #100, #40, #160 ) ;
#34 = DIRECTION ( 'NONE',  ( -1.000000000000000000, 0.000000000000000000, 0.000000000000000000 ) ) ;
#35 = ORIENTED_EDGE ( 'NONE', *, *, #25, .T. ) ;
#36 = FACE_OUTER_BOUND ( 'NONE', #151, .T. ) ;
#37 = DIRECTION ( 'NONE',  ( -1.000000000000000000, 0.000000000000000000, 0.000000000000000000 ) ) ;
#38 = DIRECTION ( 'NONE',  ( -1.000000000000000000, 0.000000000000000000, 0.000000000000000000 ) ) ;
#39 = CC_DESIGN_PERSON_AND_ORGANIZATION_ASSIGNMENT ( #175, #148, ( #167 ) ) ;
#40 = DIRECTION ( 'NONE',  ( 0.000000000000000000, 0.000000000000000000, -1.000000000000000000 ) ) ;
#41 = APPLICATION_PROTOCOL_DEFINITION ( 'international standard', 'config_control_design', 1994, #118 ) ;
#42 = DIRECTION ( 'NONE',  ( -1.000000000000000000, -1.224646799147351728E-16, 0.000000000000000000 ) ) ;
#43 = CIRCLE ( 'NONE', #138, 0.009549999999999999462 ) ;
#44 = ADVANCED_FACE ( 'NONE', ( #157 ), #55, .T. ) ;
#45 = AXIS2_PLACEMENT_3D ( 'NONE', #29, #12, #99 ) ;
#46 = UNCERTAINTY_MEASURE_WITH_UNIT (LENGTH_MEASURE( 1.000000000000000082E-05 ), #27, 'distance_accuracy_value', 'NONE');
#47 = DATE_AND_TIME ( #193, #183 ) ;
#48 = DIRECTION ( 'NONE',  ( 0.000000000000000000, 0.000000000000000000, -1.000000000000000000 ) ) ;
#49 = PERSON_AND_ORGANIZATION_ROLE ( 'classification_officer' ) ;
#50 = ORIENTED_EDGE ( 'NONE', *, *, #142, .T. ) ;
#51 = LOCAL_TIME ( 9, 7, 24.00000000000000000, #77 ) ;
#52 = ADVANCED_BREP_SHAPE_REPRESENTATION ( '209.RING_D_3D-Zeichnung', ( #56, #45 ), #78 ) ;
#53 = AXIS2_PLACEMENT_3D ( 'NONE', #125, #4, #34 ) ;
#54 = VERTEX_POINT ( 'NONE', #141 ) ;
#55 = TOROIDAL_SURFACE ( 'NONE', #1, 0.01043999999999999963, 0.0008899999999999999491 ) ;
#56 = MANIFOLD_SOLID_BREP ( 'NONE', #150 ) ;
#57 = VERTEX_POINT ( 'NONE', #9 ) ;
#58 = DIRECTION ( 'NONE',  ( -1.000000000000000000, 0.000000000000000000, 0.000000000000000000 ) ) ;
#59 = APPROVAL_DATE_TIME ( #134, #139 ) ;
#60 = DIRECTION ( 'NONE',  ( 0.000000000000000000, 0.000000000000000000, -1.000000000000000000 ) ) ;
#61 = PRODUCT_RELATED_PRODUCT_CATEGORY ( 'detail', '', ( #32 ) ) ;
#62 = SECURITY_CLASSIFICATION ( '', '', #164 ) ;
#63 = APPROVAL_ROLE ( '' ) ;
#64 = CARTESIAN_POINT ( 'NONE',  ( 0.000000000000000000, 0.000000000000000000, 0.03951000000000000345 ) ) ;
#65 = CALENDAR_DATE ( 2024, 20, 3 ) ;
#66 = CC_DESIGN_PERSON_AND_ORGANIZATION_ASSIGNMENT ( #163, #49, ( #62 ) ) ;
#67 = EDGE_CURVE ( 'NONE', #168, #54, #20, .T. ) ;
#68 = ORIENTED_EDGE ( 'NONE', *, *, #67, .F. ) ;
#69 = CIRCLE ( 'NONE', #92, 0.01132999999999999979 ) ;
#70 = TOROIDAL_SURFACE ( 'NONE', #33, 0.01043999999999999963, 0.0008899999999999999491 ) ;
#71 = CARTESIAN_POINT ( 'NONE',  ( 0.01132999999999999979, 1.387524823433950006E-18, 0.03951000000000000345 ) ) ;
#72 = AXIS2_PLACEMENT_3D ( 'NONE', #143, #74, #187 ) ;
#73 = EDGE_CURVE ( 'NONE', #111, #57, #69, .T. ) ;
#74 = DIRECTION ( 'NONE',  ( 0.000000000000000000, -1.000000000000000000, 0.000000000000000000 ) ) ;
#75 = PERSON_AND_ORGANIZATION_ROLE ( 'creator' ) ;
#76 = APPROVAL_ROLE ( '' ) ;
#77 = COORDINATED_UNIVERSAL_TIME_OFFSET ( 1, 0, .AHEAD. ) ;
#78 =( GEOMETRIC_REPRESENTATION_CONTEXT ( 3 ) GLOBAL_UNCERTAINTY_ASSIGNED_CONTEXT ( ( #46 ) ) GLOBAL_UNIT_ASSIGNED_CONTEXT ( ( #27, #98, #158 ) ) REPRESENTATION_CONTEXT ( 'NONE', 'WORKASPACE' ) );
#79 = DATE_AND_TIME ( #65, #103 ) ;
#80 = AXIS2_PLACEMENT_3D ( 'NONE', #64, #48, #122 ) ;
#81 = ADVANCED_FACE ( 'NONE', ( #36 ), #174, .T. ) ;
#82 = AXIS2_PLACEMENT_3D ( 'NONE', #10, #132, #116 ) ;
#83 = DIRECTION ( 'NONE',  ( 0.000000000000000000, 0.000000000000000000, -1.000000000000000000 ) ) ;
#84 = AXIS2_PLACEMENT_3D ( 'NONE', #176, #190, #105 ) ;
#85 = DIRECTION ( 'NONE',  ( 0.000000000000000000, -1.000000000000000000, 0.000000000000000000 ) ) ;
#86 = DIRECTION ( 'NONE',  ( -1.000000000000000000, 0.000000000000000000, 0.000000000000000000 ) ) ;
#87 = DATE_AND_TIME ( #31, #108 ) ;
#88 = DATE_TIME_ROLE ( 'classification_date' ) ;
#89 = ORIENTED_EDGE ( 'NONE', *, *, #25, .F. ) ;
#90 = APPROVAL_PERSON_ORGANIZATION ( #172, #139, #76 ) ;
#91 = ORIENTED_EDGE ( 'NONE', *, *, #142, .F. ) ;
#92 = AXIS2_PLACEMENT_3D ( 'NONE', #155, #83, #58 ) ;
#93 = CC_DESIGN_PERSON_AND_ORGANIZATION_ASSIGNMENT ( #114, #75, ( #19 ) ) ;
#94 = ORIENTED_EDGE ( 'NONE', *, *, #2, .T. ) ;
#95 = CC_DESIGN_PERSON_AND_ORGANIZATION_ASSIGNMENT ( #11, #161, ( #32 ) ) ;
#96 = APPROVAL ( #146, 'UNSPECIFIED' ) ;
#97 = CC_DESIGN_APPROVAL ( #96, ( #62 ) ) ;
#98 =( NAMED_UNIT ( * ) PLANE_ANGLE_UNIT ( ) SI_UNIT ( $, .RADIAN. ) );
#99 = DIRECTION ( 'NONE',  ( 1.000000000000000000, 0.000000000000000000, 0.000000000000000000 ) ) ;
#100 = CARTESIAN_POINT ( 'NONE',  ( 0.000000000000000000, 0.000000000000000000, 0.03951000000000000345 ) ) ;
#101 = APPLICATION_PROTOCOL_DEFINITION ( 'international standard', 'config_control_design', 1994, #13 ) ;
#102 = APPROVAL_DATE_TIME ( #162, #96 ) ;
#103 = LOCAL_TIME ( 9, 7, 24.00000000000000000, #18 ) ;
#104 = PERSON_AND_ORGANIZATION_ROLE ( 'design_supplier' ) ;
#105 = DIRECTION ( 'NONE',  ( -1.000000000000000000, -1.224646799147351728E-16, 0.000000000000000000 ) ) ;
#106 = APPROVAL_STATUS ( 'not_yet_approved' ) ;
#107 = ORIENTED_EDGE ( 'NONE', *, *, #179, .T. ) ;
#108 = LOCAL_TIME ( 9, 7, 24.00000000000000000, #30 ) ;
#109 = ORIENTED_EDGE ( 'NONE', *, *, #133, .F. ) ;
#110 = ADVANCED_FACE ( 'NONE', ( #152 ), #156, .T. ) ;
#111 = VERTEX_POINT ( 'NONE', #71 ) ;
#112 = DIRECTION ( 'NONE',  ( 0.000000000000000000, 0.000000000000000000, -1.000000000000000000 ) ) ;
#113 = CARTESIAN_POINT ( 'NONE',  ( -0.01043999999999999963, 0.000000000000000000, 0.03951000000000000345 ) ) ;
#114 = PERSON_AND_ORGANIZATION ( #17, #7 ) ;
#115 = CARTESIAN_POINT ( 'NONE',  ( 0.000000000000000000, 0.000000000000000000, 0.03951000000000000345 ) ) ;
#116 = DIRECTION ( 'NONE',  ( -1.000000000000000000, 0.000000000000000000, 0.000000000000000000 ) ) ;
#117 = CALENDAR_DATE ( 2024, 20, 3 ) ;
#118 = APPLICATION_CONTEXT ( 'configuration controlled 3d designs of mechanical parts and assemblies' ) ;
#119 = SHAPE_DEFINITION_REPRESENTATION ( #3, #52 ) ;
#120 = CIRCLE ( 'NONE', #128, 0.0008900000000000019007 ) ;
#121 = APPROVAL_DATE_TIME ( #47, #23 ) ;
#122 = DIRECTION ( 'NONE',  ( -1.000000000000000000, 0.000000000000000000, 0.000000000000000000 ) ) ;
#123 = PERSON_AND_ORGANIZATION ( #17, #7 ) ;
#124 = ORIENTED_EDGE ( 'NONE', *, *, #6, .T. ) ;
#125 = CARTESIAN_POINT ( 'NONE',  ( 0.000000000000000000, 0.000000000000000000, 0.03951000000000000345 ) ) ;
#126 = AXIS2_PLACEMENT_3D ( 'NONE', #184, #112, #37 ) ;
#127 = ORIENTED_EDGE ( 'NONE', *, *, #133, .T. ) ;
#128 = AXIS2_PLACEMENT_3D ( 'NONE', #113, #85, #60 ) ;
#129 = DIRECTION ( 'NONE',  ( -1.224646799147351975E-16, 1.000000000000000000, 0.000000000000000000 ) ) ;
#130 = CIRCLE ( 'NONE', #72, 0.0008900000000000019007 ) ;
#131 = CC_DESIGN_PERSON_AND_ORGANIZATION_ASSIGNMENT ( #123, #104, ( #167 ) ) ;
#132 = DIRECTION ( 'NONE',  ( 0.000000000000000000, 0.000000000000000000, -1.000000000000000000 ) ) ;
#133 = EDGE_CURVE ( 'NONE', #111, #54, #191, .T. ) ;
#134 = DATE_AND_TIME ( #117, #140 ) ;
#135 = CC_DESIGN_APPROVAL ( #139, ( #19 ) ) ;
#136 = CALENDAR_DATE ( 2024, 20, 3 ) ;
#137 = PERSON_AND_ORGANIZATION ( #17, #7 ) ;
#138 = AXIS2_PLACEMENT_3D ( 'NONE', #147, #15, #38 ) ;
#139 = APPROVAL ( #188, 'UNSPECIFIED' ) ;
#140 = LOCAL_TIME ( 9, 7, 24.00000000000000000, #186 ) ;
#141 = CARTESIAN_POINT ( 'NONE',  ( 0.009549999999999999462, 1.169537693185722111E-18, 0.03951000000000000345 ) ) ;
#142 = EDGE_CURVE ( 'NONE', #57, #168, #130, .T. ) ;
#143 = CARTESIAN_POINT ( 'NONE',  ( -0.01043999999999999963, 0.000000000000000000, 0.03951000000000000345 ) ) ;
#144 = MECHANICAL_CONTEXT ( 'NONE', #118, 'mechanical' ) ;
#145 = DESIGN_CONTEXT ( 'detailed design', #13, 'design' ) ;
#146 = APPROVAL_STATUS ( 'not_yet_approved' ) ;
#147 = CARTESIAN_POINT ( 'NONE',  ( 0.000000000000000000, 0.000000000000000000, 0.03951000000000000345 ) ) ;
#148 = PERSON_AND_ORGANIZATION_ROLE ( 'creator' ) ;
#149 = PERSON_AND_ORGANIZATION ( #17, #7 ) ;
#150 = CLOSED_SHELL ( 'NONE', ( #110, #81, #165, #44 ) ) ;
#151 = EDGE_LOOP ( 'NONE', ( #169, #153, #171, #124 ) ) ;
#152 = FACE_OUTER_BOUND ( 'NONE', #24, .T. ) ;
#153 = ORIENTED_EDGE ( 'NONE', *, *, #179, .F. ) ;
#154 = APPROVAL_PERSON_ORGANIZATION ( #137, #23, #63 ) ;
#155 = CARTESIAN_POINT ( 'NONE',  ( 0.000000000000000000, 0.000000000000000000, 0.03951000000000000345 ) ) ;
#156 = TOROIDAL_SURFACE ( 'NONE', #82, 0.01043999999999999963, 0.0008899999999999999491 ) ;
#157 = FACE_OUTER_BOUND ( 'NONE', #166, .T. ) ;
#158 =( NAMED_UNIT ( * ) SI_UNIT ( $, .STERADIAN. ) SOLID_ANGLE_UNIT ( ) );
#159 = DIRECTION ( 'NONE',  ( 0.000000000000000000, 0.000000000000000000, -1.000000000000000000 ) ) ;
#160 = DIRECTION ( 'NONE',  ( -1.000000000000000000, 0.000000000000000000, 0.000000000000000000 ) ) ;
#161 = PERSON_AND_ORGANIZATION_ROLE ( 'design_owner' ) ;
#162 = DATE_AND_TIME ( #136, #51 ) ;
#163 = PERSON_AND_ORGANIZATION ( #17, #7 ) ;
#164 = SECURITY_CLASSIFICATION_LEVEL ( 'unclassified' ) ;
#165 = ADVANCED_FACE ( 'NONE', ( #173 ), #70, .T. ) ;
#166 = EDGE_LOOP ( 'NONE', ( #109, #180, #50, #89 ) ) ;
#167 = PRODUCT_DEFINITION_FORMATION_WITH_SPECIFIED_SOURCE ( 'ANY', '', #32, .NOT_KNOWN. ) ;
#168 = VERTEX_POINT ( 'NONE', #28 ) ;
#169 = ORIENTED_EDGE ( 'NONE', *, *, #2, .F. ) ;
#170 = ORIENTED_EDGE ( 'NONE', *, *, #6, .F. ) ;
#171 = ORIENTED_EDGE ( 'NONE', *, *, #67, .T. ) ;
#172 = PERSON_AND_ORGANIZATION ( #17, #7 ) ;
#173 = FACE_OUTER_BOUND ( 'NONE', #5, .T. ) ;
#174 = TOROIDAL_SURFACE ( 'NONE', #53, 0.01043999999999999963, 0.0008899999999999999491 ) ;
#175 = PERSON_AND_ORGANIZATION ( #17, #7 ) ;
#176 = CARTESIAN_POINT ( 'NONE',  ( 0.01043999999999999963, 1.278531258309835866E-18, 0.03951000000000000345 ) ) ;
#177 = CIRCLE ( 'NONE', #84, 0.0008900000000000001660 ) ;
#178 = DATE_TIME_ROLE ( 'creation_date' ) ;
#179 = EDGE_CURVE ( 'NONE', #168, #57, #120, .T. ) ;
#180 = ORIENTED_EDGE ( 'NONE', *, *, #73, .T. ) ;
#181 = CC_DESIGN_APPROVAL ( #23, ( #167 ) ) ;
#182 = AXIS2_PLACEMENT_3D ( 'NONE', #185, #129, #42 ) ;
#183 = LOCAL_TIME ( 9, 7, 24.00000000000000000, #189 ) ;
#184 = CARTESIAN_POINT ( 'NONE',  ( 0.000000000000000000, 0.000000000000000000, 0.03951000000000000345 ) ) ;
#185 = CARTESIAN_POINT ( 'NONE',  ( 0.01043999999999999963, 1.278531258309835866E-18, 0.03951000000000000345 ) ) ;
#186 = COORDINATED_UNIVERSAL_TIME_OFFSET ( 1, 0, .AHEAD. ) ;
#187 = DIRECTION ( 'NONE',  ( 0.000000000000000000, 0.000000000000000000, -1.000000000000000000 ) ) ;
#188 = APPROVAL_STATUS ( 'not_yet_approved' ) ;
#189 = COORDINATED_UNIVERSAL_TIME_OFFSET ( 1, 0, .AHEAD. ) ;
#190 = DIRECTION ( 'NONE',  ( -1.224646799147351975E-16, 1.000000000000000000, 0.000000000000000000 ) ) ;
#191 = CIRCLE ( 'NONE', #182, 0.0008900000000000001660 ) ;
#192 = CC_DESIGN_DATE_AND_TIME_ASSIGNMENT ( #79, #178, ( #19 ) ) ;
#193 = CALENDAR_DATE ( 2024, 20, 3 ) ;
ENDSEC;
END-ISO-10303-21;
