ISO-10303-21;
HEADER;
FILE_DESCRIPTION (( 'STEP AP203' ),
    '1' );
FILE_NAME ('STP-140.950.STEP',
    '2021-03-17T06:16:36',
    ( '' ),
    ( '' ),
    'SwSTEP 2.0',
    'SolidWorks 2017',
    '' );
FILE_SCHEMA (( 'CONFIG_CONTROL_DESIGN' ));
ENDSEC;

DATA;
#1 = VERTEX_POINT ( 'NONE', #275 ) ;
#2 = DIRECTION ( 'NONE',  ( -0.2588190451025209100, 3.169619151431766800E-017, 0.9659258262890682000 ) ) ;
#3 = EDGE_CURVE ( 'NONE', #184, #91, #268, .T. ) ;
#4 = LINE ( 'NONE', #92, #298 ) ;
#5 = CC_DESIGN_APPROVAL ( #356, ( #62 ) ) ;
#6 = DATE_AND_TIME ( #127, #255 ) ;
#7 = ORIENTED_EDGE ( 'NONE', *, *, #199, .F. ) ;
#8 = ORIENTED_EDGE ( 'NONE', *, *, #226, .T. ) ;
#9 = CYLINDRICAL_SURFACE ( 'NONE', #302, 2.475000000000000100 ) ;
#10 = CARTESIAN_POINT ( 'NONE',  ( 0.0000000000000000000, 1.939101615137754900, -22.39999999999999900 ) ) ;
#11 = DIRECTION ( 'NONE',  ( 1.000000000000000000, 0.0000000000000000000, 0.0000000000000000000 ) ) ;
#12 = APPROVAL_PERSON_ORGANIZATION ( #185, #107, #53 ) ;
#13 = DIRECTION ( 'NONE',  ( 1.000000000000000000, 0.0000000000000000000, 0.0000000000000000000 ) ) ;
#14 = DIRECTION ( 'NONE',  ( -0.0000000000000000000, -0.0000000000000000000, 1.000000000000000000 ) ) ;
#15 = CARTESIAN_POINT ( 'NONE',  ( 0.0000000000000000000, 0.0000000000000000000, -22.39999999999999900 ) ) ;
#16 = DIRECTION ( 'NONE',  ( -0.0000000000000000000, -0.0000000000000000000, 1.000000000000000000 ) ) ;
#17 = ORIENTED_EDGE ( 'NONE', *, *, #165, .T. ) ;
#18 = ORIENTED_EDGE ( 'NONE', *, *, #89, .F. ) ;
#19 = DIRECTION ( 'NONE',  ( -0.0000000000000000000, -0.0000000000000000000, 1.000000000000000000 ) ) ;
#20 = DIRECTION ( 'NONE',  ( -0.0000000000000000000, -0.0000000000000000000, 1.000000000000000000 ) ) ;
#21 = CARTESIAN_POINT ( 'NONE',  ( 0.0000000000000000000, 0.0000000000000000000, 0.0000000000000000000 ) ) ;
#22 = CARTESIAN_POINT ( 'NONE',  ( 2.475000000000000100, 0.0000000000000000000, 0.0000000000000000000 ) ) ;
#23 = FACE_OUTER_BOUND ( 'NONE', #112, .T. ) ;
#24 = DATE_TIME_ROLE ( 'creation_date' ) ;
#25 = APPLICATION_CONTEXT ( 'configuration controlled 3d designs of mechanical parts and assemblies' ) ;
#26 = AXIS2_PLACEMENT_3D ( 'NONE', #340, #283, #68 ) ;
#27 = CARTESIAN_POINT ( 'NONE',  ( 0.0000000000000000000, 0.0000000000000000000, 0.0000000000000000000 ) ) ;
#28 = AXIS2_PLACEMENT_3D ( 'NONE', #182, #161, #160 ) ;
#29 = ORIENTED_EDGE ( 'NONE', *, *, #232, .F. ) ;
#30 = VERTEX_POINT ( 'NONE', #108 ) ;
#31 = ADVANCED_FACE ( 'NONE', ( #23 ), #163, .F. ) ;
#32 = SECURITY_CLASSIFICATION ( '', '', #55 ) ;
#33 = APPROVAL ( #256, 'UNSPECIFIED' ) ;
#34 = ORIENTED_EDGE ( 'NONE', *, *, #219, .T. ) ;
#35 = ORIENTED_EDGE ( 'NONE', *, *, #292, .F. ) ;
#36 = PLANE ( 'NONE',  #281 ) ;
#37 = AXIS2_PLACEMENT_3D ( 'NONE', #88, #303, #238 ) ;
#38 = DIRECTION ( 'NONE',  ( -0.0000000000000000000, -0.0000000000000000000, 1.000000000000000000 ) ) ;
#39 = CIRCLE ( 'NONE', #348, 5.999999999999999100 ) ;
#40 = VERTEX_POINT ( 'NONE', #299 ) ;
#41 = APPROVAL_DATE_TIME ( #122, #33 ) ;
#42 = CARTESIAN_POINT ( 'NONE',  ( 0.0000000000000000000, 0.0000000000000000000, 0.0000000000000000000 ) ) ;
#43 = CARTESIAN_POINT ( 'NONE',  ( 0.0000000000000000000, 0.0000000000000000000, -22.39999999999999900 ) ) ;
#44 = CARTESIAN_POINT ( 'NONE',  ( 0.0000000000000000000, 0.0000000000000000000, -20.40000000000000200 ) ) ;
#45 = CARTESIAN_POINT ( 'NONE',  ( 0.0000000000000000000, 0.0000000000000000000, 0.0000000000000000000 ) ) ;
#46 = CIRCLE ( 'NONE', #76, 1.499999999999996900 ) ;
#47 = CARTESIAN_POINT ( 'NONE',  ( 0.0000000000000000000, 0.0000000000000000000, -10.00000000000000000 ) ) ;
#48 = CARTESIAN_POINT ( 'NONE',  ( 1.939101615137754900, 0.0000000000000000000, -22.39999999999999900 ) ) ;
#49 = DIRECTION ( 'NONE',  ( -0.0000000000000000000, -0.0000000000000000000, 1.000000000000000000 ) ) ;
#50 = VECTOR ( 'NONE', #304, 1000.000000000000000 ) ;
#51 = ORIENTED_EDGE ( 'NONE', *, *, #250, .T. ) ;
#52 = ORIENTED_EDGE ( 'NONE', *, *, #131, .F. ) ;
#53 = APPROVAL_ROLE ( '' ) ;
#54 = PERSON_AND_ORGANIZATION_ROLE ( 'design_supplier' ) ;
#55 = SECURITY_CLASSIFICATION_LEVEL ( 'unclassified' ) ;
#56 = FACE_OUTER_BOUND ( 'NONE', #70, .T. ) ;
#57 = APPROVAL_ROLE ( '' ) ;
#58 = CC_DESIGN_PERSON_AND_ORGANIZATION_ASSIGNMENT ( #296, #123, ( #319 ) ) ;
#59 = ORIENTED_EDGE ( 'NONE', *, *, #330, .T. ) ;
#60 = AXIS2_PLACEMENT_3D ( 'NONE', #21, #190, #220 ) ;
#61 = PERSON_AND_ORGANIZATION ( #128, #139 ) ;
#62 = PRODUCT_DEFINITION_FORMATION_WITH_SPECIFIED_SOURCE ( 'ANY', '', #319, .NOT_KNOWN. ) ;
#63 = LINE ( 'NONE', #146, #81 ) ;
#64 = ORIENTED_EDGE ( 'NONE', *, *, #258, .F. ) ;
#65 = SHAPE_DEFINITION_REPRESENTATION ( #152, #264 ) ;
#66 = CARTESIAN_POINT ( 'NONE',  ( 1.939101615137754900, 0.0000000000000000000, -22.39999999999999900 ) ) ;
#67 = CARTESIAN_POINT ( 'NONE',  ( 0.0000000000000000000, 0.0000000000000000000, -20.40000000000000200 ) ) ;
#68 = DIRECTION ( 'NONE',  ( 1.000000000000000000, 0.0000000000000000000, 0.0000000000000000000 ) ) ;
#69 = AXIS2_PLACEMENT_3D ( 'NONE', #15, #279, #93 ) ;
#70 = EDGE_LOOP ( 'NONE', ( #7, #121, #202, #321 ) ) ;
#71 = LINE ( 'NONE', #313, #360 ) ;
#72 = CARTESIAN_POINT ( 'NONE',  ( -1.499999999999996900, 1.836970198721027000E-016, 0.0000000000000000000 ) ) ;
#73 = DIRECTION ( 'NONE',  ( 1.000000000000000000, 0.0000000000000000000, 0.0000000000000000000 ) ) ;
#74 = FACE_OUTER_BOUND ( 'NONE', #272, .T. ) ;
#75 = LOCAL_TIME ( 14, 16, 36.00000000000000000, #316 ) ;
#76 = AXIS2_PLACEMENT_3D ( 'NONE', #364, #177, #13 ) ;
#77 = CARTESIAN_POINT ( 'NONE',  ( 0.0000000000000000000, 0.0000000000000000000, 0.0000000000000000000 ) ) ;
#78 = APPROVAL_DATE_TIME ( #231, #356 ) ;
#79 = CC_DESIGN_PERSON_AND_ORGANIZATION_ASSIGNMENT ( #274, #188, ( #32 ) ) ;
#80 =( NAMED_UNIT ( * ) PLANE_ANGLE_UNIT ( ) SI_UNIT ( $, .RADIAN. ) );
#81 = VECTOR ( 'NONE', #179, 1000.000000000000000 ) ;
#82 = LINE ( 'NONE', #22, #301 ) ;
#83 = CYLINDRICAL_SURFACE ( 'NONE', #346, 6.000000000000000000 ) ;
#84 = AXIS2_PLACEMENT_3D ( 'NONE', #47, #369, #244 ) ;
#85 = ADVANCED_FACE ( 'NONE', ( #180, #102 ), #36, .F. ) ;
#86 = CIRCLE ( 'NONE', #235, 6.000000000000000000 ) ;
#87 = PRODUCT_DEFINITION ( 'UNKNOWN', '', #62, #374 ) ;
#88 = CARTESIAN_POINT ( 'NONE',  ( 0.0000000000000000000, 0.0000000000000000000, -22.39999999999999900 ) ) ;
#89 = EDGE_CURVE ( 'NONE', #324, #273, #111, .T. ) ;
#90 = CIRCLE ( 'NONE', #26, 2.475000000000000100 ) ;
#91 = VERTEX_POINT ( 'NONE', #114 ) ;
#92 = CARTESIAN_POINT ( 'NONE',  ( 6.000000000000000000, 0.0000000000000000000, 0.0000000000000000000 ) ) ;
#93 = DIRECTION ( 'NONE',  ( 1.000000000000000000, 0.0000000000000000000, 0.0000000000000000000 ) ) ;
#94 = ORIENTED_EDGE ( 'NONE', *, *, #361, .T. ) ;
#95 = CARTESIAN_POINT ( 'NONE',  ( 0.0000000000000000000, 0.0000000000000000000, 0.0000000000000000000 ) ) ;
#96 = APPLICATION_PROTOCOL_DEFINITION ( 'international standard', 'config_control_design', 1994, #315 ) ;
#97 = EDGE_LOOP ( 'NONE', ( #34, #193, #227, #334 ) ) ;
#98 = EDGE_LOOP ( 'NONE', ( #94, #159 ) ) ;
#99 = PERSON_AND_ORGANIZATION ( #128, #139 ) ;
#100 = CARTESIAN_POINT ( 'NONE',  ( 1.500000000000000000, 0.0000000000000000000, -22.39999999999999900 ) ) ;
#101 = FACE_BOUND ( 'NONE', #201, .T. ) ;
#102 = FACE_BOUND ( 'NONE', #289, .T. ) ;
#103 = EDGE_LOOP ( 'NONE', ( #29, #342, #359, #280 ) ) ;
#104 = CALENDAR_DATE ( 2021, 17, 3 ) ;
#105 = VERTEX_POINT ( 'NONE', #66 ) ;
#106 = EDGE_CURVE ( 'NONE', #134, #40, #86, .T. ) ;
#107 = APPROVAL ( #344, 'UNSPECIFIED' ) ;
#108 = CARTESIAN_POINT ( 'NONE',  ( 2.475000000000000100, 0.0000000000000000000, -10.00000000000000000 ) ) ;
#109 = CIRCLE ( 'NONE', #266, 1.499999999999996900 ) ;
#110 = ADVANCED_FACE ( 'NONE', ( #101, #332 ), #172, .F. ) ;
#111 = CIRCLE ( 'NONE', #191, 5.999999999999999100 ) ;
#112 = EDGE_LOOP ( 'NONE', ( #149, #183, #173, #138 ) ) ;
#113 = PERSON_AND_ORGANIZATION ( #128, #139 ) ;
#114 = CARTESIAN_POINT ( 'NONE',  ( 2.475000000000000100, 0.0000000000000000000, -20.40000000000000200 ) ) ;
#115 = CIRCLE ( 'NONE', #69, 1.500000000000000000 ) ;
#116 = DIRECTION ( 'NONE',  ( -0.0000000000000000000, -0.0000000000000000000, 1.000000000000000000 ) ) ;
#117 = UNCERTAINTY_MEASURE_WITH_UNIT (LENGTH_MEASURE( 1.000000000000000100E-005 ), #154, 'distance_accuracy_value', 'NONE');
#118 = CARTESIAN_POINT ( 'NONE',  ( 0.0000000000000000000, 0.0000000000000000000, 0.0000000000000000000 ) ) ;
#119 = DIRECTION ( 'NONE',  ( 1.000000000000000000, 0.0000000000000000000, 0.0000000000000000000 ) ) ;
#120 = FACE_BOUND ( 'NONE', #262, .T. ) ;
#121 = ORIENTED_EDGE ( 'NONE', *, *, #89, .T. ) ;
#122 = DATE_AND_TIME ( #104, #203 ) ;
#123 = PERSON_AND_ORGANIZATION_ROLE ( 'design_owner' ) ;
#124 = EDGE_CURVE ( 'NONE', #197, #105, #337, .T. ) ;
#125 = DIRECTION ( 'NONE',  ( 1.000000000000000000, 0.0000000000000000000, 0.0000000000000000000 ) ) ;
#126 = ORIENTED_EDGE ( 'NONE', *, *, #210, .T. ) ;
#127 = CALENDAR_DATE ( 2021, 17, 3 ) ;
#128 = PERSON ( 'UNSPECIFIED', 'UNSPECIFIED', 'UNSPECIFIED', ('UNSPECIFIED'), ('UNSPECIFIED'), ('UNSPECIFIED') ) ;
#129 = MANIFOLD_SOLID_BREP ( '°£®Æ-±ÛÂà1', #326 ) ;
#130 = FACE_OUTER_BOUND ( 'NONE', #317, .T. ) ;
#131 = EDGE_CURVE ( 'NONE', #157, #300, #46, .T. ) ;
#132 = FACE_OUTER_BOUND ( 'NONE', #98, .T. ) ;
#133 = CC_DESIGN_PERSON_AND_ORGANIZATION_ASSIGNMENT ( #218, #54, ( #62 ) ) ;
#134 = VERTEX_POINT ( 'NONE', #171 ) ;
#135 = COORDINATED_UNIVERSAL_TIME_OFFSET ( 8, 0, .AHEAD. ) ;
#136 = EDGE_CURVE ( 'NONE', #273, #40, #4, .T. ) ;
#137 = ORIENTED_EDGE ( 'NONE', *, *, #237, .T. ) ;
#138 = ORIENTED_EDGE ( 'NONE', *, *, #170, .F. ) ;
#139 = ORGANIZATION ( 'UNSPECIFIED', 'UNSPECIFIED', '' ) ;
#140 = ADVANCED_FACE ( 'NONE', ( #74 ), #168, .T. ) ;
#141 = DIRECTION ( 'NONE',  ( -0.0000000000000000000, -0.0000000000000000000, 1.000000000000000000 ) ) ;
#142 = ADVANCED_FACE ( 'NONE', ( #358 ), #260, .F. ) ;
#143 = EDGE_CURVE ( 'NONE', #184, #1, #253, .T. ) ;
#144 = ORIENTED_EDGE ( 'NONE', *, *, #228, .T. ) ;
#145 = CC_DESIGN_APPROVAL ( #33, ( #32 ) ) ;
#146 = CARTESIAN_POINT ( 'NONE',  ( 1.499999999999998400, 0.0000000000000000000, 0.0000000000000000000 ) ) ;
#147 = DIRECTION ( 'NONE',  ( 0.2588190451025209100, 0.0000000000000000000, 0.9659258262890682000 ) ) ;
#148 = CARTESIAN_POINT ( 'NONE',  ( 0.0000000000000000000, 0.0000000000000000000, -22.39999999999999900 ) ) ;
#149 = ORIENTED_EDGE ( 'NONE', *, *, #226, .F. ) ;
#150 = ORIENTED_EDGE ( 'NONE', *, *, #124, .T. ) ;
#151 = COORDINATED_UNIVERSAL_TIME_OFFSET ( 8, 0, .AHEAD. ) ;
#152 = PRODUCT_DEFINITION_SHAPE ( 'NONE', 'NONE',  #87 ) ;
#153 = EDGE_CURVE ( 'NONE', #343, #311, #115, .T. ) ;
#154 =( LENGTH_UNIT ( ) NAMED_UNIT ( * ) SI_UNIT ( .MILLI., .METRE. ) );
#155 = CC_DESIGN_SECURITY_CLASSIFICATION ( #32, ( #62 ) ) ;
#156 = VECTOR ( 'NONE', #147, 1000.000000000000000 ) ;
#157 = VERTEX_POINT ( 'NONE', #72 ) ;
#158 = CIRCLE ( 'NONE', #187, 6.000000000000000000 ) ;
#159 = ORIENTED_EDGE ( 'NONE', *, *, #106, .T. ) ;
#160 = DIRECTION ( 'NONE',  ( 1.000000000000000000, 0.0000000000000000000, 0.0000000000000000000 ) ) ;
#161 = DIRECTION ( 'NONE',  ( 0.0000000000000000000, 0.0000000000000000000, 1.000000000000000000 ) ) ;
#162 = CC_DESIGN_DATE_AND_TIME_ASSIGNMENT ( #263, #24, ( #87 ) ) ;
#163 = CYLINDRICAL_SURFACE ( 'NONE', #259, 1.499999999999998400 ) ;
#164 = LINE ( 'NONE', #213, #350 ) ;
#165 = EDGE_CURVE ( 'NONE', #105, #197, #216, .T. ) ;
#166 = EDGE_LOOP ( 'NONE', ( #137, #269, #196, #230 ) ) ;
#167 = PRODUCT_RELATED_PRODUCT_CATEGORY ( 'detail', '', ( #319 ) ) ;
#168 = CONICAL_SURFACE ( 'NONE', #261, 1.939101615137754900, 0.2617993877991495700 ) ;
#169 = ORIENTED_EDGE ( 'NONE', *, *, #3, .T. ) ;
#170 = EDGE_CURVE ( 'NONE', #343, #300, #63, .T. ) ;
#171 = CARTESIAN_POINT ( 'NONE',  ( -6.000000000000000000, 7.347880794884119700E-016, 0.0000000000000000000 ) ) ;
#172 = PLANE ( 'NONE',  #339 ) ;
#173 = ORIENTED_EDGE ( 'NONE', *, *, #131, .T. ) ;
#174 = ORIENTED_EDGE ( 'NONE', *, *, #250, .F. ) ;
#175 = AXIS2_PLACEMENT_3D ( 'NONE', #44, #19, #368 ) ;
#176 = CARTESIAN_POINT ( 'NONE',  ( 0.0000000000000000000, 0.0000000000000000000, 0.0000000000000000000 ) ) ;
#177 = DIRECTION ( 'NONE',  ( -0.0000000000000000000, -0.0000000000000000000, 1.000000000000000000 ) ) ;
#178 = DIRECTION ( 'NONE',  ( -0.0000000000000000000, -0.0000000000000000000, 1.000000000000000000 ) ) ;
#179 = DIRECTION ( 'NONE',  ( -0.0000000000000000000, -0.0000000000000000000, 1.000000000000000000 ) ) ;
#180 = FACE_OUTER_BOUND ( 'NONE', #234, .T. ) ;
#181 = CARTESIAN_POINT ( 'NONE',  ( 0.0000000000000000000, 0.0000000000000000000, 0.0000000000000000000 ) ) ;
#182 = CARTESIAN_POINT ( 'NONE',  ( 0.0000000000000000000, 0.0000000000000000000, 0.0000000000000000000 ) ) ;
#183 = ORIENTED_EDGE ( 'NONE', *, *, #232, .T. ) ;
#184 = VERTEX_POINT ( 'NONE', #212 ) ;
#185 = PERSON_AND_ORGANIZATION ( #128, #139 ) ;
#186 = APPLICATION_PROTOCOL_DEFINITION ( 'international standard', 'config_control_design', 1994, #25 ) ;
#187 = AXIS2_PLACEMENT_3D ( 'NONE', #27, #49, #125 ) ;
#188 = PERSON_AND_ORGANIZATION_ROLE ( 'classification_officer' ) ;
#189 = EDGE_LOOP ( 'NONE', ( #377, #169, #59, #294 ) ) ;
#190 = DIRECTION ( 'NONE',  ( 0.0000000000000000000, 0.0000000000000000000, -1.000000000000000000 ) ) ;
#191 = AXIS2_PLACEMENT_3D ( 'NONE', #331, #241, #362 ) ;
#192 = ORIENTED_EDGE ( 'NONE', *, *, #237, .F. ) ;
#193 = ORIENTED_EDGE ( 'NONE', *, *, #199, .T. ) ;
#194 = DATE_AND_TIME ( #229, #353 ) ;
#195 = CC_DESIGN_PERSON_AND_ORGANIZATION_ASSIGNMENT ( #99, #378, ( #62 ) ) ;
#196 = ORIENTED_EDGE ( 'NONE', *, *, #210, .F. ) ;
#197 = VERTEX_POINT ( 'NONE', #251 ) ;
#198 = FACE_OUTER_BOUND ( 'NONE', #189, .T. ) ;
#199 = EDGE_CURVE ( 'NONE', #324, #134, #164, .T. ) ;
#200 = DIRECTION ( 'NONE',  ( -0.0000000000000000000, -0.0000000000000000000, 1.000000000000000000 ) ) ;
#201 = EDGE_LOOP ( 'NONE', ( #242, #8 ) ) ;
#202 = ORIENTED_EDGE ( 'NONE', *, *, #136, .T. ) ;
#203 = LOCAL_TIME ( 14, 16, 36.00000000000000000, #151 ) ;
#204 = DIRECTION ( 'NONE',  ( 1.000000000000000000, 0.0000000000000000000, 0.0000000000000000000 ) ) ;
#205 =( GEOMETRIC_REPRESENTATION_CONTEXT ( 3 ) GLOBAL_UNCERTAINTY_ASSIGNED_CONTEXT ( ( #117 ) ) GLOBAL_UNIT_ASSIGNED_CONTEXT ( ( #154, #80, #287 ) ) REPRESENTATION_CONTEXT ( 'NONE', 'WORKASPACE' ) );
#206 = DIRECTION ( 'NONE',  ( -0.0000000000000000000, -0.0000000000000000000, 1.000000000000000000 ) ) ;
#207 = DIRECTION ( 'NONE',  ( -0.0000000000000000000, -0.0000000000000000000, 1.000000000000000000 ) ) ;
#208 = ORIENTED_EDGE ( 'NONE', *, *, #219, .F. ) ;
#209 = FACE_OUTER_BOUND ( 'NONE', #97, .T. ) ;
#210 = EDGE_CURVE ( 'NONE', #30, #1, #90, .T. ) ;
#211 = ADVANCED_FACE ( 'NONE', ( #130 ), #240, .T. ) ;
#212 = CARTESIAN_POINT ( 'NONE',  ( -2.475000000000000100, 3.031000827889699300E-016, -20.40000000000000200 ) ) ;
#213 = CARTESIAN_POINT ( 'NONE',  ( -6.000000000000000000, 7.347880794884119700E-016, 0.0000000000000000000 ) ) ;
#214 = DIRECTION ( 'NONE',  ( -0.0000000000000000000, -0.0000000000000000000, 1.000000000000000000 ) ) ;
#215 = DIRECTION ( 'NONE',  ( 1.000000000000000000, 0.0000000000000000000, 0.0000000000000000000 ) ) ;
#216 = CIRCLE ( 'NONE', #375, 1.939101615137754900 ) ;
#217 = DIRECTION ( 'NONE',  ( 1.000000000000000000, 0.0000000000000000000, 0.0000000000000000000 ) ) ;
#218 = PERSON_AND_ORGANIZATION ( #128, #139 ) ;
#219 = EDGE_CURVE ( 'NONE', #273, #324, #39, .T. ) ;
#220 = DIRECTION ( 'NONE',  ( -1.000000000000000000, 0.0000000000000000000, -0.0000000000000000000 ) ) ;
#221 = AXIS2_PLACEMENT_3D ( 'NONE', #77, #254, #257 ) ;
#222 = CARTESIAN_POINT ( 'NONE',  ( 1.499999999999996900, 0.0000000000000000000, 0.0000000000000000000 ) ) ;
#223 = APPROVAL_ROLE ( '' ) ;
#224 = APPROVAL_DATE_TIME ( #6, #107 ) ;
#225 = DATE_TIME_ROLE ( 'classification_date' ) ;
#226 = EDGE_CURVE ( 'NONE', #311, #343, #322, .T. ) ;
#227 = ORIENTED_EDGE ( 'NONE', *, *, #361, .F. ) ;
#228 = EDGE_CURVE ( 'NONE', #1, #30, #371, .T. ) ;
#229 = CALENDAR_DATE ( 2021, 17, 3 ) ;
#230 = ORIENTED_EDGE ( 'NONE', *, *, #330, .F. ) ;
#231 = DATE_AND_TIME ( #290, #75 ) ;
#232 = EDGE_CURVE ( 'NONE', #311, #157, #293, .T. ) ;
#233 = ADVANCED_FACE ( 'NONE', ( #285 ), #354, .T. ) ;
#234 = EDGE_LOOP ( 'NONE', ( #208, #18 ) ) ;
#235 = AXIS2_PLACEMENT_3D ( 'NONE', #176, #38, #11 ) ;
#236 = DIRECTION ( 'NONE',  ( 0.0000000000000000000, -0.0000000000000000000, 1.000000000000000000 ) ) ;
#237 = EDGE_CURVE ( 'NONE', #91, #184, #329, .T. ) ;
#238 = DIRECTION ( 'NONE',  ( 1.000000000000000000, 0.0000000000000000000, 0.0000000000000000000 ) ) ;
#239 = AXIS2_PLACEMENT_3D ( 'NONE', #95, #14, #366 ) ;
#240 = CONICAL_SURFACE ( 'NONE', #328, 1.939101615137754900, 0.2617993877991495700 ) ;
#241 = DIRECTION ( 'NONE',  ( -0.0000000000000000000, -0.0000000000000000000, 1.000000000000000000 ) ) ;
#242 = ORIENTED_EDGE ( 'NONE', *, *, #153, .T. ) ;
#243 = DIRECTION ( 'NONE',  ( 1.000000000000000000, 0.0000000000000000000, 0.0000000000000000000 ) ) ;
#244 = DIRECTION ( 'NONE',  ( 1.000000000000000000, 0.0000000000000000000, 0.0000000000000000000 ) ) ;
#245 = CARTESIAN_POINT ( 'NONE',  ( -2.475000000000000100, 3.031000827889699300E-016, 0.0000000000000000000 ) ) ;
#246 = DIRECTION ( 'NONE',  ( -0.0000000000000000000, -0.0000000000000000000, 1.000000000000000000 ) ) ;
#247 = DIRECTION ( 'NONE',  ( -0.0000000000000000000, -0.0000000000000000000, 1.000000000000000000 ) ) ;
#248 = DIRECTION ( 'NONE',  ( -0.0000000000000000000, -0.0000000000000000000, 1.000000000000000000 ) ) ;
#249 = VECTOR ( 'NONE', #247, 1000.000000000000000 ) ;
#250 = EDGE_CURVE ( 'NONE', #105, #91, #351, .T. ) ;
#251 = CARTESIAN_POINT ( 'NONE',  ( -1.939101615137754900, 2.702857707044806700E-016, -22.39999999999999900 ) ) ;
#252 = MECHANICAL_CONTEXT ( 'NONE', #315, 'mechanical' ) ;
#253 = LINE ( 'NONE', #245, #249 ) ;
#254 = DIRECTION ( 'NONE',  ( -0.0000000000000000000, -0.0000000000000000000, 1.000000000000000000 ) ) ;
#255 = LOCAL_TIME ( 14, 16, 36.00000000000000000, #373 ) ;
#256 = APPROVAL_STATUS ( 'not_yet_approved' ) ;
#257 = DIRECTION ( 'NONE',  ( 1.000000000000000000, 0.0000000000000000000, 0.0000000000000000000 ) ) ;
#258 = EDGE_CURVE ( 'NONE', #300, #157, #109, .T. ) ;
#259 = AXIS2_PLACEMENT_3D ( 'NONE', #42, #141, #333 ) ;
#260 = CYLINDRICAL_SURFACE ( 'NONE', #335, 1.499999999999998400 ) ;
#261 = AXIS2_PLACEMENT_3D ( 'NONE', #43, #357, #243 ) ;
#262 = EDGE_LOOP ( 'NONE', ( #64, #52 ) ) ;
#263 = DATE_AND_TIME ( #379, #365 ) ;
#264 = ADVANCED_BREP_SHAPE_REPRESENTATION ( 'STP-140.950', ( #129, #28 ), #205 ) ;
#265 = CC_DESIGN_APPROVAL ( #107, ( #87 ) ) ;
#266 = AXIS2_PLACEMENT_3D ( 'NONE', #118, #338, #282 ) ;
#267 = ADVANCED_FACE ( 'NONE', ( #56 ), #83, .T. ) ;
#268 = CIRCLE ( 'NONE', #320, 2.475000000000000100 ) ;
#269 = ORIENTED_EDGE ( 'NONE', *, *, #143, .T. ) ;
#270 = ADVANCED_FACE ( 'NONE', ( #198 ), #9, .T. ) ;
#271 = DIRECTION ( 'NONE',  ( 1.000000000000000000, 0.0000000000000000000, 0.0000000000000000000 ) ) ;
#272 = EDGE_LOOP ( 'NONE', ( #17, #318, #192, #174 ) ) ;
#273 = VERTEX_POINT ( 'NONE', #349 ) ;
#274 = PERSON_AND_ORGANIZATION ( #128, #139 ) ;
#275 = CARTESIAN_POINT ( 'NONE',  ( -2.475000000000000100, 3.031000827889699300E-016, -10.00000000000000000 ) ) ;
#276 = CARTESIAN_POINT ( 'NONE',  ( 0.0000000000000000000, 0.0000000000000000000, -10.00000000000000000 ) ) ;
#277 = DIRECTION ( 'NONE',  ( 1.000000000000000000, 0.0000000000000000000, 0.0000000000000000000 ) ) ;
#278 = CARTESIAN_POINT ( 'NONE',  ( 0.0000000000000000000, 0.0000000000000000000, 0.0000000000000000000 ) ) ;
#279 = DIRECTION ( 'NONE',  ( -0.0000000000000000000, -0.0000000000000000000, 1.000000000000000000 ) ) ;
#280 = ORIENTED_EDGE ( 'NONE', *, *, #258, .T. ) ;
#281 = AXIS2_PLACEMENT_3D ( 'NONE', #363, #236, #271 ) ;
#282 = DIRECTION ( 'NONE',  ( 1.000000000000000000, 0.0000000000000000000, 0.0000000000000000000 ) ) ;
#283 = DIRECTION ( 'NONE',  ( -0.0000000000000000000, -0.0000000000000000000, 1.000000000000000000 ) ) ;
#284 = APPROVAL_STATUS ( 'not_yet_approved' ) ;
#285 = FACE_OUTER_BOUND ( 'NONE', #166, .T. ) ;
#286 = PERSON_AND_ORGANIZATION ( #128, #139 ) ;
#287 =( NAMED_UNIT ( * ) SI_UNIT ( $, .STERADIAN. ) SOLID_ANGLE_UNIT ( ) );
#288 = PERSON_AND_ORGANIZATION_ROLE ( 'creator' ) ;
#289 = EDGE_LOOP ( 'NONE', ( #126, #144 ) ) ;
#290 = CALENDAR_DATE ( 2021, 17, 3 ) ;
#291 = ORIENTED_EDGE ( 'NONE', *, *, #165, .F. ) ;
#292 = EDGE_CURVE ( 'NONE', #197, #184, #71, .T. ) ;
#293 = LINE ( 'NONE', #370, #50 ) ;
#294 = ORIENTED_EDGE ( 'NONE', *, *, #228, .F. ) ;
#295 = APPROVAL_PERSON_ORGANIZATION ( #113, #33, #57 ) ;
#296 = PERSON_AND_ORGANIZATION ( #128, #139 ) ;
#297 = ADVANCED_FACE ( 'NONE', ( #120, #132 ), #341, .F. ) ;
#298 = VECTOR ( 'NONE', #206, 1000.000000000000000 ) ;
#299 = CARTESIAN_POINT ( 'NONE',  ( 6.000000000000000000, 0.0000000000000000000, 0.0000000000000000000 ) ) ;
#300 = VERTEX_POINT ( 'NONE', #222 ) ;
#301 = VECTOR ( 'NONE', #347, 1000.000000000000000 ) ;
#302 = AXIS2_PLACEMENT_3D ( 'NONE', #278, #246, #73 ) ;
#303 = DIRECTION ( 'NONE',  ( -0.0000000000000000000, -0.0000000000000000000, 1.000000000000000000 ) ) ;
#304 = DIRECTION ( 'NONE',  ( -0.0000000000000000000, -0.0000000000000000000, 1.000000000000000000 ) ) ;
#305 = EDGE_LOOP ( 'NONE', ( #291, #352 ) ) ;
#306 = COORDINATED_UNIVERSAL_TIME_OFFSET ( 8, 0, .AHEAD. ) ;
#307 = DIRECTION ( 'NONE',  ( 0.0000000000000000000, -0.0000000000000000000, 1.000000000000000000 ) ) ;
#308 = DIRECTION ( 'NONE',  ( 1.000000000000000000, 0.0000000000000000000, 0.0000000000000000000 ) ) ;
#309 = DIRECTION ( 'NONE',  ( 1.000000000000000000, 0.0000000000000000000, 0.0000000000000000000 ) ) ;
#310 = DIRECTION ( 'NONE',  ( 1.000000000000000000, 0.0000000000000000000, 0.0000000000000000000 ) ) ;
#311 = VERTEX_POINT ( 'NONE', #314 ) ;
#312 = CARTESIAN_POINT ( 'NONE',  ( 0.0000000000000000000, 0.0000000000000000000, -22.39999999999999900 ) ) ;
#313 = CARTESIAN_POINT ( 'NONE',  ( -1.939101615137754900, 2.374714586199914100E-016, -22.39999999999999900 ) ) ;
#314 = CARTESIAN_POINT ( 'NONE',  ( -1.500000000000000200, 1.836970198721029900E-016, -22.39999999999999900 ) ) ;
#315 = APPLICATION_CONTEXT ( 'configuration controlled 3d designs of mechanical parts and assemblies' ) ;
#316 = COORDINATED_UNIVERSAL_TIME_OFFSET ( 8, 0, .AHEAD. ) ;
#317 = EDGE_LOOP ( 'NONE', ( #35, #150, #51, #372 ) ) ;
#318 = ORIENTED_EDGE ( 'NONE', *, *, #292, .T. ) ;
#319 = PRODUCT ( 'STP-140.950', 'STP-140.950', '', ( #252 ) ) ;
#320 = AXIS2_PLACEMENT_3D ( 'NONE', #67, #200, #277 ) ;
#321 = ORIENTED_EDGE ( 'NONE', *, *, #106, .F. ) ;
#322 = CIRCLE ( 'NONE', #367, 1.500000000000000000 ) ;
#323 = CC_DESIGN_PERSON_AND_ORGANIZATION_ASSIGNMENT ( #61, #288, ( #87 ) ) ;
#324 = VERTEX_POINT ( 'NONE', #376 ) ;
#325 = CYLINDRICAL_SURFACE ( 'NONE', #221, 6.000000000000000000 ) ;
#326 = CLOSED_SHELL ( 'NONE', ( #31, #140, #233, #327, #297, #267, #85, #270, #211, #110, #142 ) ) ;
#327 = ADVANCED_FACE ( 'NONE', ( #209 ), #325, .T. ) ;
#328 = AXIS2_PLACEMENT_3D ( 'NONE', #148, #214, #310 ) ;
#329 = CIRCLE ( 'NONE', #175, 2.475000000000000100 ) ;
#330 = EDGE_CURVE ( 'NONE', #91, #30, #82, .T. ) ;
#331 = CARTESIAN_POINT ( 'NONE',  ( 0.0000000000000000000, 0.0000000000000000000, -10.00000000000000000 ) ) ;
#332 = FACE_OUTER_BOUND ( 'NONE', #305, .T. ) ;
#333 = DIRECTION ( 'NONE',  ( 1.000000000000000000, 0.0000000000000000000, 0.0000000000000000000 ) ) ;
#334 = ORIENTED_EDGE ( 'NONE', *, *, #136, .F. ) ;
#335 = AXIS2_PLACEMENT_3D ( 'NONE', #45, #16, #309 ) ;
#336 = CARTESIAN_POINT ( 'NONE',  ( 0.0000000000000000000, 0.0000000000000000000, -22.39999999999999900 ) ) ;
#337 = CIRCLE ( 'NONE', #37, 1.939101615137754900 ) ;
#338 = DIRECTION ( 'NONE',  ( -0.0000000000000000000, -0.0000000000000000000, 1.000000000000000000 ) ) ;
#339 = AXIS2_PLACEMENT_3D ( 'NONE', #10, #307, #204 ) ;
#340 = CARTESIAN_POINT ( 'NONE',  ( 0.0000000000000000000, 0.0000000000000000000, -10.00000000000000000 ) ) ;
#341 = PLANE ( 'NONE',  #60 ) ;
#342 = ORIENTED_EDGE ( 'NONE', *, *, #153, .F. ) ;
#343 = VERTEX_POINT ( 'NONE', #100 ) ;
#344 = APPROVAL_STATUS ( 'not_yet_approved' ) ;
#345 = APPROVAL_PERSON_ORGANIZATION ( #286, #356, #223 ) ;
#346 = AXIS2_PLACEMENT_3D ( 'NONE', #181, #116, #215 ) ;
#347 = DIRECTION ( 'NONE',  ( -0.0000000000000000000, -0.0000000000000000000, 1.000000000000000000 ) ) ;
#348 = AXIS2_PLACEMENT_3D ( 'NONE', #276, #248, #308 ) ;
#349 = CARTESIAN_POINT ( 'NONE',  ( 5.999999999999999100, 0.0000000000000000000, -10.00000000000000000 ) ) ;
#350 = VECTOR ( 'NONE', #20, 1000.000000000000000 ) ;
#351 = LINE ( 'NONE', #48, #156 ) ;
#352 = ORIENTED_EDGE ( 'NONE', *, *, #124, .F. ) ;
#353 = LOCAL_TIME ( 14, 16, 36.00000000000000000, #306 ) ;
#354 = CYLINDRICAL_SURFACE ( 'NONE', #239, 2.475000000000000100 ) ;
#355 = CC_DESIGN_DATE_AND_TIME_ASSIGNMENT ( #194, #225, ( #32 ) ) ;
#356 = APPROVAL ( #284, 'UNSPECIFIED' ) ;
#357 = DIRECTION ( 'NONE',  ( -0.0000000000000000000, -0.0000000000000000000, 1.000000000000000000 ) ) ;
#358 = FACE_OUTER_BOUND ( 'NONE', #103, .T. ) ;
#359 = ORIENTED_EDGE ( 'NONE', *, *, #170, .T. ) ;
#360 = VECTOR ( 'NONE', #2, 1000.000000000000000 ) ;
#361 = EDGE_CURVE ( 'NONE', #40, #134, #158, .T. ) ;
#362 = DIRECTION ( 'NONE',  ( 1.000000000000000000, 0.0000000000000000000, 0.0000000000000000000 ) ) ;
#363 = CARTESIAN_POINT ( 'NONE',  ( 0.0000000000000000000, 5.999999999999999100, -10.00000000000000000 ) ) ;
#364 = CARTESIAN_POINT ( 'NONE',  ( 0.0000000000000000000, 0.0000000000000000000, 0.0000000000000000000 ) ) ;
#365 = LOCAL_TIME ( 14, 16, 36.00000000000000000, #135 ) ;
#366 = DIRECTION ( 'NONE',  ( 1.000000000000000000, 0.0000000000000000000, 0.0000000000000000000 ) ) ;
#367 = AXIS2_PLACEMENT_3D ( 'NONE', #312, #178, #119 ) ;
#368 = DIRECTION ( 'NONE',  ( 1.000000000000000000, 0.0000000000000000000, 0.0000000000000000000 ) ) ;
#369 = DIRECTION ( 'NONE',  ( -0.0000000000000000000, -0.0000000000000000000, 1.000000000000000000 ) ) ;
#370 = CARTESIAN_POINT ( 'NONE',  ( -1.499999999999998400, 1.836970198721028000E-016, 0.0000000000000000000 ) ) ;
#371 = CIRCLE ( 'NONE', #84, 2.475000000000000100 ) ;
#372 = ORIENTED_EDGE ( 'NONE', *, *, #3, .F. ) ;
#373 = COORDINATED_UNIVERSAL_TIME_OFFSET ( 8, 0, .AHEAD. ) ;
#374 = DESIGN_CONTEXT ( 'detailed design', #25, 'design' ) ;
#375 = AXIS2_PLACEMENT_3D ( 'NONE', #336, #207, #217 ) ;
#376 = CARTESIAN_POINT ( 'NONE',  ( -5.999999999999999100, 7.347880794884118800E-016, -10.00000000000000000 ) ) ;
#377 = ORIENTED_EDGE ( 'NONE', *, *, #143, .F. ) ;
#378 = PERSON_AND_ORGANIZATION_ROLE ( 'creator' ) ;
#379 = CALENDAR_DATE ( 2021, 17, 3 ) ;
ENDSEC;
END-ISO-10303-21;
