  0
SECTION
  2
HEADER
  9
$ACADVER
  1
AC1024
  9
$ACADMAINTVER
 70
   226
  9
$DWGCODEPAGE
  3
ANSI_1252
  9
$INSBASE
 10
0.0
 20
0.0
 30
0.0
  9
$EXTMIN
 10
1.000000000000000E+20
 20
1.000000000000000E+20
 30
1.000000000000000E+20
  9
$EXTMAX
 10
-1.000000000000000E+20
 20
-1.000000000000000E+20
 30
-1.000000000000000E+20
  9
$LIMMIN
 10
0.0
 20
0.0
  9
$LIMMAX
 10
12.0
 20
9.0
  9
$ORTHOMODE
 70
     0
  9
$REGENMODE
 70
     1
  9
$FILLMODE
 70
     1
  9
$QTEXTMODE
 70
     0
  9
$MIRRTEXT
 70
     0
  9
$LTSCALE
 40
1.0
  9
$ATTMODE
 70
     1
  9
$TEXTSIZE
 40
0.2
  9
$TRACEWID
 40
0.05
  9
$TEXTSTYLE
  7
Standard
  9
$CLAYER
  8
0
  9
$CELTYPE
  6
ByLayer
  9
$CECOLOR
 62
   256
  9
$CELTSCALE
 40
1.0
  9
$DISPSILH
 70
     0
  9
$DIMSCALE
 40
1.0
  9
$DIMASZ
 40
0.18
  9
$DIMEXO
 40
0.0625
  9
$DIMDLI
 40
0.38
  9
$DIMRND
 40
0.0
  9
$DIMDLE
 40
0.0
  9
$DIMEXE
 40
0.18
  9
$DIMTP
 40
0.0
  9
$DIMTM
 40
0.0
  9
$DIMTXT
 40
0.18
  9
$DIMCEN
 40
0.09
  9
$DIMTSZ
 40
0.0
  9
$DIMTOL
 70
     0
  9
$DIMLIM
 70
     0
  9
$DIMTIH
 70
     1
  9
$DIMTOH
 70
     1
  9
$DIMSE1
 70
     0
  9
$DIMSE2
 70
     0
  9
$DIMTAD
 70
     0
  9
$DIMZIN
 70
     0
  9
$DIMBLK
  1

  9
$DIMASO
 70
     1
  9
$DIMSHO
 70
     1
  9
$DIMPOST
  1

  9
$DIMAPOST
  1

  9
$DIMALT
 70
     0
  9
$DIMALTD
 70
     2
  9
$DIMALTF
 40
25.4
  9
$DIMLFAC
 40
1.0
  9
$DIMTOFL
 70
     0
  9
$DIMTVP
 40
0.0
  9
$DIMTIX
 70
     0
  9
$DIMSOXD
 70
     0
  9
$DIMSAH
 70
     0
  9
$DIMBLK1
  1

  9
$DIMBLK2
  1

  9
$DIMSTYLE
  2
Standard
  9
$DIMCLRD
 70
     0
  9
$DIMCLRE
 70
     0
  9
$DIMCLRT
 70
     0
  9
$DIMTFAC
 40
1.0
  9
$DIMGAP
 40
0.09
  9
$DIMJUST
 70
     0
  9
$DIMSD1
 70
     0
  9
$DIMSD2
 70
     0
  9
$DIMTOLJ
 70
     1
  9
$DIMTZIN
 70
     0
  9
$DIMALTZ
 70
     0
  9
$DIMALTTZ
 70
     0
  9
$DIMUPT
 70
     0
  9
$DIMDEC
 70
     4
  9
$DIMTDEC
 70
     4
  9
$DIMALTU
 70
     2
  9
$DIMALTTD
 70
     2
  9
$DIMTXSTY
  7
Standard
  9
$DIMAUNIT
 70
     0
  9
$DIMADEC
 70
     0
  9
$DIMALTRND
 40
0.0
  9
$DIMAZIN
 70
     0
  9
$DIMDSEP
 70
    46
  9
$DIMATFIT
 70
     3
  9
$DIMFRAC
 70
     0
  9
$DIMLDRBLK
  1

  9
$DIMLUNIT
 70
     2
  9
$DIMLWD
 70
    -2
  9
$DIMLWE
 70
    -2
  9
$DIMTMOVE
 70
     0
  9
$DIMFXL
 40
1.0
  9
$DIMFXLON
 70
     0
  9
$DIMJOGANG
 40
0.7853981633974483
  9
$DIMTFILL
 70
     0
  9
$DIMTFILLCLR
 70
     0
  9
$DIMARCSYM
 70
     0
  9
$DIMLTYPE
  6

  9
$DIMLTEX1
  6

  9
$DIMLTEX2
  6

  9
$DIMTXTDIRECTION
 70
     0
  9
$LUNITS
 70
     2
  9
$LUPREC
 70
     4
  9
$SKETCHINC
 40
0.1
  9
$FILLETRAD
 40
0.0
  9
$AUNITS
 70
     0
  9
$AUPREC
 70
     0
  9
$MENU
  1
.
  9
$ELEVATION
 40
0.0
  9
$PELEVATION
 40
0.0
  9
$THICKNESS
 40
0.0
  9
$LIMCHECK
 70
     0
  9
$CHAMFERA
 40
0.0
  9
$CHAMFERB
 40
0.0
  9
$CHAMFERC
 40
0.0
  9
$CHAMFERD
 40
0.0
  9
$SKPOLY
 70
     0
  9
$TDCREATE
 40
2459174.403854167
  9
$TDUCREATE
 40
2459174.362187500
  9
$TDUPDATE
 40
2459174.403854167
  9
$TDUUPDATE
 40
2459174.362187500
  9
$TDINDWG
 40
0.0000000000
  9
$TDUSRTIMER
 40
0.0000000000
  9
$USRTIMER
 70
     1
  9
$ANGBASE
 50
0.0
  9
$ANGDIR
 70
     0
  9
$PDMODE
 70
     0
  9
$PDSIZE
 40
0.0
  9
$PLINEWID
 40
0.0
  9
$SPLFRAME
 70
     0
  9
$SPLINETYPE
 70
     6
  9
$SPLINESEGS
 70
     8
  9
$HANDSEED
  5
19F
  9
$SURFTAB1
 70
     6
  9
$SURFTAB2
 70
     6
  9
$SURFTYPE
 70
     6
  9
$SURFU
 70
     6
  9
$SURFV
 70
     6
  9
$UCSBASE
  2

  9
$UCSNAME
  2

  9
$UCSORG
 10
0.0
 20
0.0
 30
0.0
  9
$UCSXDIR
 10
1.0
 20
0.0
 30
0.0
  9
$UCSYDIR
 10
0.0
 20
1.0
 30
0.0
  9
$UCSORTHOREF
  2

  9
$UCSORTHOVIEW
 70
     0
  9
$UCSORGTOP
 10
0.0
 20
0.0
 30
0.0
  9
$UCSORGBOTTOM
 10
0.0
 20
0.0
 30
0.0
  9
$UCSORGLEFT
 10
0.0
 20
0.0
 30
0.0
  9
$UCSORGRIGHT
 10
0.0
 20
0.0
 30
0.0
  9
$UCSORGFRONT
 10
0.0
 20
0.0
 30
0.0
  9
$UCSORGBACK
 10
0.0
 20
0.0
 30
0.0
  9
$PUCSBASE
  2

  9
$PUCSNAME
  2

  9
$PUCSORG
 10
0.0
 20
0.0
 30
0.0
  9
$PUCSXDIR
 10
1.0
 20
0.0
 30
0.0
  9
$PUCSYDIR
 10
0.0
 20
1.0
 30
0.0
  9
$PUCSORTHOREF
  2

  9
$PUCSORTHOVIEW
 70
     0
  9
$PUCSORGTOP
 10
0.0
 20
0.0
 30
0.0
  9
$PUCSORGBOTTOM
 10
0.0
 20
0.0
 30
0.0
  9
$PUCSORGLEFT
 10
0.0
 20
0.0
 30
0.0
  9
$PUCSORGRIGHT
 10
0.0
 20
0.0
 30
0.0
  9
$PUCSORGFRONT
 10
0.0
 20
0.0
 30
0.0
  9
$PUCSORGBACK
 10
0.0
 20
0.0
 30
0.0
  9
$USERI1
 70
     0
  9
$USERI2
 70
     0
  9
$USERI3
 70
     0
  9
$USERI4
 70
     0
  9
$USERI5
 70
     0
  9
$USERR1
 40
0.0
  9
$USERR2
 40
0.0
  9
$USERR3
 40
0.0
  9
$USERR4
 40
0.0
  9
$USERR5
 40
0.0
  9
$WORLDVIEW
 70
     1
  9
$SHADEDGE
 70
     3
  9
$SHADEDIF
 70
    70
  9
$TILEMODE
 70
     1
  9
$MAXACTVP
 70
    64
  9
$PINSBASE
 10
0.0
 20
0.0
 30
0.0
  9
$PLIMCHECK
 70
     0
  9
$PEXTMIN
 10
1.000000000000000E+20
 20
1.000000000000000E+20
 30
1.000000000000000E+20
  9
$PEXTMAX
 10
-1.000000000000000E+20
 20
-1.000000000000000E+20
 30
-1.000000000000000E+20
  9
$PLIMMIN
 10
0.0
 20
0.0
  9
$PLIMMAX
 10
12.0
 20
9.0
  9
$UNITMODE
 70
     0
  9
$VISRETAIN
 70
     1
  9
$PLINEGEN
 70
     0
  9
$PSLTSCALE
 70
     1
  9
$TREEDEPTH
 70
  3020
  9
$CMLSTYLE
  2
Standard
  9
$CMLJUST
 70
     0
  9
$CMLSCALE
 40
1.0
  9
$PROXYGRAPHICS
 70
     1
  9
$MEASUREMENT
 70
     0
  9
$CELWEIGHT
370
    -1
  9
$ENDCAPS
280
     0
  9
$JOINSTYLE
280
     0
  9
$LWDISPLAY
290
     1
  9
$INSUNITS
 70
     4
  9
$HYPERLINKBASE
  1

  9
$STYLESHEET
  1

  9
$XEDIT
290
     1
  9
$CEPSNTYPE
380
     0
  9
$PSTYLEMODE
290
     1
  9
$FINGERPRINTGUID
  2
{DEE22AF5-102D-A546-8215-F8EA5210D1A2}
  9
$VERSIONGUID
  2
{32235B6C-10ED-BF46-B00D-77FC1ECC4965}
  9
$EXTNAMES
290
     1
  9
$PSVPSCALE
 40
0.0
  9
$OLESTARTUP
290
     0
  9
$SORTENTS
280
   127
  9
$INDEXCTL
280
     0
  9
$HIDETEXT
280
     1
  9
$XCLIPFRAME
280
     2
  9
$HALOGAP
280
     0
  9
$OBSCOLOR
 70
   257
  9
$OBSLTYPE
280
     0
  9
$INTERSECTIONDISPLAY
280
     0
  9
$INTERSECTIONCOLOR
 70
   257
  9
$DIMASSOC
280
     2
  9
$PROJECTNAME
  1

  9
$CAMERADISPLAY
290
     0
  9
$LENSLENGTH
 40
50.0
  9
$CAMERAHEIGHT
 40
0.0
  9
$STEPSPERSEC
 40
2.0
  9
$STEPSIZE
 40
6.0
  9
$3DDWFPREC
 40
2.0
  9
$PSOLWIDTH
 40
0.25
  9
$PSOLHEIGHT
 40
4.0
  9
$LOFTANG1
 40
1.570796326794896
  9
$LOFTANG2
 40
1.570796326794896
  9
$LOFTMAG1
 40
0.0
  9
$LOFTMAG2
 40
0.0
  9
$LOFTPARAM
 70
     7
  9
$LOFTNORMALS
280
     1
  9
$LATITUDE
 40
37.795
  9
$LONGITUDE
 40
-122.394
  9
$NORTHDIRECTION
 40
0.0
  9
$TIMEZONE
 70
 -8000
  9
$LIGHTGLYPHDISPLAY
280
     1
  9
$TILEMODELIGHTSYNCH
280
     1
  9
$CMATERIAL
347
11
  9
$SOLIDHIST
280
     0
  9
$SHOWHIST
280
     1
  9
$DWFFRAME
280
     2
  9
$DGNFRAME
280
     0
  9
$REALWORLDSCALE
290
     1
  9
$INTERFERECOLOR
 62
     1
  9
$INTERFEREOBJVS
345
33
  9
$INTERFEREVPVS
346
30
  9
$CSHADOW
280
     0
  9
$SHADOWPLANELOCATION
 40
0.0
  0
ENDSEC
  0
SECTION
  2
CLASSES
  0
CLASS
  1
ACDBDICTIONARYWDFLT
  2
AcDbDictionaryWithDefault
  3
ObjectDBX Classes
 90
        0
 91
        1
280
     0
281
     0
  0
CLASS
  1
MATERIAL
  2
AcDbMaterial
  3
ObjectDBX Classes
 90
     1153
 91
        3
280
     0
281
     0
  0
CLASS
  1
VISUALSTYLE
  2
AcDbVisualStyle
  3
ObjectDBX Classes
 90
     4095
 91
       24
280
     0
281
     0
  0
CLASS
  1
SCALE
  2
AcDbScale
  3
ObjectDBX Classes
 90
     1153
 91
       17
280
     0
281
     0
  0
CLASS
  1
TABLESTYLE
  2
AcDbTableStyle
  3
ObjectDBX Classes
 90
     4095
 91
        1
280
     0
281
     0
  0
CLASS
  1
MLEADERSTYLE
  2
AcDbMLeaderStyle
  3
ACDB_MLEADERSTYLE_CLASS
 90
     4095
 91
        1
280
     0
281
     0
  0
CLASS
  1
ACDBSECTIONVIEWSTYLE
  2
AcDbSectionViewStyle
  3
ObjectDBX Classes
 90
     1025
 91
        1
280
     0
281
     0
  0
CLASS
  1
ACDBDETAILVIEWSTYLE
  2
AcDbDetailViewStyle
  3
ObjectDBX Classes
 90
     1025
 91
        1
280
     0
281
     0
  0
CLASS
  1
DICTIONARYVAR
  2
AcDbDictionaryVar
  3
ObjectDBX Classes
 90
        0
 91
        5
280
     0
281
     0
  0
CLASS
  1
CELLSTYLEMAP
  2
AcDbCellStyleMap
  3
ObjectDBX Classes
 90
     1152
 91
        1
280
     0
281
     0
  0
ENDSEC
  0
SECTION
  2
TABLES
  0
TABLE
  2
VPORT
  5
8
330
0
100
AcDbSymbolTable
 70
     1
  0
VPORT
  5
57
330
8
100
AcDbSymbolTableRecord
100
AcDbViewportTableRecord
  2
*Active
 70
     0
 10
0.0
 20
0.0
 11
1.0
 21
1.0
 12
0.0
 22
0.0
 13
0.0
 23
0.0
 14
1.0
 24
1.0
 15
0.0
 25
0.0
 16
0.0
 26
0.0
 36
1.0
 17
37.04166665740626
 27
52.51711110440837
 37
0.0
 40
285.8030932487724
 41
1.452915228602545
 42
50.0
 43
0.0
 44
0.0
 50
0.0
 51
0.0
 71
     0
 72
   100
 73
     1
 74
     0
 75
     1
 76
     0
 77
     0
 78
     0
281
     0
 65
     1
110
0.0
120
0.0
130
0.0
111
1.0
121
0.0
131
0.0
112
0.0
122
1.0
132
0.0
 79
     0
146
0.0
 60
     3
 61
     5
292
     1
282
     1
141
0.0
142
0.0
 63
   250
421
  3355443
  0
ENDTAB
  0
TABLE
  2
LTYPE
  5
5
330
0
100
AcDbSymbolTable
 70
     4
  0
LTYPE
  5
5B
330
5
100
AcDbSymbolTableRecord
100
AcDbLinetypeTableRecord
  2
ByBlock
 70
     0
  3

 72
    65
 73
     0
 40
0.0
  0
LTYPE
  5
5C
330
5
100
AcDbSymbolTableRecord
100
AcDbLinetypeTableRecord
  2
ByLayer
 70
     0
  3

 72
    65
 73
     0
 40
0.0
  0
LTYPE
  5
5D
330
5
100
AcDbSymbolTableRecord
100
AcDbLinetypeTableRecord
  2
Continuous
 70
     0
  3
Solid line
 72
    65
 73
     0
 40
0.0
  0
LTYPE
  5
87
330
5
100
AcDbSymbolTableRecord
100
AcDbLinetypeTableRecord
  2
AI-Linetype-0
 70
     0
  3
Adobe Illustrator Linetype No. 0
 72
    65
 73
     4
 40
0.9500000041086719
 49
0.624999996201244
 74
     0
 49
-0.1250000034456876
 74
     0
 49
0.0750000010160529
 74
     0
 49
-0.1250000034456876
 74
     0
  0
LTYPE
  5
89
330
5
100
AcDbSymbolTableRecord
100
AcDbLinetypeTableRecord
  2
AI-Linetype-1
 70
     0
  3
Adobe Illustrator Linetype No. 1
 72
    65
 73
     4
 40
0.9500000041086719
 49
0.624999996201244
 74
     0
 49
-0.1250000034456876
 74
     0
 49
0.0750000010160529
 74
     0
 49
-0.1250000034456876
 74
     0
  0
LTYPE
  5
151
330
5
100
AcDbSymbolTableRecord
100
AcDbLinetypeTableRecord
  2
AI-Linetype-2
 70
     0
  3
Adobe Illustrator Linetype No. 2
 72
    65
 73
     4
 40
0.9500000041086719
 49
0.624999996201244
 74
     0
 49
-0.1250000034456876
 74
     0
 49
0.0750000010160529
 74
     0
 49
-0.1250000034456876
 74
     0
  0
ENDTAB
  0
TABLE
  2
LAYER
  5
2
330
0
100
AcDbSymbolTable
 70
     2
  0
LAYER
  5
54
330
2
100
AcDbSymbolTableRecord
100
AcDbLayerTableRecord
  2
0
 70
     0
 62
     7
  6
Continuous
370
    -3
390
F
347
21
  0
LAYER
  5
78
330
2
100
AcDbSymbolTableRecord
100
AcDbLayerTableRecord
  2
CK_LEVEL_1
 70
     0
 62
     7
  6
Continuous
370
     0
390
F
347
21
  0
ENDTAB
  0
TABLE
  2
STYLE
  5
3
330
0
100
AcDbSymbolTable
 70
     2
  0
STYLE
  5
55
330
3
100
AcDbSymbolTableRecord
100
AcDbTextStyleTableRecord
  2
Standard
 70
     0
 40
0.0
 41
1.0
 50
0.0
 71
     0
 42
0.2
  3
txt
  4

  0
STYLE
  5
5A
330
3
100
AcDbSymbolTableRecord
100
AcDbTextStyleTableRecord
  2
Annotative
 70
     0
 40
0.0
 41
1.0
 50
0.0
 71
     0
 42
0.2
  3
txt
  4

1001
AcadAnnotative
1000
AnnotativeData
1002
{
1070
     1
1070
     1
1002
}
  0
ENDTAB
  0
TABLE
  2
VIEW
  5
6
330
0
100
AcDbSymbolTable
 70
     0
  0
ENDTAB
  0
TABLE
  2
UCS
  5
7
330
0
100
AcDbSymbolTable
 70
     0
  0
ENDTAB
  0
TABLE
  2
APPID
  5
9
330
0
100
AcDbSymbolTable
 70
     2
  0
APPID
  5
56
330
9
100
AcDbSymbolTableRecord
100
AcDbRegAppTableRecord
  2
ACAD
 70
     0
  0
APPID
  5
5E
330
9
100
AcDbSymbolTableRecord
100
AcDbRegAppTableRecord
  2
AcadAnnotative
 70
     0
  0
ENDTAB
  0
TABLE
  2
DIMSTYLE
  5
A
330
0
100
AcDbSymbolTable
 70
     2
100
AcDbDimStyleTable
 71
     0
  0
DIMSTYLE
105
58
330
A
100
AcDbSymbolTableRecord
100
AcDbDimStyleTableRecord
  2
Standard
 70
     0
340
55
  0
DIMSTYLE
105
59
330
A
100
AcDbSymbolTableRecord
100
AcDbDimStyleTableRecord
  2
Annotative
 70
     0
340
55
1001
AcadAnnotative
1000
AnnotativeData
1002
{
1070
     1
1070
     1
1002
}
  0
ENDTAB
  0
TABLE
  2
BLOCK_RECORD
  5
1
330
0
100
AcDbSymbolTable
 70
     7
  0
BLOCK_RECORD
  5
70
330
1
100
AcDbSymbolTableRecord
100
AcDbBlockTableRecord
  2
*Model_Space
340
73
 70
     0
280
     1
281
     0
  0
BLOCK_RECORD
  5
6C
330
1
100
AcDbSymbolTableRecord
100
AcDbBlockTableRecord
  2
*Paper_Space
340
6F
 70
     0
280
     1
281
     0
  0
BLOCK_RECORD
  5
74
330
1
100
AcDbSymbolTableRecord
100
AcDbBlockTableRecord
  2
*Paper_Space0
340
77
 70
     0
280
     1
281
     0
  0
BLOCK_RECORD
  5
8A
330
1
100
AcDbSymbolTableRecord
100
AcDbBlockTableRecord
  2
Block_0
340
0
102
{BLKREFS
331
8B
102
}
 70
     0
280
     1
281
     0
  0
BLOCK_RECORD
  5
96
330
1
100
AcDbSymbolTableRecord
100
AcDbBlockTableRecord
  2
Block_1
340
0
102
{BLKREFS
331
97
102
}
 70
     0
280
     1
281
     0
  0
BLOCK_RECORD
  5
12C
330
1
100
AcDbSymbolTableRecord
100
AcDbBlockTableRecord
  2
Block_2
340
0
102
{BLKREFS
331
12D
102
}
 70
     0
280
     1
281
     0
  0
BLOCK_RECORD
  5
138
330
1
100
AcDbSymbolTableRecord
100
AcDbBlockTableRecord
  2
Block_3
340
0
102
{BLKREFS
331
139
102
}
 70
     0
280
     1
281
     0
  0
BLOCK_RECORD
  5
144
330
1
100
AcDbSymbolTableRecord
100
AcDbBlockTableRecord
  2
Block_4
340
0
102
{BLKREFS
331
145
102
}
 70
     0
280
     1
281
     0
  0
BLOCK_RECORD
  5
152
330
1
100
AcDbSymbolTableRecord
100
AcDbBlockTableRecord
  2
Block_5
340
0
102
{BLKREFS
331
153
102
}
 70
     0
280
     1
281
     0
  0
ENDTAB
  0
ENDSEC
  0
SECTION
  2
BLOCKS
  0
BLOCK
  5
71
330
70
100
AcDbEntity
  8
0
100
AcDbBlockBegin
  2
*Model_Space
 70
     0
 10
0.0
 20
0.0
 30
0.0
  3
*Model_Space
  1

  0
ENDBLK
  5
72
330
70
100
AcDbEntity
  8
0
100
AcDbBlockEnd
  0
BLOCK
  5
6D
330
6C
100
AcDbEntity
 67
     1
  8
0
100
AcDbBlockBegin
  2
*Paper_Space
 70
     0
 10
0.0
 20
0.0
 30
0.0
  3
*Paper_Space
  1

  0
ENDBLK
  5
6E
330
6C
100
AcDbEntity
 67
     1
  8
0
100
AcDbBlockEnd
  0
BLOCK
  5
75
330
74
100
AcDbEntity
 67
     1
  8
0
100
AcDbBlockBegin
  2
*Paper_Space0
 70
     0
 10
0.0
 20
0.0
 30
0.0
  3
*Paper_Space0
  1

  0
ENDBLK
  5
76
330
74
100
AcDbEntity
 67
     1
  8
0
100
AcDbBlockEnd
  0
BLOCK
  5
8C
330
8A
100
AcDbEntity
  8
0
100
AcDbBlockBegin
  2
Block_0
 70
     0
 10
0.0
 20
0.0
 30
0.0
  3
Block_0
  1

  0
LINE
  5
8E
330
8A
100
AcDbEntity
  8
CK_LEVEL_1
 62
     4
420
    65535
370
    25
100
AcDbLine
 10
-57.49908805484895
 20
81.65188887574782
 30
0.0
 11
-3.58315069004901
 21
81.65188887574782
 31
0.0
  0
LINE
  5
8F
330
8A
100
AcDbEntity
  8
CK_LEVEL_1
 62
     4
420
    65535
370
    25
100
AcDbLine
 10
-33.41729117444899
 20
46.65188887574786
 30
0.0
 11
-3.58315069004901
 21
46.65188887574786
 31
0.0
  0
LINE
  5
90
330
8A
100
AcDbEntity
  8
CK_LEVEL_1
 62
     4
420
    65535
370
    25
100
AcDbLine
 10
-4.45815069004896
 20
81.65188887574782
 30
0.0
 11
-4.45815069004896
 21
46.65188887574786
 31
0.0
  0
LWPOLYLINE
  5
91
330
8A
100
AcDbEntity
  8
CK_LEVEL_1
100
AcDbPolyline
 90
        4
 70
     1
 43
0.0
 10
-4.45815069004896
 20
81.65188887574782
 10
-3.933150690048862
 20
78.15188887574802
 10
-4.45815069004896
 20
81.65188887574782
 10
-4.983150690049059
 20
78.15188887574802
  0
HATCH
  5
92
330
8A
100
AcDbEntity
  8
CK_LEVEL_1
 62
     4
420
    65535
440
 33554687
100
AcDbHatch
 10
0.0
 20
0.0
 30
0.0
210
0.0
220
0.0
230
1.0
  2
SOLID
 70
     1
 71
     1
 91
        1
 92
        1
 93
        4
 72
     1
 10
-4.45815069004896
 20
81.65188887574782
 11
-3.933150690048862
 21
78.15188887574802
 72
     1
 10
-3.933150690048862
 20
78.15188887574802
 11
-4.45815069004896
 21
81.65188887574782
 72
     1
 10
-4.45815069004896
 20
81.65188887574782
 11
-4.983150690049059
 21
78.15188887574802
 72
     1
 10
-4.983150690049059
 20
78.15188887574802
 11
-4.45815069004896
 21
81.65188887574782
 97
        1
330
91
 75
     2
 76
     1
 98
        1
 10
0.0
 20
0.0
450
        0
451
        0
460
0.0
461
0.0
452
        0
462
0.0
453
        0
470

  0
LWPOLYLINE
  5
93
330
8A
100
AcDbEntity
  8
CK_LEVEL_1
100
AcDbPolyline
 90
        4
 70
     1
 43
0.0
 10
-4.45815069004896
 20
46.65188887574786
 10
-4.983150690049059
 20
50.15188887574766
 10
-4.45815069004896
 20
46.65188887574786
 10
-3.933150690048862
 20
50.15188887574766
  0
HATCH
  5
94
330
8A
100
AcDbEntity
  8
CK_LEVEL_1
 62
     4
420
    65535
440
 33554687
100
AcDbHatch
 10
0.0
 20
0.0
 30
0.0
210
0.0
220
0.0
230
1.0
  2
SOLID
 70
     1
 71
     1
 91
        1
 92
        1
 93
        4
 72
     1
 10
-4.45815069004896
 20
46.65188887574786
 11
-4.983150690049059
 21
50.15188887574766
 72
     1
 10
-4.983150690049059
 20
50.15188887574766
 11
-4.45815069004896
 21
46.65188887574786
 72
     1
 10
-4.45815069004896
 20
46.65188887574786
 11
-3.933150690048862
 21
50.15188887574766
 72
     1
 10
-3.933150690048862
 20
50.15188887574766
 11
-4.45815069004896
 21
46.65188887574786
 97
        1
330
93
 75
     2
 76
     1
 98
        1
 10
0.0
 20
0.0
450
        0
451
        0
460
0.0
461
0.0
452
        0
462
0.0
453
        0
470

  0
MTEXT
  5
95
330
8A
100
AcDbEntity
  8
CK_LEVEL_1
100
AcDbMText
 10
-7.083148615444481
 20
57.16481389629972
 30
0.0
 40
0.2
 41
0.0
 46
0.0
 71
     7
 72
     1
  1
\C4;\c16776960;\FMyriad Pro|b0|i0|c1;\H3.500000;\W1.000000;35
 11
-0.0000000000000002
 21
1.0
 31
0.0
 73
     1
 44
1.0
  0
ENDBLK
  5
8D
330
8A
100
AcDbEntity
  8
0
100
AcDbBlockEnd
  0
BLOCK
  5
98
330
96
100
AcDbEntity
  8
0
100
AcDbBlockBegin
  2
Block_1
 70
     0
 10
0.0
 20
0.0
 30
0.0
  3
Block_1
  1

  0
LINE
  5
9A
330
96
100
AcDbEntity
  8
CK_LEVEL_1
 62
     4
420
    65535
370
    25
100
AcDbLine
 10
-33.41729117444899
 20
46.65188887574786
 30
0.0
 11
-3.726791294948913
 21
46.65188887574786
 31
0.0
  0
LINE
  5
9B
330
96
100
AcDbEntity
  8
CK_LEVEL_1
 62
     4
420
    65535
370
    25
100
AcDbLine
 10
-91.79194445374905
 20
-2.34811112425194
 30
0.0
 11
-3.726791294948913
 21
-2.34811112425194
 31
0.0
  0
LINE
  5
9C
330
96
100
AcDbEntity
  8
CK_LEVEL_1
 62
     4
420
    65535
370
    25
100
AcDbLine
 10
-4.601791294948863
 20
46.65188887574786
 30
0.0
 11
-4.601791294948863
 21
-2.34811112425194
 31
0.0
  0
LWPOLYLINE
  5
9D
330
96
100
AcDbEntity
  8
CK_LEVEL_1
100
AcDbPolyline
 90
        4
 70
     1
 43
0.0
 10
-4.601791294948863
 20
46.65188887574786
 10
-4.076791294949086
 20
43.15188887574806
 10
-4.601791294948863
 20
46.65188887574786
 10
-5.126791294948962
 20
43.15188887574806
  0
HATCH
  5
9E
330
96
100
AcDbEntity
  8
CK_LEVEL_1
 62
     4
420
    65535
440
 33554687
100
AcDbHatch
 10
0.0
 20
0.0
 30
0.0
210
0.0
220
0.0
230
1.0
  2
SOLID
 70
     1
 71
     1
 91
        1
 92
        1
 93
        4
 72
     1
 10
-4.601791294948863
 20
46.65188887574786
 11
-4.076791294949086
 21
43.15188887574806
 72
     1
 10
-4.076791294949086
 20
43.15188887574806
 11
-4.601791294948863
 21
46.65188887574786
 72
     1
 10
-4.601791294948863
 20
46.65188887574786
 11
-5.126791294948962
 21
43.15188887574806
 72
     1
 10
-5.126791294948962
 20
43.15188887574806
 11
-4.601791294948863
 21
46.65188887574786
 97
        1
330
9D
 75
     2
 76
     1
 98
        1
 10
0.0
 20
0.0
450
        0
451
        0
460
0.0
461
0.0
452
        0
462
0.0
453
        0
470

  0
LWPOLYLINE
  5
9F
330
96
100
AcDbEntity
  8
CK_LEVEL_1
100
AcDbPolyline
 90
        4
 70
     1
 43
0.0
 10
-4.601791294948863
 20
-2.34811112425194
 10
-5.126791294948962
 20
1.151888875747862
 10
-4.601791294948863
 20
-2.34811112425194
 10
-4.076791294949086
 20
1.151888875747862
  0
HATCH
  5
A0
330
96
100
AcDbEntity
  8
CK_LEVEL_1
 62
     4
420
    65535
440
 33554687
100
AcDbHatch
 10
0.0
 20
0.0
 30
0.0
210
0.0
220
0.0
230
1.0
  2
SOLID
 70
     1
 71
     1
 91
        1
 92
        1
 93
        4
 72
     1
 10
-4.601791294948863
 20
-2.34811112425194
 11
-5.126791294948962
 21
1.151888875747862
 72
     1
 10
-5.126791294948962
 20
1.151888875747862
 11
-4.601791294948863
 21
-2.34811112425194
 72
     1
 10
-4.601791294948863
 20
-2.34811112425194
 11
-4.076791294949086
 21
1.151888875747862
 72
     1
 10
-4.076791294949086
 20
1.151888875747862
 11
-4.601791294948863
 21
-2.34811112425194
 97
        1
330
9F
 75
     2
 76
     1
 98
        1
 10
0.0
 20
0.0
450
        0
451
        0
460
0.0
461
0.0
452
        0
462
0.0
453
        0
470

  0
MTEXT
  5
A1
330
96
100
AcDbEntity
  8
CK_LEVEL_1
100
AcDbMText
 10
-7.226787565332617
 20
16.65807019982918
 30
0.0
 40
0.2
 41
0.0
 46
0.0
 71
     7
 72
     1
  1
\C4;\c16776960;\FMyriad Pro|b0|i0|c1;\H3.500000;\W1.000000;49
 11
-0.0000000000000002
 21
1.0
 31
0.0
 73
     1
 44
1.0
  0
ENDBLK
  5
99
330
96
100
AcDbEntity
  8
0
100
AcDbBlockEnd
  0
BLOCK
  5
12E
330
12C
100
AcDbEntity
  8
0
100
AcDbBlockBegin
  2
Block_2
 70
     0
 10
0.0
 20
0.0
 30
0.0
  3
Block_2
  1

  0
LINE
  5
130
330
12C
100
AcDbEntity
  8
CK_LEVEL_1
 62
     4
420
    65535
370
    25
100
AcDbLine
 10
81.41341510335097
 20
67.59804129844785
 30
0.0
 11
81.41341510335097
 21
97.56160213094798
 31
0.0
  0
LINE
  5
131
330
12C
100
AcDbEntity
  8
CK_LEVEL_1
 62
     4
420
    65535
370
    25
100
AcDbLine
 10
159.4134151033511
 20
82.40188887574801
 30
0.0
 11
159.4134151033511
 21
97.56160213094798
 31
0.0
  0
LINE
  5
132
330
12C
100
AcDbEntity
  8
CK_LEVEL_1
 62
     4
420
    65535
370
    25
100
AcDbLine
 10
81.41341510335097
 20
96.68660213094803
 30
0.0
 11
159.4134151033511
 21
96.68660213094803
 31
0.0
  0
LWPOLYLINE
  5
133
330
12C
100
AcDbEntity
  8
CK_LEVEL_1
100
AcDbPolyline
 90
        4
 70
     1
 43
0.0
 10
81.41341510335097
 20
96.68660213094803
 10
84.91341510335077
 20
97.2116021309478
 10
81.41341510335097
 20
96.68660213094803
 10
84.91341510335077
 20
96.16160213094792
  0
HATCH
  5
134
330
12C
100
AcDbEntity
  8
CK_LEVEL_1
 62
     4
420
    65535
440
 33554687
100
AcDbHatch
 10
0.0
 20
0.0
 30
0.0
210
0.0
220
0.0
230
1.0
  2
SOLID
 70
     1
 71
     1
 91
        1
 92
        1
 93
        4
 72
     1
 10
81.41341510335097
 20
96.68660213094803
 11
84.91341510335077
 21
97.2116021309478
 72
     1
 10
84.91341510335077
 20
97.2116021309478
 11
81.41341510335097
 21
96.68660213094803
 72
     1
 10
81.41341510335097
 20
96.68660213094803
 11
84.91341510335077
 21
96.16160213094792
 72
     1
 10
84.91341510335077
 20
96.16160213094792
 11
81.41341510335097
 21
96.68660213094803
 97
        1
330
133
 75
     2
 76
     1
 98
        1
 10
0.0
 20
0.0
450
        0
451
        0
460
0.0
461
0.0
452
        0
462
0.0
453
        0
470

  0
LWPOLYLINE
  5
135
330
12C
100
AcDbEntity
  8
CK_LEVEL_1
100
AcDbPolyline
 90
        4
 70
     1
 43
0.0
 10
159.4134151033511
 20
96.68660213094803
 10
155.9134151033513
 20
96.16160213094792
 10
159.4134151033511
 20
96.68660213094803
 10
155.9134151033513
 20
97.2116021309478
  0
HATCH
  5
136
330
12C
100
AcDbEntity
  8
CK_LEVEL_1
 62
     4
420
    65535
440
 33554687
100
AcDbHatch
 10
0.0
 20
0.0
 30
0.0
210
0.0
220
0.0
230
1.0
  2
SOLID
 70
     1
 71
     1
 91
        1
 92
        1
 93
        4
 72
     1
 10
159.4134151033511
 20
96.68660213094803
 11
155.9134151033513
 21
96.16160213094792
 72
     1
 10
155.9134151033513
 20
96.16160213094792
 11
159.4134151033511
 21
96.68660213094803
 72
     1
 10
159.4134151033511
 20
96.68660213094803
 11
155.9134151033513
 21
97.2116021309478
 72
     1
 10
155.9134151033513
 20
97.2116021309478
 11
159.4134151033511
 21
96.68660213094803
 97
        1
330
135
 75
     2
 76
     1
 98
        1
 10
0.0
 20
0.0
450
        0
451
        0
460
0.0
461
0.0
452
        0
462
0.0
453
        0
470

  0
MTEXT
  5
137
330
12C
100
AcDbEntity
  8
CK_LEVEL_1
100
AcDbMText
 10
117.7350400842272
 20
99.3116060644462
 30
0.0
 40
0.2
 41
0.0
 46
0.0
 71
     7
 72
     1
  1
\C4;\c16776960;\FMyriad Pro|b0|i0|c1;\H3.500000;\W1.000000;78
 73
     1
 44
1.0
  0
ENDBLK
  5
12F
330
12C
100
AcDbEntity
  8
0
100
AcDbBlockEnd
  0
BLOCK
  5
13A
330
138
100
AcDbEntity
  8
0
100
AcDbBlockBegin
  2
Block_3
 70
     0
 10
0.0
 20
0.0
 30
0.0
  3
Block_3
  1

  0
LINE
  5
13C
330
138
100
AcDbEntity
  8
CK_LEVEL_1
 62
     4
420
    65535
370
    25
100
AcDbLine
 10
81.41341510335097
 20
67.59804129844785
 30
0.0
 11
81.41341510335097
 21
106.2369796714478
 31
0.0
  0
LINE
  5
13D
330
138
100
AcDbEntity
  8
CK_LEVEL_1
 62
     4
420
    65535
370
    25
100
AcDbLine
 10
179.4134151033512
 20
82.40188887574801
 30
0.0
 11
179.4134151033512
 21
106.2369796714478
 31
0.0
  0
LINE
  5
13E
330
138
100
AcDbEntity
  8
CK_LEVEL_1
 62
     4
420
    65535
370
    25
100
AcDbLine
 10
81.41341510335097
 20
105.3619796714479
 30
0.0
 11
179.4134151033512
 21
105.3619796714479
 31
0.0
  0
LWPOLYLINE
  5
13F
330
138
100
AcDbEntity
  8
CK_LEVEL_1
100
AcDbPolyline
 90
        4
 70
     1
 43
0.0
 10
81.41341510335097
 20
105.3619796714479
 10
84.91341510335077
 20
105.886979671448
 10
81.41341510335097
 20
105.3619796714479
 10
84.91341510335077
 20
104.8369796714478
  0
HATCH
  5
140
330
138
100
AcDbEntity
  8
CK_LEVEL_1
 62
     4
420
    65535
440
 33554687
100
AcDbHatch
 10
0.0
 20
0.0
 30
0.0
210
0.0
220
0.0
230
1.0
  2
SOLID
 70
     1
 71
     1
 91
        1
 92
        1
 93
        4
 72
     1
 10
81.41341510335097
 20
105.3619796714479
 11
84.91341510335077
 21
105.886979671448
 72
     1
 10
84.91341510335077
 20
105.886979671448
 11
81.41341510335097
 21
105.3619796714479
 72
     1
 10
81.41341510335097
 20
105.3619796714479
 11
84.91341510335077
 21
104.8369796714478
 72
     1
 10
84.91341510335077
 20
104.8369796714478
 11
81.41341510335097
 21
105.3619796714479
 97
        1
330
13F
 75
     2
 76
     1
 98
        1
 10
0.0
 20
0.0
450
        0
451
        0
460
0.0
461
0.0
452
        0
462
0.0
453
        0
470

  0
LWPOLYLINE
  5
141
330
138
100
AcDbEntity
  8
CK_LEVEL_1
100
AcDbPolyline
 90
        4
 70
     1
 43
0.0
 10
179.4134151033512
 20
105.3619796714479
 10
175.9134151033508
 20
104.8369796714478
 10
179.4134151033512
 20
105.3619796714479
 10
175.9134151033508
 20
105.886979671448
  0
HATCH
  5
142
330
138
100
AcDbEntity
  8
CK_LEVEL_1
 62
     4
420
    65535
440
 33554687
100
AcDbHatch
 10
0.0
 20
0.0
 30
0.0
210
0.0
220
0.0
230
1.0
  2
SOLID
 70
     1
 71
     1
 91
        1
 92
        1
 93
        4
 72
     1
 10
179.4134151033512
 20
105.3619796714479
 11
175.9134151033508
 21
104.8369796714478
 72
     1
 10
175.9134151033508
 20
104.8369796714478
 11
179.4134151033512
 21
105.3619796714479
 72
     1
 10
179.4134151033512
 20
105.3619796714479
 11
175.9134151033508
 21
105.886979671448
 72
     1
 10
175.9134151033508
 20
105.886979671448
 11
179.4134151033512
 21
105.3619796714479
 97
        1
330
141
 75
     2
 76
     1
 98
        1
 10
0.0
 20
0.0
450
        0
451
        0
460
0.0
461
0.0
452
        0
462
0.0
453
        0
470

  0
MTEXT
  5
143
330
138
100
AcDbEntity
  8
CK_LEVEL_1
100
AcDbMText
 10
128.0881979728065
 20
107.986980919862
 30
0.0
 40
0.2
 41
0.0
 46
0.0
 71
     7
 72
     1
  1
\C4;\c16776960;\FMyriad Pro|b0|i0|c1;\H3.500000;\W1.000000;98
 73
     1
 44
1.0
  0
ENDBLK
  5
13B
330
138
100
AcDbEntity
  8
0
100
AcDbBlockEnd
  0
BLOCK
  5
146
330
144
100
AcDbEntity
  8
0
100
AcDbBlockBegin
  2
Block_4
 70
     0
 10
0.0
 20
0.0
 30
0.0
  3
Block_4
  1

  0
LINE
  5
148
330
144
100
AcDbEntity
  8
CK_LEVEL_1
 62
     4
420
    65535
370
    25
100
AcDbLine
 10
159.4134151033511
 20
82.40188887574801
 30
0.0
 11
159.4134151033511
 21
97.53447517124776
 31
0.0
  0
LINE
  5
149
330
144
100
AcDbEntity
  8
CK_LEVEL_1
 62
     4
420
    65535
370
    25
100
AcDbLine
 10
179.4134151033512
 20
82.40188887574801
 30
0.0
 11
179.4134151033512
 21
97.53447517124776
 31
0.0
  0
LINE
  5
14A
330
144
100
AcDbEntity
  8
CK_LEVEL_1
 62
     4
420
    65535
370
    25
100
AcDbLine
 10
159.4134151033511
 20
96.65947517124783
 30
0.0
 11
179.4134151033512
 21
96.65947517124783
 31
0.0
  0
LWPOLYLINE
  5
14B
330
144
100
AcDbEntity
  8
CK_LEVEL_1
100
AcDbPolyline
 90
        4
 70
     1
 43
0.0
 10
159.4134151033511
 20
96.65947517124783
 10
162.9134151033509
 20
97.18447517124792
 10
159.4134151033511
 20
96.65947517124783
 10
162.9134151033509
 20
96.13447517124804
  0
HATCH
  5
14C
330
144
100
AcDbEntity
  8
CK_LEVEL_1
 62
     4
420
    65535
440
 33554687
100
AcDbHatch
 10
0.0
 20
0.0
 30
0.0
210
0.0
220
0.0
230
1.0
  2
SOLID
 70
     1
 71
     1
 91
        1
 92
        1
 93
        4
 72
     1
 10
159.4134151033511
 20
96.65947517124783
 11
162.9134151033509
 21
97.18447517124792
 72
     1
 10
162.9134151033509
 20
97.18447517124792
 11
159.4134151033511
 21
96.65947517124783
 72
     1
 10
159.4134151033511
 20
96.65947517124783
 11
162.9134151033509
 21
96.13447517124804
 72
     1
 10
162.9134151033509
 20
96.13447517124804
 11
159.4134151033511
 21
96.65947517124783
 97
        1
330
14B
 75
     2
 76
     1
 98
        1
 10
0.0
 20
0.0
450
        0
451
        0
460
0.0
461
0.0
452
        0
462
0.0
453
        0
470

  0
LWPOLYLINE
  5
14D
330
144
100
AcDbEntity
  8
CK_LEVEL_1
100
AcDbPolyline
 90
        4
 70
     1
 43
0.0
 10
179.4134151033512
 20
96.65947517124783
 10
175.9134151033508
 20
96.13447517124804
 10
179.4134151033512
 20
96.65947517124783
 10
175.9134151033508
 20
97.18447517124792
  0
HATCH
  5
14E
330
144
100
AcDbEntity
  8
CK_LEVEL_1
 62
     4
420
    65535
440
 33554687
100
AcDbHatch
 10
0.0
 20
0.0
 30
0.0
210
0.0
220
0.0
230
1.0
  2
SOLID
 70
     1
 71
     1
 91
        1
 92
        1
 93
        4
 72
     1
 10
179.4134151033512
 20
96.65947517124783
 11
175.9134151033508
 21
96.13447517124804
 72
     1
 10
175.9134151033508
 20
96.13447517124804
 11
179.4134151033512
 21
96.65947517124783
 72
     1
 10
179.4134151033512
 20
96.65947517124783
 11
175.9134151033508
 21
97.18447517124792
 72
     1
 10
175.9134151033508
 20
97.18447517124792
 11
179.4134151033512
 21
96.65947517124783
 97
        1
330
14D
 75
     2
 76
     1
 98
        1
 10
0.0
 20
0.0
450
        0
451
        0
460
0.0
461
0.0
452
        0
462
0.0
453
        0
470

  0
MTEXT
  5
14F
330
144
100
AcDbEntity
  8
CK_LEVEL_1
100
AcDbMText
 10
165.8160199916406
 20
99.28447593749986
 30
0.0
 40
0.2
 41
0.0
 46
0.0
 71
     7
 72
     1
  1
\C4;\c16776960;\FMyriad Pro|b0|i0|c1;\H3.500000;\W1.000000;20
 73
     1
 44
1.0
  0
ENDBLK
  5
147
330
144
100
AcDbEntity
  8
0
100
AcDbBlockEnd
  0
BLOCK
  5
154
330
152
100
AcDbEntity
  8
0
100
AcDbBlockBegin
  2
Block_5
 70
     0
 10
0.0
 20
0.0
 30
0.0
  3
Block_5
  1

  0
LINE
  5
156
330
152
100
AcDbEntity
  8
CK_LEVEL_1
 62
     4
420
    65535
370
    25
100
AcDbLine
 10
149.663415103351
 20
71.65188887574778
 30
0.0
 11
40.99100863905094
 21
71.65188887574778
 31
0.0
  0
LINE
  5
157
330
152
100
AcDbEntity
  8
CK_LEVEL_1
 62
     4
420
    65535
370
    25
100
AcDbLine
 10
154.3634151033508
 20
21.65188887574762
 30
0.0
 11
40.99100863905094
 21
21.65188887574762
 31
0.0
  0
LINE
  5
158
330
152
100
AcDbEntity
  8
CK_LEVEL_1
 62
     4
420
    65535
370
    25
100
AcDbLine
 10
41.86600863905121
 20
71.65188887574778
 30
0.0
 11
41.86600863905121
 21
21.65188887574762
 31
0.0
  0
LWPOLYLINE
  5
159
330
152
100
AcDbEntity
  8
CK_LEVEL_1
100
AcDbPolyline
 90
        4
 70
     1
 43
0.0
 10
41.86600863905121
 20
71.65188887574778
 10
42.39100863905099
 20
68.15188887574798
 10
41.86600863905121
 20
71.65188887574778
 10
41.3410086390508
 20
68.15188887574798
  0
HATCH
  5
15A
330
152
100
AcDbEntity
  8
CK_LEVEL_1
 62
     4
420
    65535
440
 33554687
100
AcDbHatch
 10
0.0
 20
0.0
 30
0.0
210
0.0
220
0.0
230
1.0
  2
SOLID
 70
     1
 71
     1
 91
        1
 92
        1
 93
        4
 72
     1
 10
41.86600863905121
 20
71.65188887574778
 11
42.39100863905099
 21
68.15188887574798
 72
     1
 10
42.39100863905099
 20
68.15188887574798
 11
41.86600863905121
 21
71.65188887574778
 72
     1
 10
41.86600863905121
 20
71.65188887574778
 11
41.3410086390508
 21
68.15188887574798
 72
     1
 10
41.3410086390508
 20
68.15188887574798
 11
41.86600863905121
 21
71.65188887574778
 97
        1
330
159
 75
     2
 76
     1
 98
        1
 10
0.0
 20
0.0
450
        0
451
        0
460
0.0
461
0.0
452
        0
462
0.0
453
        0
470

  0
LWPOLYLINE
  5
15B
330
152
100
AcDbEntity
  8
CK_LEVEL_1
100
AcDbPolyline
 90
        4
 70
     1
 43
0.0
 10
41.86600863905121
 20
21.65188887574762
 10
41.3410086390508
 20
25.15188887574807
 10
41.86600863905121
 20
21.65188887574762
 10
42.39100863905099
 20
25.15188887574807
  0
HATCH
  5
15C
330
152
100
AcDbEntity
  8
CK_LEVEL_1
 62
     4
420
    65535
440
 33554687
100
AcDbHatch
 10
0.0
 20
0.0
 30
0.0
210
0.0
220
0.0
230
1.0
  2
SOLID
 70
     1
 71
     1
 91
        1
 92
        1
 93
        4
 72
     1
 10
41.86600863905121
 20
21.65188887574762
 11
41.3410086390508
 21
25.15188887574807
 72
     1
 10
41.3410086390508
 20
25.15188887574807
 11
41.86600863905121
 21
21.65188887574762
 72
     1
 10
41.86600863905121
 20
21.65188887574762
 11
42.39100863905099
 21
25.15188887574807
 72
     1
 10
42.39100863905099
 20
25.15188887574807
 11
41.86600863905121
 21
21.65188887574762
 97
        1
330
15B
 75
     2
 76
     1
 98
        1
 10
0.0
 20
0.0
450
        0
451
        0
460
0.0
461
0.0
452
        0
462
0.0
453
        0
470

  0
MTEXT
  5
15D
330
152
100
AcDbEntity
  8
CK_LEVEL_1
100
AcDbMText
 10
39.24101023222741
 20
39.68612195188466
 30
0.0
 40
0.2
 41
0.0
 46
0.0
 71
     7
 72
     1
  1
\C4;\c16776960;\FMyriad Pro|b0|i0|c1;\H3.500000;\W1.000000;Ø50
 11
-0.0000000000000002
 21
1.0
 31
0.0
 73
     1
 44
1.0
  0
ENDBLK
  5
155
330
152
100
AcDbEntity
  8
0
100
AcDbBlockEnd
  0
ENDSEC
  0
SECTION
  2
ENTITIES
  0
CIRCLE
  5
79
330
70
100
AcDbEntity
  8
CK_LEVEL_1
 62
    18
420
        0
370
    25
100
AcDbCircle
 10
-93.54194445374895
 20
46.65188887574786
 30
0.0
 40
0.8000000000000282
  0
CIRCLE
  5
7A
330
70
100
AcDbEntity
  8
CK_LEVEL_1
 62
    18
420
        0
370
    25
100
AcDbCircle
 10
-93.54194445374895
 20
46.65188887574786
 30
0.0
 40
1.949999999999907
  0
LINE
  5
7B
330
70
100
AcDbEntity
  8
CK_LEVEL_1
 62
    18
420
        0
370
    25
100
AcDbLine
 10
-59.659795761549
 20
80.65188887574779
 30
0.0
 11
-59.24908805484885
 21
81.65188887574782
 31
0.0
  0
LINE
  5
7C
330
70
100
AcDbEntity
  8
CK_LEVEL_1
 62
    18
420
        0
370
    25
100
AcDbLine
 10
-127.4240931459489
 20
80.65188887574779
 30
0.0
 11
-127.8348008527488
 21
81.65188887574782
 31
0.0
  0
SPLINE
  5
7D
330
70
100
AcDbEntity
  8
CK_LEVEL_1
 62
    18
420
        0
370
    25
100
AcDbSpline
210
0.0
220
0.0
230
1.0
 70
     8
 71
     3
 72
    17
 73
    13
 74
     0
 42
0.0000000001
 43
0.0000000001
 40
0.0
 40
0.0
 40
0.0
 40
0.0
 40
1.0
 40
1.0
 40
1.0
 40
2.0
 40
2.0
 40
2.0
 40
3.0
 40
3.0
 40
3.0
 40
4.0
 40
4.0
 40
4.0
 40
4.0
 10
-127.4240931459502
 20
80.65188887574135
 30
0.0
 10
-146.2017746401937
 20
61.9392948615393
 30
0.0
 10
-146.2545384679445
 20
31.54742167779014
 30
0.0
 10
-127.5419444537424
 20
12.76974018354663
 30
0.0
 10
-108.82935043954
 20
-6.007941310696863
 30
0.0
 10
-78.43747725579089
 20
-6.060705138447703
 30
0.0
 10
-59.6597957615474
 20
12.65188887575436
 30
0.0
 10
-40.88211426730422
 20
31.36448288995643
 30
0.0
 10
-40.82935043955338
 20
61.75635607370591
 30
0.0
 10
-59.54194445375545
 20
80.5340375679494
 30
0.0
 10
-59.58115999227638
 20
80.57338950875532
 30
0.0
 10
-59.6204438207418
 20
80.61267333722042
 30
0.0
 10
-59.6597957615474
 20
80.65188887574135
 30
0.0
  0
LINE
  5
7E
330
70
100
AcDbEntity
  8
CK_LEVEL_1
 62
    18
420
        0
370
    25
100
AcDbLine
 10
-59.659795761549
 20
80.65188887574779
 30
0.0
 11
-127.4240931459489
 21
80.65188887574779
 31
0.0
  0
LINE
  5
7F
330
70
100
AcDbEntity
  8
CK_LEVEL_1
 62
    18
420
        0
370
    25
100
AcDbLine
 10
-59.24908805484885
 20
81.65188887574782
 30
0.0
 11
-127.8348008527488
 21
81.65188887574782
 31
0.0
  0
CIRCLE
  5
80
330
70
100
AcDbEntity
  8
CK_LEVEL_1
 62
    18
420
        0
370
    25
100
AcDbCircle
 10
-75.04194445374894
 20
14.60894893574783
 30
0.0
 40
7.99999999999988
  0
CIRCLE
  5
81
330
70
100
AcDbEntity
  8
CK_LEVEL_1
 62
    18
420
        0
370
    25
100
AcDbCircle
 10
-75.04194445374894
 20
14.60894893574799
 30
0.0
 40
8.577350269200106
  0
LINE
  5
82
330
70
100
AcDbEntity
  8
CK_LEVEL_1
 62
    18
420
        0
370
    25
100
AcDbLine
 10
-79.92380243424898
 20
66.65188887574792
 30
0.0
 11
-107.1600864732489
 21
66.65188887574792
 31
0.0
  0
CIRCLE
  5
83
330
70
100
AcDbEntity
  8
CK_LEVEL_1
 62
    18
420
        0
370
    25
100
AcDbCircle
 10
-93.54194445374895
 20
46.65188887574778
 30
0.0
 40
24.99999999999996
  0
SPLINE
  5
84
330
70
100
AcDbEntity
  8
CK_LEVEL_1
 62
    18
420
        0
370
    25
100
AcDbSpline
210
0.0
220
0.0
230
1.0
 70
     8
 71
     3
 72
    17
 73
    13
 74
     0
 42
0.0000000001
 43
0.0000000001
 40
0.0
 40
0.0
 40
0.0
 40
0.0
 40
1.0
 40
1.0
 40
1.0
 40
2.0
 40
2.0
 40
2.0
 40
3.0
 40
3.0
 40
3.0
 40
4.0
 40
4.0
 40
4.0
 40
4.0
 10
-107.1600864732184
 20
66.65188887575017
 30
0.0
 10
-118.2057814698356
 20
59.13079671736706
 30
0.0
 10
-121.063036612134
 20
44.07944185289555
 30
0.0
 10
-113.5419444537509
 20
33.03374685627838
 30
0.0
 10
-106.0208522953681
 20
21.98805185966119
 30
0.0
 10
-90.96949743089632
 20
19.13079671736276
 30
0.0
 10
-79.92380243427914
 20
26.65188887574588
 30
0.0
 10
-68.87810743766228
 20
34.172981034129
 30
0.0
 10
-66.02085229536385
 20
49.22433589860081
 30
0.0
 10
-73.54194445374663
 20
60.27003089521767
 30
0.0
 10
-75.25014641775026
 20
62.77874605116385
 30
0.0
 10
-77.41508727833296
 20
64.94368691174655
 30
0.0
 10
-79.92380243427914
 20
66.65188887575017
 30
0.0
  0
SPLINE
  5
85
330
70
100
AcDbEntity
  8
CK_LEVEL_1
 62
    18
420
        0
370
    25
100
AcDbSpline
210
0.0
220
0.0
230
1.0
 70
     8
 71
     3
 72
    17
 73
    13
 74
     0
 42
0.0000000001
 43
0.0000000001
 40
0.0
 40
0.0
 40
0.0
 40
0.0
 40
1.0
 40
1.0
 40
1.0
 40
2.0
 40
2.0
 40
2.0
 40
3.0
 40
3.0
 40
3.0
 40
4.0
 40
4.0
 40
4.0
 40
4.0
 10
-127.8348008527177
 20
81.65188887574364
 30
0.0
 10
-147.1647670967931
 20
62.7124672584558
 30
0.0
 10
-147.4813660710325
 20
31.68899872085484
 30
0.0
 10
-128.5419444537447
 20
12.3590324767791
 30
0.0
 10
-109.6025228364569
 20
-6.970933767295997
 30
0.0
 10
-78.57905429885561
 20
-7.287532741535437
 30
0.0
 10
-59.24908805478018
 20
11.6518888757524
 30
0.0
 10
-39.91912181070477
 20
30.59131049303961
 30
0.0
 10
-39.60252283646534
 20
61.6147790306412
 30
0.0
 10
-58.54194445375316
 20
80.94474527471662
 30
0.0
 10
-58.77524741241584
 20
81.18285910980231
 30
0.0
 10
-59.0109742196945
 20
81.41858591708098
 30
0.0
 10
-59.24908805478018
 20
81.65188887574364
 30
0.0
  0
LINE
  5
86
330
70
100
AcDbEntity
  8
CK_LEVEL_1
  6
AI-Linetype-0
 62
     1
420
 16711680
370
    25
100
AcDbLine
 10
-93.54194445374895
 20
-12.25945061865212
 30
0.0
 11
-93.54194445374895
 21
89.66703987714799
 31
0.0
  0
LINE
  5
88
330
70
100
AcDbEntity
  8
CK_LEVEL_1
  6
AI-Linetype-1
 62
     1
420
 16711680
370
    25
100
AcDbLine
 10
-35.16729117444889
 20
46.65188887574786
 30
0.0
 11
-156.0290610257488
 21
46.65188887574786
 31
0.0
  0
INSERT
  5
8B
330
70
100
AcDbEntity
  8
CK_LEVEL_1
100
AcDbBlockReference
  2
Block_0
 10
0.0
 20
0.0
 30
0.0
  0
INSERT
  5
97
330
70
100
AcDbEntity
  8
CK_LEVEL_1
100
AcDbBlockReference
  2
Block_1
 10
0.0
 20
0.0
 30
0.0
  0
LINE
  5
A2
330
70
100
AcDbEntity
  8
CK_LEVEL_1
 62
     6
420
 16711935
370
    25
100
AcDbLine
 10
-163.2819444537489
 20
189.6528888757478
 30
0.0
 11
237.7180555462508
 21
189.6528888757478
 31
0.0
  0
LINE
  5
A3
330
70
100
AcDbEntity
  8
CK_LEVEL_1
 62
     6
420
 16711935
370
    25
100
AcDbLine
 10
-163.2819444537489
 20
-84.52511112425233
 30
0.0
 11
-163.2819444537489
 21
189.6528888757478
 31
0.0
  0
LINE
  5
A4
330
70
100
AcDbEntity
  8
CK_LEVEL_1
 62
     6
420
 16711935
370
    25
100
AcDbLine
 10
237.7180555462508
 20
189.6528888757478
 30
0.0
 11
237.7180555462508
 21
-84.52511112425233
 31
0.0
  0
LINE
  5
A5
330
70
100
AcDbEntity
  8
CK_LEVEL_1
 62
     6
420
 16711935
370
    25
100
AcDbLine
 10
-163.2819444537489
 20
-84.52511112425233
 30
0.0
 11
237.7180555462508
 21
-84.52511112425233
 31
0.0
  0
MTEXT
  5
A6
330
70
100
AcDbEntity
  8
CK_LEVEL_1
100
AcDbMText
 10
133.9928117205165
 20
-62.14660498866799
 30
0.0
 40
0.2
 41
0.0
 46
0.0
 71
     7
 72
     1
  1
\C4;\c16776960;\FMyriad Pro|b0|i0|c1;\H3.610000;\W0.500000;Weitergabe und Vervielfaeltigung dieser Unterlage.
 73
     1
 44
1.0
  0
MTEXT
  5
A7
330
70
100
AcDbEntity
  8
CK_LEVEL_1
100
AcDbMText
 10
133.9928117205165
 20
-67.92260901554431
 30
0.0
 40
0.2
 41
0.0
 46
0.0
 71
     7
 72
     1
  1
\C4;\c16776960;\FMyriad Pro|b0|i0|c1;\H3.610000;\W0.500000;Verwertung und Mitteilung ihres Inhalts nicht gestattet, 
 73
     1
 44
1.0
  0
MTEXT
  5
A8
330
70
100
AcDbEntity
  8
CK_LEVEL_1
100
AcDbMText
 10
133.9928117205165
 20
-73.69860765945893
 30
0.0
 40
0.2
 41
0.0
 46
0.0
 71
     7
 72
     1
  1
\C4;\c16776960;\FMyriad Pro|b0|i0|c1;\H3.610000;\W0.500000;soweit nicht ausdruecklich zugestanden.
 73
     1
 44
1.0
  0
MTEXT
  5
A9
330
70
100
AcDbEntity
  8
CK_LEVEL_1
100
AcDbMText
 10
133.9928117205165
 20
-79.47460630337353
 30
0.0
 40
0.2
 41
0.0
 46
0.0
 71
     7
 72
     1
  1
\C4;\c16776960;\FMyriad Pro|b0|i0|c1;\H3.610000;\W0.500000;Zuwiderhandlungen verpflichten zu Schadenersatz.
 73
     1
 44
1.0
  0
LWPOLYLINE
  5
AA
330
70
100
AcDbEntity
  8
CK_LEVEL_1
 62
     3
420
    65280
370
    25
100
AcDbPolyline
 90
      200
 70
     0
 43
0.0
 10
208.3610550639513
 20
-40.07622301705196
 10
208.3610550639513
 20
-39.80016517715226
 10
208.3610550639513
 20
-39.06033016615199
 10
208.3610550639513
 20
-37.98922574735191
 10
208.3610550639513
 20
-36.71935968385192
 10
208.3610550639513
 20
-35.38323973865182
 10
208.3610550639513
 20
-34.11337367515184
 10
208.3610550639513
 20
-33.04226925625229
 10
208.3610550639513
 20
-32.30243424535212
 10
208.3610550639513
 20
-32.02637640545179
 10
208.5021777330509
 20
-32.02637640545179
 10
208.8803864864509
 20
-32.02637640545179
 10
209.4279424427511
 20
-32.02637640545179
 10
210.0771067208512
 20
-32.02637640545179
 10
210.7601404396512
 20
-32.02637640545179
 10
211.4093047177513
 20
-32.02637640545179
 10
211.9568606740509
 20
-32.02637640545179
 10
212.3350694274509
 20
-32.02637640545179
 10
212.4761920965511
 20
-32.02637640545179
 10
212.8277638004508
 20
-32.031035546352
 10
213.2208811157509
 20
-32.04892886775223
 10
213.5361524944513
 20
-32.07529374535236
 10
213.871023886551
 20
-32.11831780195183
 10
214.1226720483512
 20
-32.16377727035232
 10
214.373962882651
 20
-32.22406950705237
 10
214.6031663665507
 20
-32.29661570765181
 10
214.7889022163508
 20
-32.37261230595193
 10
214.9567334808508
 20
-32.46053830285228
 10
215.0074758321513
 20
-32.4920597462518
 10
215.1870753387508
 20
-32.62827461045207
 10
215.3219160617509
 20
-32.76496874095232
 10
215.4536803646509
 20
-32.94447195095204
 10
215.5427085541508
 20
-33.10934647825215
 10
215.6203014882513
 20
-33.30800317695195
 10
215.6777775633508
 20
-33.52927284595179
 10
215.711342930451
 20
-33.74785996775182
 10
215.7271390003513
 20
-33.98932211925231
 10
215.7281920124511
 20
-34.0735945630519
 10
215.7232810867512
 20
-34.23137651085223
 10
215.7085442203513
 20
-34.38308965565226
 10
215.6839752799509
 20
-34.52869447035178
 10
215.6495681317511
 20
-34.6681514274521
 10
215.6053166424509
 20
-34.80142099975223
 10
215.5512146783514
 20
-34.92846365985228
 10
215.4872561059512
 20
-35.04923988055196
 10
215.4134347917513
 20
-35.1637101346522
 10
215.3297446021515
 20
-35.27183489465238
 10
215.2367274472509
 20
-35.37343424325192
 10
215.1338973003514
 20
-35.46842299235196
 10
215.021279377251
 20
-35.5568209056521
 10
214.8988988934513
 20
-35.63864774675188
 10
214.7667810648508
 20
-35.7139232793522
 10
214.6249511069513
 20
-35.78266726695183
 10
214.4734342355511
 20
-35.84489947335178
 10
214.3122556663509
 20
-35.90063966215222
 10
214.1414406149508
 20
-35.94990759695202
 10
214.2995898939513
 20
-35.97965211435211
 10
214.447305329951
 20
-36.01561536575213
 10
214.5845985083511
 20
-36.05779666975175
 10
214.7114810147508
 20
-36.10619534485184
 10
214.8279644348509
 20
-36.16081070945187
 10
214.9340603541509
 20
-36.22164208205207
 10
215.0297803582511
 20
-36.28868878125209
 10
215.1151360328511
 20
-36.36195012545208
 10
215.1901389633509
 20
-36.44142543315226
 10
215.2577384767513
 20
-36.53141375225231
 10
215.320564046851
 20
-36.63617164985215
 10
215.3786442969513
 20
-36.75571752675193
 10
215.4320078503511
 20
-36.89006978345215
 10
215.4806833300508
 20
-37.03924682065224
 10
215.5246993593512
 20
-37.20326703895214
 10
215.5640845614509
 20
-37.38214883915204
 10
215.5988675596514
 20
-37.57591062165231
 10
215.6290769771512
 20
-37.78457078725184
 10
215.632876368051
 20
-37.81445762565218
 10
215.6430587358514
 20
-37.89455435245232
 10
215.6578003726509
 20
-38.01051528525216
 10
215.6752775710509
 20
-38.14799474175228
 10
215.6936666232514
 20
-38.29264703945183
 10
215.7111438215512
 20
-38.43012649585185
 10
215.7258854584509
 20
-38.54608742875179
 10
215.7360678262512
 20
-38.62618415555194
 10
215.7398672171511
 20
-38.65607099385217
 10
215.7451066283512
 20
-38.70637163605176
 10
215.7512374482512
 20
-38.75902415245219
 10
215.7582862555511
 20
-38.81404353595236
 10
215.7662796289509
 20
-38.87144477985228
 10
215.7752441470511
 20
-38.93124287715224
 10
215.7852063886512
 20
-38.99345282105213
 10
215.7961929323512
 20
-39.05808960455225
 10
215.808230357051
 20
-39.12516822095193
 10
215.8213452412507
 20
-39.19470366315202
 10
215.8352663459507
 20
-39.26850952995239
 10
215.8508128403511
 20
-39.34838079215211
 10
215.8679908579512
 20
-39.43430450115204
 10
215.8868065323512
 20
-39.52626770845186
 10
215.9072659970509
 20
-39.6242574652522
 10
215.9293753856511
 20
-39.72826082315221
 10
215.953140831551
 20
-39.838264833452
 10
215.9785684684513
 20
-39.95425654765188
 10
216.0056644298514
 20
-40.07622301705196
 10
215.9003179389508
 20
-40.07622301705196
 10
215.6179893434508
 20
-40.07622301705196
 10
215.2092449588508
 20
-40.07622301705196
 10
214.7246511008511
 20
-40.07622301705196
 10
214.2147740850512
 20
-40.07622301705196
 10
213.7301802270509
 20
-40.07622301705196
 10
213.3214358425509
 20
-40.07622301705196
 10
213.0391072469508
 20
-40.07622301705196
 10
212.933760756151
 20
-40.07622301705196
 10
212.9114224954509
 20
-39.98840097555194
 10
212.890348426751
 20
-39.90425974315187
 10
212.8705576321511
 20
-39.82384293605205
 10
212.8520691937511
 20
-39.7471941707518
 10
212.8349021938514
 20
-39.67435706345204
 10
212.8190757144509
 20
-39.60537523055199
 10
212.8046088376509
 20
-39.54029228835206
 10
212.7915206457513
 20
-39.47915185315198
 10
212.779830220851
 20
-39.42199754125216
 10
212.7682179417511
 20
-39.3665873145521
 10
212.7573205616507
 20
-39.31214141755212
 10
212.7471108200513
 20
-39.25866121325176
 10
212.7375614570512
 20
-39.20614806475196
 10
212.7286452121512
 20
-39.15460333495218
 10
212.7203348253509
 20
-39.10402838695211
 10
212.7126030363511
 20
-39.05442458375193
 10
212.7054225850509
 20
-39.00579328825238
 10
212.698766211151
 20
-38.95813586355184
 10
212.696170812551
 20
-38.93788664325227
 10
212.6892151442507
 20
-38.88361873265221
 10
212.6791449976511
 20
-38.80505175765236
 10
212.6672061641512
 20
-38.71190534395193
 10
212.6546444349511
 20
-38.61389911735217
 10
212.6427056013511
 20
-38.52075270365239
 10
212.6326354547508
 20
-38.44218572865189
 10
212.6256797865512
 20
-38.38791781805183
 10
212.6230843879512
 20
-38.36766859775226
 10
212.596577474151
 20
-38.19795145105207
 10
212.5683115956512
 20
-38.04267948655226
 10
212.5382451807509
 20
-37.90182271795192
 10
212.5063366574508
 20
-37.77535115905212
 10
212.4725444541511
 20
-37.66323482365205
 10
212.4368269988509
 20
-37.56544372555218
 10
212.3991427198509
 20
-37.4819478784522
 10
212.3594500453508
 20
-37.41271729615194
 10
212.3177074034508
 20
-37.35772199245185
 10
212.2720613274507
 20
-37.31317677445209
 10
212.2199981994508
 20
-37.27387982725225
 10
212.1614798551513
 20
-37.23982910625223
 10
212.0964681302508
 20
-37.21102256705217
 10
212.024924860351
 20
-37.18745816515207
 10
211.946811881351
 20
-37.16913385595184
 10
211.8620910288513
 20
-37.15604759495214
 10
211.770724138551
 20
-37.14819733765235
 10
211.6726730462513
 20
-37.14558103955185
 10
211.6491799751512
 20
-37.14563817245194
 10
211.6268979386507
 20
-37.1458050275521
 10
211.605835796251
 20
-37.14607479005216
 10
211.5860024076511
 20
-37.14644064465209
 10
211.5674066321513
 20
-37.14689577645225
 10
211.550057329651
 20
-37.14743337045227
 10
211.5339633594512
 20
-37.14804661145221
 10
211.519133581251
 20
-37.14872868445235
 10
211.5055768545508
 20
-37.14947277445229
 10
211.4918751944511
 20
-37.15007920045186
 10
211.4785027013509
 20
-37.15085872865215
 10
211.4654082623513
 20
-37.15182498935232
 10
211.4525407644509
 20
-37.15299161245236
 10
211.4398490949512
 20
-37.15437222825203
 10
211.4272821408508
 20
-37.155980466652
 10
211.4147887893511
 20
-37.15782995795203
 10
211.4023179274512
 20
-37.15993433215222
 10
211.3898184423509
 20
-37.16230721925206
 10
211.3898184423509
 20
-37.26223574455203
 10
211.3898184423509
 20
-37.53004419245226
 10
211.3898184423509
 20
-37.91776687055191
 10
211.3898184423509
 20
-38.3774380869519
 10
211.3898184423509
 20
-38.86109214935212
 10
211.3898184423509
 20
-39.32076336575211
 10
211.3898184423509
 20
-39.70848604395186
 10
211.3898184423509
 20
-39.976294491752
 10
211.3898184423509
 20
-40.07622301705196
 10
211.285951385451
 20
-40.07622301705196
 10
211.0075876730509
 20
-40.07622301705196
 10
210.604583492351
 20
-40.07622301705196
 10
210.1267950307512
 20
-40.07622301705196
 10
209.6240784754508
 20
-40.07622301705196
 10
209.1462900138511
 20
-40.07622301705196
 10
208.7432858332512
 20
-40.07622301705196
 10
208.464922120751
 20
-40.07622301705196
 10
208.3610550639513
 20
-40.07622301705196
 10
208.3610550639513
 20
-40.07622301705196
 10
208.3610550639513
 20
-40.07622301705196
 10
208.3610550639513
 20
-40.07622301705196
 10
208.3610550639513
 20
-40.07622301705196
 10
208.3610550639513
 20
-40.07622301705196
 10
208.3610550639513
 20
-40.07622301705196
 10
208.3610550639513
 20
-40.07622301705196
 10
208.3610550639513
 20
-40.07622301705196
 10
208.3610550639513
 20
-40.07622301705196
  0
LWPOLYLINE
  5
AB
330
70
100
AcDbEntity
  8
CK_LEVEL_1
 62
     3
420
    65280
370
    25
100
AcDbPolyline
 90
      100
 70
     0
 43
0.0
 10
211.3956146432514
 20
-35.34983519815177
 10
211.4041912713514
 20
-35.3510750830519
 10
211.4129696250512
 20
-35.35216094785232
 10
211.4219428891512
 20
-35.35311664525198
 10
211.4311042486512
 20
-35.35396602775219
 10
211.4404468885509
 20
-35.35473294815201
 10
211.4499639936508
 20
-35.3554412591523
 10
211.4596487491508
 20
-35.3561148133519
 10
211.4694943397509
 20
-35.35677746345236
 10
211.4794939505509
 20
-35.35745306215195
 10
211.4903694089511
 20
-35.35803597625187
 10
211.5022425908511
 20
-35.35861411965182
 10
211.515117585251
 20
-35.35917045505239
 10
211.5289984812509
 20
-35.35968794455221
 10
211.5438893676511
 20
-35.36014955065226
 10
211.5597943337512
 20
-35.36053823575216
 10
211.5767174684512
 20
-35.36083696215204
 10
211.5946628608511
 20
-35.36102869225216
 10
211.6136345999509
 20
-35.36109638845211
 10
211.729706845251
 20
-35.3584037617518
 10
211.8395658085508
 20
-35.35033814885227
 10
211.9432176234509
 20
-35.3369179504523
 10
212.0406684233511
 20
-35.31816156695228
 10
212.1319243418509
 20
-35.29408739925183
 10
212.216991512551
 20
-35.264713847752
 10
212.2958760689512
 20
-35.23005931335177
 10
212.3685841446511
 20
-35.19014219645216
 10
212.435121873051
 20
-35.14498089775198
 10
212.4953588596512
 20
-35.09493797805231
 10
212.5484529913509
 20
-35.04032352215201
 10
212.5944192610511
 20
-34.98116001965232
 10
212.633272662051
 20
-34.91746996025197
 10
212.665028187451
 20
-34.84927583365226
 10
212.689700830251
 20
-34.77660012955195
 10
212.7073055836513
 20
-34.69946533745215
 10
212.7178574407511
 20
-34.6178939472518
 10
212.7213713946514
 20
-34.53190844835191
 10
212.7184794277508
 20
-34.45174550205211
 10
212.709803526951
 20
-34.37657185445187
 10
212.6953436924508
 20
-34.30636569765191
 10
212.6750999241508
 20
-34.24110522335186
 10
212.6490722220509
 20
-34.18076862335213
 10
212.6172605860511
 20
-34.12533408965204
 10
212.5796650163509
 20
-34.07477981395186
 10
212.5362855127514
 20
-34.0290839881521
 10
212.4871220754509
 20
-33.98822480405187
 10
212.4314674155513
 20
-33.95242034325195
 10
212.368949999251
 20
-33.92075670755199
 10
212.2995766416513
 20
-33.89325297895226
 10
212.2233541577513
 20
-33.86992823965194
 10
212.1402893626507
 20
-33.85080157175209
 10
212.0503890713513
 20
-33.83589205745188
 10
211.953660098951
 20
-33.82521877885235
 10
211.8501092604507
 20
-33.81880081815205
 10
211.739743370951
 20
-33.81665725745201
 10
211.7113977563512
 20
-33.81666009705176
 10
211.6845337338514
 20
-33.8166799742519
 10
211.6591363103512
 20
-33.8167339267523
 10
211.6351904927509
 20
-33.81683899215206
 10
211.6126812878512
 20
-33.81701220805224
 10
211.591593702651
 20
-33.81727061205193
 10
211.5719127439513
 20
-33.81763124185229
 10
211.553623418651
 20
-33.81811113495233
 10
211.5367107336509
 20
-33.81872732915199
 10
211.521224211751
 20
-33.81938895705218
 10
211.505637508551
 20
-33.82019915305191
 10
211.489973113751
 20
-33.821134745952
 10
211.4742535170511
 20
-33.82217256465212
 10
211.4585012081512
 20
-33.82328943795181
 10
211.4427386765512
 20
-33.8244621946519
 10
211.4269884121513
 20
-33.82566766355193
 10
211.4112729044513
 20
-33.82688267355221
 10
211.3956146432514
 20
-33.82808405345229
 10
211.3956146432514
 20
-33.88027030675214
 10
211.3956146432514
 20
-34.02012946545194
 10
211.3956146432514
 20
-34.22261212805202
 10
211.3956146432514
 20
-34.46266889295195
 10
211.3956146432514
 20
-34.7152503586521
 10
211.3956146432514
 20
-34.95530712355204
 10
211.3956146432514
 20
-35.15778978615212
 10
211.3956146432514
 20
-35.29764894485191
 10
211.3956146432514
 20
-35.34983519815177
 10
211.3956146432514
 20
-35.34983519815177
 10
211.3956146432514
 20
-35.34983519815177
 10
211.3956146432514
 20
-35.34983519815177
 10
211.3956146432514
 20
-35.34983519815177
 10
211.3956146432514
 20
-35.34983519815177
 10
211.3956146432514
 20
-35.34983519815177
 10
211.3956146432514
 20
-35.34983519815177
 10
211.3956146432514
 20
-35.34983519815177
 10
211.3956146432514
 20
-35.34983519815177
 10
211.3956146432514
 20
-35.34983519815177
 10
211.3956146432514
 20
-35.34983519815177
 10
211.3956146432514
 20
-35.34983519815177
 10
211.3956146432514
 20
-35.34983519815177
 10
211.3956146432514
 20
-35.34983519815177
 10
211.3956146432514
 20
-35.34983519815177
 10
211.3956146432514
 20
-35.34983519815177
 10
211.3956146432514
 20
-35.34983519815177
 10
211.3956146432514
 20
-35.34983519815177
  0
LWPOLYLINE
  5
AC
330
70
100
AcDbEntity
  8
CK_LEVEL_1
 62
     3
420
    65280
370
    25
100
AcDbPolyline
 90
       14
 70
     0
 43
0.0
 10
200.4699415540511
 20
-40.07622301705196
 10
200.4699415540511
 20
-32.02637640545179
 10
206.4938503456511
 20
-32.02637640545179
 10
206.4938503456511
 20
-34.09446088625218
 10
203.5096349113511
 20
-34.09446088625218
 10
203.5096349113511
 20
-34.96786555885191
 10
206.2815437870511
 20
-34.96786555885191
 10
206.2815437870511
 20
-37.0356188282518
 10
203.5096349113511
 20
-37.0356188282518
 10
203.5096349113511
 20
-37.98578176135211
 10
206.5985131733513
 20
-37.98578176135211
 10
206.5985131733513
 20
-40.07622301705196
 10
200.4699415540511
 20
-40.07622301705196
 10
200.4699415540511
 20
-40.07622301705196
  0
LWPOLYLINE
  5
AD
330
70
100
AcDbEntity
  8
CK_LEVEL_1
 62
     3
420
    65280
370
    25
100
AcDbPolyline
 90
        8
 70
     0
 43
0.0
 10
199.5188677893512
 20
-37.94115101445225
 10
199.5188677893512
 20
-40.07622301705196
 10
193.4840290189508
 20
-40.07622301705196
 10
193.4840290189508
 20
-32.03780320145206
 10
196.5949328443511
 20
-32.03780320145206
 10
196.5949328443511
 20
-37.94115101445225
 10
199.5188677893512
 20
-37.94115101445225
 10
199.5188677893512
 20
-37.94115101445225
  0
LWPOLYLINE
  5
AE
330
70
100
AcDbEntity
  8
CK_LEVEL_1
 62
     3
420
    65280
370
    25
100
AcDbPolyline
 90
       15
 70
     0
 43
0.0
 10
181.1444969246512
 20
-40.07622301705196
 10
181.1444969246512
 20
-32.02637640545179
 10
185.5610364041509
 20
-32.02637640545179
 10
186.4437149981513
 20
-36.78961150145227
 10
187.3629096579508
 20
-32.02637640545179
 10
191.5739324140509
 20
-32.02637640545179
 10
191.5739324140509
 20
-40.07622301705196
 10
188.9721006332509
 20
-40.07622301705196
 10
189.0056357956511
 20
-34.31802863525191
 10
187.755643670251
 20
-40.07622301705196
 10
184.9593079479509
 20
-40.07622301705196
 10
183.7260420023511
 20
-34.31802863525191
 10
183.7372203897512
 20
-40.07622301705196
 10
181.1444969246512
 20
-40.07622301705196
 10
181.1444969246512
 20
-40.07622301705196
  0
LWPOLYLINE
  5
AF
330
70
100
AcDbEntity
  8
CK_LEVEL_1
 62
     3
420
    65280
370
    25
100
AcDbPolyline
 90
       15
 70
     0
 43
0.0
 10
168.804964830451
 20
-40.07622301705196
 10
168.804964830451
 20
-32.02637640545179
 10
173.2215043098513
 20
-32.02637640545179
 10
174.104679721151
 20
-36.78961150145227
 10
175.0227151407513
 20
-32.02637640545179
 10
179.2344831226509
 20
-32.02637640545179
 10
179.2344831226509
 20
-40.07622301705196
 10
176.6319061160514
 20
-40.07622301705196
 10
176.6661037013508
 20
-34.31802863525191
 10
175.4161115760508
 20
-40.07622301705196
 10
172.6192790364513
 20
-40.07622301705196
 10
171.3865099080508
 20
-34.31802863525191
 10
171.397522689851
 20
-40.07622301705196
 10
168.804964830451
 20
-40.07622301705196
 10
168.804964830451
 20
-40.07622301705196
  0
LWPOLYLINE
  5
B0
330
70
100
AcDbEntity
  8
CK_LEVEL_1
 62
     3
420
    65280
370
    25
100
AcDbPolyline
 90
       14
 70
     0
 43
0.0
 10
160.913188897651
 20
-40.07622301705196
 10
160.913188897651
 20
-32.02637640545179
 10
166.9377601122509
 20
-32.02637640545179
 10
166.9377601122509
 20
-34.09446088625218
 10
163.9535446778508
 20
-34.09446088625218
 10
163.9535446778508
 20
-34.96786555885191
 10
166.7254535536509
 20
-34.96786555885191
 10
166.7254535536509
 20
-37.0356188282518
 10
163.9535446778508
 20
-37.0356188282518
 10
163.9535446778508
 20
-37.98578176135211
 10
167.0424229399511
 20
-37.98578176135211
 10
167.0424229399511
 20
-40.07622301705196
 10
160.913188897651
 20
-40.07622301705196
 10
160.913188897651
 20
-40.07622301705196
  0
LWPOLYLINE
  5
B1
330
70
100
AcDbEntity
  8
CK_LEVEL_1
 62
     3
420
    65280
370
    25
100
AcDbPolyline
 90
       13
 70
     0
 43
0.0
 10
151.9028289941509
 20
-40.07622301705196
 10
151.9028289941509
 20
-32.02637640545179
 10
154.9316751754508
 20
-32.02637640545179
 10
154.9316751754508
 20
-35.43744063455236
 10
156.6343919924509
 20
-32.02637640545179
 10
159.8274362649507
 20
-32.02637640545179
 10
157.7033356425512
 20
-35.74869662285175
 10
160.1438674326512
 20
-40.07622301705196
 10
156.8316698302509
 20
-40.07622301705196
 10
154.9316751754508
 20
-36.44142543315226
 10
154.9316751754508
 20
-40.07622301705196
 10
151.9028289941509
 20
-40.07622301705196
 10
151.9028289941509
 20
-40.07622301705196
  0
LWPOLYLINE
  5
B2
330
70
100
AcDbEntity
  8
CK_LEVEL_1
 62
     3
420
    65280
370
    25
100
AcDbPolyline
 90
        6
 70
     0
 43
0.0
 10
141.6868593036511
 20
-39.36097182605196
 10
144.1552956608513
 20
-45.39390613055237
 10
148.6259468158507
 20
-45.39390613055237
 10
145.733725370051
 20
-39.36295909495235
 10
141.6868593036511
 20
-39.36097182605196
 10
141.6868593036511
 20
-39.36097182605196
  0
LWPOLYLINE
  5
B3
330
70
100
AcDbEntity
  8
CK_LEVEL_1
 62
     3
420
    65280
370
    25
100
AcDbPolyline
 90
        6
 70
     0
 43
0.0
 10
144.5907559541507
 20
-32.01801331555195
 10
141.7493754705511
 20
-36.98113453975227
 10
145.7913147661509
 20
-36.98113453975227
 10
148.6803068999513
 20
-32.01801331555195
 10
144.5907559541507
 20
-32.01801331555195
 10
144.5907559541507
 20
-32.01801331555195
  0
LWPOLYLINE
  5
B4
330
70
100
AcDbEntity
  8
CK_LEVEL_1
 62
     3
420
    65280
370
    25
100
AcDbPolyline
 90
        7
 70
     0
 43
0.0
 10
138.9786258349508
 20
-37.6712136582519
 10
145.4060330120509
 20
-37.67055123525195
 10
145.141436441051
 20
-38.13532374455184
 10
145.3935711801509
 20
-38.65913470005208
 10
138.9786258349508
 20
-38.65739583985207
 10
138.9786258349508
 20
-37.6712136582519
 10
138.9786258349508
 20
-37.6712136582519
  0
LWPOLYLINE
  5
B5
330
70
100
AcDbEntity
  8
CK_LEVEL_1
 62
     3
420
    65280
370
    25
100
AcDbPolyline
 90
        6
 70
     0
 43
0.0
 10
137.0652585167512
 20
-45.39390613055237
 10
141.0433153981508
 20
-45.39390613055237
 10
141.0433153981508
 20
-32.01784770985201
 10
137.0652585167512
 20
-32.01784770985201
 10
137.0652585167512
 20
-45.39390613055237
 10
137.0652585167512
 20
-45.39390613055237
  0
MTEXT
  5
B6
330
70
100
AcDbEntity
  8
CK_LEVEL_1
100
AcDbMText
 10
133.899083591471
 20
-55.11141317897116
 30
0.0
 40
0.2
 41
0.0
 46
0.0
 71
     7
 72
     1
  1
\C4;\c16776960;\FMyriad Pro|b0|i0|c1;\H5.415000;\W0.400000;Copyright Kemmler Praezisionswerkzeuge GmbH
 73
     1
 44
1.0
  0
LWPOLYLINE
  5
B7
330
70
100
AcDbEntity
  8
CK_LEVEL_1
 62
     1
420
 16711680
370
    25
100
AcDbPolyline
 90
      127
 70
     0
 43
0.0
 10
218.1179822037512
 20
-31.74125300295239
 10
218.1987132982511
 20
-31.74354654015238
 10
218.279010955451
 20
-31.75043042325212
 10
218.3588759932509
 20
-31.76190955885188
 10
218.4383092294513
 20
-31.77798885395235
 10
218.5173114817513
 20
-31.79867321535206
 10
218.5958835680508
 20
-31.82396754985215
 10
218.674026306151
 20
-31.85387676425179
 10
218.7517405138513
 20
-31.88840576555231
 10
218.8290270089512
 20
-31.92755946035206
 10
218.9043721685514
 20
-31.97115615965214
 10
218.9758720038511
 20
-32.01868732415213
 10
219.0435379639511
 20
-32.07016440315216
 10
219.1073814983509
 20
-32.12559884605184
 10
219.1674140561512
 20
-32.18500210195239
 10
219.2236470866509
 20
-32.24838562035222
 10
219.2760920392513
 20
-32.31576085045204
 10
219.3247603631507
 20
-32.38713924145186
 10
219.3696635076512
 20
-32.46253224275193
 10
219.4101389135509
 20
-32.54006748725215
 10
219.445904573951
 20
-32.61838946115191
 10
219.4769465861512
 20
-32.69748998655201
 10
219.5032510475513
 20
-32.77736088525234
 10
219.5248040552512
 20
-32.85799397935239
 10
219.5415917067509
 20
-32.93938109065203
 10
219.5536000992511
 20
-33.02151404105186
 10
219.5608153301509
 20
-33.10438465265206
 10
219.563223496551
 20
-33.18798474735194
 10
219.5608847073508
 20
-33.27062555545232
 10
219.5538607068511
 20
-33.3525442406518
 10
219.5421400457511
 20
-33.43373998535202
 10
219.5257112748514
 20
-33.51421197155225
 10
219.5045629448512
 20
-33.5939593815521
 10
219.478683606351
 20
-33.67298139755233
 10
219.4480618101508
 20
-33.75127720165235
 10
219.412686107051
 20
-33.82884597615239
 10
219.3725450475507
 20
-33.90568690325193
 10
219.328278974051
 20
-33.98053797165195
 10
219.2802133732512
 20
-34.05154535135195
 10
219.2283613300512
 20
-34.11871476685215
 10
219.1727359294511
 20
-34.18205194295183
 10
219.1133502563513
 20
-34.24156260415187
 10
219.0502173955509
 20
-34.29725247505195
 10
218.9833504319512
 20
-34.3491272805521
 10
218.9127624505507
 20
-34.39719274505179
 10
218.8384665361512
 20
-34.44145459325213
 10
218.7613437385512
 20
-34.48152055085208
 10
218.6835683317512
 20
-34.516863678052
 10
218.6051059677512
 20
-34.54748642835224
 10
218.5259222987509
 20
-34.57339125505229
 10
218.4459829768512
 20
-34.59458061175196
 10
218.3652536543512
 20
-34.61105695175201
 10
218.283699983151
 20
-34.62282272845205
 10
218.2012876156509
 20
-34.62988039525231
 10
218.1179822037512
 20
-34.63223240565184
 10
218.035074654651
 20
-34.62988039525231
 10
217.9528933172508
 20
-34.62282272845205
 10
217.8714504588509
 20
-34.61105695175201
 10
217.790758346451
 20
-34.59458061175196
 10
217.7108292472508
 20
-34.57339125505229
 10
217.6316754281512
 20
-34.54748642835224
 10
217.5533091563512
 20
-34.516863678052
 10
217.4757426990507
 20
-34.48152055085208
 10
217.398988323151
 20
-34.44145459325213
 10
217.324517670851
 20
-34.39719274505179
 10
217.2537443199509
 20
-34.3491272805521
 10
217.1866928048509
 20
-34.29725247505195
 10
217.1233876595509
 20
-34.24156260415187
 10
217.0638534182514
 20
-34.18205194295183
 10
217.0081146152513
 20
-34.11871476685215
 10
216.9561957845512
 20
-34.05154535135195
 10
216.9081214605511
 20
-33.98053797165195
 10
216.863916177251
 20
-33.90568690325193
 10
216.8234816616513
 20
-33.82884597615239
 10
216.7878255873508
 20
-33.75127720165235
 10
216.7569422294512
 20
-33.67298139755233
 10
216.7308258635512
 20
-33.5939593815521
 10
216.7094707648509
 20
-33.51421197155225
 10
216.6928712087512
 20
-33.43373998535202
 10
216.6810214706511
 20
-33.3525442406518
 10
216.6739158258509
 20
-33.27062555545232
 10
216.6715485496513
 20
-33.18798474735194
 10
216.6739545353508
 20
-33.10438465265206
 10
216.6811692209508
 20
-33.02151404105186
 10
216.6931876997509
 20
-32.93938109065203
 10
216.7100050648512
 20
-32.85799397935239
 10
216.7316164094506
 20
-32.77736088525234
 10
216.7580168267512
 20
-32.69748998655201
 10
216.7892014098512
 20
-32.61838946115191
 10
216.8251652518511
 20
-32.54006748725215
 10
216.8659034461508
 20
-32.46253224275193
 10
216.911062972851
 20
-32.38713924145186
 10
216.9599655982512
 20
-32.31576085045204
 10
217.0126154112512
 20
-32.24838562035222
 10
217.0690165009511
 20
-32.18500210195239
 10
217.1291729563509
 20
-32.12559884605184
 10
217.1930888665511
 20
-32.07016440315216
 10
217.2607683204512
 20
-32.01868732415213
 10
217.3322154072513
 20
-31.97115615965214
 10
217.4074342158511
 20
-31.92755946035206
 10
217.4848541496514
 20
-31.88840576555231
 10
217.5626412783512
 20
-31.85387676425179
 10
217.6408021444512
 20
-31.82396754985215
 10
217.7193432904513
 20
-31.79867321535206
 10
217.7982712587509
 20
-31.77798885395235
 10
217.8775925917509
 20
-31.76190955885188
 10
217.957313831951
 20
-31.75043042325212
 10
218.0374415218508
 20
-31.74354654015238
 10
218.1179822037512
 20
-31.74125300295239
 10
218.1179822037512
 20
-31.74125300295239
 10
218.1179822037512
 20
-31.74125300295239
 10
218.1179822037512
 20
-31.74125300295239
 10
218.1179822037512
 20
-31.74125300295239
 10
218.1179822037512
 20
-31.74125300295239
 10
218.1179822037512
 20
-31.74125300295239
 10
218.1179822037512
 20
-31.74125300295239
 10
218.1179822037512
 20
-31.74125300295239
 10
218.1179822037512
 20
-31.74125300295239
 10
218.1179822037512
 20
-31.74125300295239
 10
218.1179822037512
 20
-31.74125300295239
 10
218.1179822037512
 20
-31.74125300295239
 10
218.1179822037512
 20
-31.74125300295239
 10
218.1179822037512
 20
-31.74125300295239
 10
218.1179822037512
 20
-31.74125300295239
 10
218.1179822037512
 20
-31.74125300295239
 10
218.1179822037512
 20
-31.74125300295239
 10
218.1179822037512
 20
-31.74125300295239
  0
LWPOLYLINE
  5
B8
330
70
100
AcDbEntity
  8
CK_LEVEL_1
 62
     1
420
 16711680
370
    25
100
AcDbPolyline
 90
      127
 70
     0
 43
0.0
 10
218.1179822037512
 20
-31.98032144915195
 10
218.0504402775508
 20
-31.98226973595225
 10
217.9833440556508
 20
-31.98810587305212
 10
217.9166902669509
 20
-31.99781677555235
 10
217.8504756400511
 20
-32.01138935855176
 10
217.784696903851
 20
-32.02881053715177
 10
217.7193507870509
 20
-32.05006722655198
 10
217.6544340184513
 20
-32.07514634175176
 10
217.5899433268509
 20
-32.10403479785189
 10
217.5258754410509
 20
-32.13671950995184
 10
217.4632200427512
 20
-32.17298430475214
 10
217.403692752851
 20
-32.21261028265189
 10
217.3472862110508
 20
-32.2555802697519
 10
217.2939930572507
 20
-32.30187709215234
 10
217.243805931051
 20
-32.35148357605218
 10
217.196717472251
 20
-32.40438254735203
 10
217.1527203206512
 20
-32.46055683215204
 10
217.1118071159509
 20
-32.51998925655236
 10
217.0739704978512
 20
-32.58266264655179
 10
217.0399594404511
 20
-32.64750758455188
 10
217.0099343701512
 20
-32.71294052505189
 10
216.9838993759509
 20
-32.77896801065227
 10
216.9618585467514
 20
-32.84559658365181
 10
216.9438159717508
 20
-32.91283278675232
 10
216.9297757399512
 20
-32.98068316215188
 10
216.9197419403511
 20
-33.04915425245217
 10
216.9137186619512
 20
-33.11825260005213
 10
216.9117099937508
 20
-33.18798474735194
 10
216.9136864948509
 20
-33.25687319135232
 10
216.9196170886511
 20
-33.32515891225177
 10
216.929503410551
 20
-33.39284272785209
 10
216.9433470962511
 20
-33.45992545585237
 10
216.9611497814512
 20
-33.52640791425208
 10
216.9829131017511
 20
-33.59229092075224
 10
217.008638692651
 20
-33.65757529325219
 10
217.0383281898508
 20
-33.72226184935221
 10
217.0719832289508
 20
-33.78635140705239
 10
217.1090402052509
 20
-33.84844660815219
 10
217.1492580021511
 20
-33.90741615425203
 10
217.1926251704508
 20
-33.96326249885227
 10
217.2391302608511
 20
-34.01598809525175
 10
217.2887618240512
 20
-34.06559539685201
 10
217.3415084108511
 20
-34.11208685715207
 10
217.3973585718511
 20
-34.15546492955221
 10
217.4563008577512
 20
-34.19573206745199
 10
217.5183238193512
 20
-34.23289072425232
 10
217.5826997454508
 20
-34.26643767665185
 10
217.6475949784509
 20
-34.29606243085204
 10
217.7130283278512
 20
-34.32175844445202
 10
217.7790186032512
 20
-34.34351917505222
 10
217.8455846142508
 20
-34.36133808005225
 10
217.9127451701512
 20
-34.37520861705188
 10
217.980519080751
 20
-34.38512424375232
 10
218.0489251554509
 20
-34.39107841755185
 10
218.1179822037512
 20
-34.3930645959521
 10
218.1871409327512
 20
-34.39107841755185
 10
218.2556993919511
 20
-34.38512424375232
 10
218.3236461321508
 20
-34.37520861705188
 10
218.3909697041509
 20
-34.36133808005225
 10
218.4576586586512
 20
-34.34351917505222
 10
218.523701546251
 20
-34.32175844445202
 10
218.5890869176513
 20
-34.29606243085204
 10
218.6538033237509
 20
-34.26643767665185
 10
218.7178393151508
 20
-34.23289072425232
 10
218.7801239746514
 20
-34.19573206745199
 10
218.8392568094511
 20
-34.15546492955221
 10
218.8952288235513
 20
-34.11208685715207
 10
218.9480310210512
 20
-34.06559539685201
 10
218.9976544062508
 20
-34.01598809525175
 10
219.0440899831511
 20
-33.96326249885227
 10
219.087328755851
 20
-33.90741615425203
 10
219.1273617286509
 20
-33.84844660815219
 10
219.1641799055513
 20
-33.78635140705239
 10
219.1974208621513
 20
-33.72226184935221
 10
219.2267878710513
 20
-33.65757529325219
 10
219.2522711187512
 20
-33.59229092075224
 10
219.2738607915512
 20
-33.52640791425208
 10
219.2915470756514
 20
-33.45992545585237
 10
219.3053201574509
 20
-33.39284272785209
 10
219.3151702233512
 20
-33.32515891225177
 10
219.3210874595513
 20
-33.25687319135232
 10
219.3230620524508
 20
-33.18798474735194
 10
219.3210855513514
 20
-33.11825260005213
 10
219.3151549576513
 20
-33.04915425245217
 10
219.3052686357507
 20
-32.98068316215188
 10
219.2914249499511
 20
-32.91283278675232
 10
219.273622264751
 20
-32.84559658365181
 10
219.2518589445512
 20
-32.77896801065227
 10
219.2261333535512
 20
-32.71294052505189
 10
219.1964438563508
 20
-32.64750758455188
 10
219.1627888172508
 20
-32.58266264655179
 10
219.1249183965511
 20
-32.51998925655236
 10
219.0839673001508
 20
-32.46055683215204
 10
219.0399240787509
 20
-32.40438254735203
 10
218.9927772831509
 20
-32.35148357605218
 10
218.9425154639511
 20
-32.30187709215234
 10
218.889127172051
 20
-32.2555802697519
 10
218.8326009580509
 20
-32.21261028265189
 10
218.7729253725512
 20
-32.17298430475214
 10
218.7100889664508
 20
-32.13671950995184
 10
218.6457986374511
 20
-32.10403479785189
 10
218.5811124901512
 20
-32.07514634175176
 10
218.5160395206513
 20
-32.05006722655198
 10
218.4505887246509
 20
-32.02881053715177
 10
218.3847690981514
 20
-32.01138935855176
 10
218.3185896369513
 20
-31.99781677555235
 10
218.2520593368511
 20
-31.98810587305212
 10
218.1851871938513
 20
-31.98226973595225
 10
218.1179822037512
 20
-31.98032144915195
 10
218.1179822037512
 20
-31.98032144915195
 10
218.1179822037512
 20
-31.98032144915195
 10
218.1179822037512
 20
-31.98032144915195
 10
218.1179822037512
 20
-31.98032144915195
 10
218.1179822037512
 20
-31.98032144915195
 10
218.1179822037512
 20
-31.98032144915195
 10
218.1179822037512
 20
-31.98032144915195
 10
218.1179822037512
 20
-31.98032144915195
 10
218.1179822037512
 20
-31.98032144915195
 10
218.1179822037512
 20
-31.98032144915195
 10
218.1179822037512
 20
-31.98032144915195
 10
218.1179822037512
 20
-31.98032144915195
 10
218.1179822037512
 20
-31.98032144915195
 10
218.1179822037512
 20
-31.98032144915195
 10
218.1179822037512
 20
-31.98032144915195
 10
218.1179822037512
 20
-31.98032144915195
 10
218.1179822037512
 20
-31.98032144915195
 10
218.1179822037512
 20
-31.98032144915195
  0
LWPOLYLINE
  5
B9
330
70
100
AcDbEntity
  8
CK_LEVEL_1
 62
     1
420
 16711680
370
    25
100
AcDbPolyline
 90
      163
 70
     0
 43
0.0
 10
217.4844408849513
 20
-33.98607192945219
 10
217.4844408849513
 20
-33.93274415515211
 10
217.4844408849513
 20
-33.78982572005232
 10
217.4844408849513
 20
-33.58291395575176
 10
217.4844408849513
 20
-33.33760619405214
 10
217.4844408849513
 20
-33.0794997664523
 10
217.4844408849513
 20
-32.83419200475203
 10
217.4844408849513
 20
-32.62728024045211
 10
217.4844408849513
 20
-32.48436180535232
 10
217.4844408849513
 20
-32.43103403105224
 10
217.5027392969513
 20
-32.43103403105224
 10
217.5517790411509
 20
-32.43103403105224
 10
217.6227768797513
 20
-32.43103403105224
 10
217.7069495749511
 20
-32.43103403105224
 10
217.795513889051
 20
-32.43103403105224
 10
217.8796865843509
 20
-32.43103403105224
 10
217.9506844229513
 20
-32.43103403105224
 10
217.9997241671509
 20
-32.43103403105224
 10
218.0180225791509
 20
-32.43103403105224
 10
218.0772843546513
 20
-32.43153411945226
 10
218.1327891288507
 20
-32.43304746975237
 10
218.1845409907513
 20
-32.43559370905182
 10
218.232544029351
 20
-32.43919246495228
 10
218.276802333751
 20
-32.44386336465178
 10
218.3173199929508
 20
-32.44962603545235
 10
218.354101095951
 20
-32.45650010485232
 10
218.3871497317509
 20
-32.46450520005232
 10
218.4164699895513
 20
-32.473660948552
 10
218.4429456449509
 20
-32.48404395135239
 10
218.4681896843509
 20
-32.49603966785232
 10
218.4922070145509
 20
-32.50963419535207
 10
218.5150025424511
 20
-32.52481363115189
 10
218.5365811748512
 20
-32.54156407245194
 10
218.5569478185511
 20
-32.55987161665193
 10
218.5761073804513
 20
-32.57972236095205
 10
218.5940647672509
 20
-32.601102402752
 10
218.6108248859513
 20
-32.62399783925194
 10
218.6261230398511
 20
-32.64813893085214
 10
218.6396244737508
 20
-32.67254908065177
 10
218.6513283698512
 20
-32.69724709815232
 10
218.661233910151
 20
-32.7222517929522
 10
218.669340277051
 20
-32.74758197465235
 10
218.6756466527509
 20
-32.77325645265225
 10
218.6801522192512
 20
-32.79929403665232
 10
218.6828561588508
 20
-32.825713536052
 10
218.6837576538513
 20
-32.85253376045228
 10
218.682269519251
 20
-32.88983049025205
 10
218.6777996636507
 20
-32.9260150036519
 10
218.6703399087508
 20
-32.96110120345231
 10
218.6598820766509
 20
-32.99510299235239
 10
218.6464179892509
 20
-33.02803427305185
 10
218.6299394684508
 20
-33.05990894815227
 10
218.6104383362513
 20
-33.09074092055231
 10
218.587906414551
 20
-33.12054409275213
 10
218.5623355252512
 20
-33.14933236765232
 10
218.5340568799514
 20
-33.17608566825231
 10
218.5038686573511
 20
-33.20004943215215
 10
218.471767586151
 20
-33.22123837995221
 10
218.4377503952509
 20
-33.23966723205197
 10
218.4018138133513
 20
-33.25535070895232
 10
218.3639545693509
 20
-33.26830353125233
 10
218.3241693918507
 20
-33.27854041935213
 10
218.2824550096512
 20
-33.28607609385209
 10
218.2388081516512
 20
-33.2909252753519
 10
218.2567517721512
 20
-33.29870969915197
 10
218.2738816754507
 20
-33.30683105925191
 10
218.290193772751
 20
-33.31529507995178
 10
218.3056839748508
 20
-33.32410748615219
 10
218.3203481927513
 20
-33.33327400235212
 10
218.3341823373511
 20
-33.34280035335211
 10
218.3471823198512
 20
-33.35269226355229
 10
218.3593440509514
 20
-33.36295545785203
 10
218.3706634418511
 20
-33.37359566075221
 10
218.3920363959511
 20
-33.39564480415229
 10
218.414483947351
 20
-33.42072800845215
 10
218.4379987357508
 20
-33.44885426925201
 10
218.462573400851
 20
-33.48003258245177
 10
218.4882005824508
 20
-33.51427194405208
 10
218.5148729202513
 20
-33.55158134975201
 10
218.5425830539511
 20
-33.5919697955522
 10
218.5713236234509
 20
-33.63544627735192
 10
218.601087268451
 20
-33.68201979085213
 10
218.6075888271514
 20
-33.69244681895199
 10
218.6250130043507
 20
-33.72039125415192
 10
218.6502390520509
 20
-33.76084812305204
 10
218.6801462219512
 20
-33.80881245215176
 10
218.7116137660511
 20
-33.85927926805182
 10
218.7415209359507
 20
-33.90724359725228
 10
218.7667469836509
 20
-33.94770046615176
 10
218.7841711608509
 20
-33.97564490135233
 10
218.7906727195513
 20
-33.98607192945219
 10
218.780146873251
 20
-33.98607192945219
 10
218.7519376051511
 20
-33.98607192945219
 10
218.7110973214509
 20
-33.98607192945219
 10
218.6626784284509
 20
-33.98607192945219
 10
218.611733332251
 20
-33.98607192945219
 10
218.5633144392509
 20
-33.98607192945219
 10
218.5224741555514
 20
-33.98607192945219
 10
218.4942648874514
 20
-33.98607192945219
 10
218.4837390410511
 20
-33.98607192945219
 10
218.4790264333512
 20
-33.97765874895207
 10
218.4663966444511
 20
-33.95511142525176
 10
218.4481117262512
 20
-33.92246828485212
 10
218.4264337304511
 20
-33.8837676546518
 10
218.4036247087508
 20
-33.84304786105219
 10
218.3819467129512
 20
-33.80434723075177
 10
218.3636617947507
 20
-33.77170409045222
 10
218.3510320058513
 20
-33.74915676675192
 10
218.3463193980512
 20
-33.7407435862518
 10
218.3109969885514
 20
-33.67939354275178
 10
218.2772316819509
 20
-33.62332898025194
 10
218.2450202069508
 20
-33.57255807685234
 10
218.2143592924511
 20
-33.52708901045216
 10
218.1852456670508
 20
-33.48692995925218
 10
218.1576760595512
 20
-33.45208910135179
 10
218.1316471989509
 20
-33.42257461465212
 10
218.107155813751
 20
-33.39839467725192
 10
218.0841986328508
 20
-33.37955746735198
 10
218.0680536406508
 20
-33.36824734495234
 10
218.0503539990512
 20
-33.35829232735231
 10
218.0310980723509
 20
-33.34968587195212
 10
218.0102842249513
 20
-33.3424214364523
 10
217.9879108213511
 20
-33.33649247835193
 10
217.9639762258509
 20
-33.33189245525206
 10
217.9384788028511
 20
-33.32861482465239
 10
217.9114169167513
 20
-33.32665304405196
 10
217.8827889318509
 20
-33.32600057105187
 10
217.8777117188512
 20
-33.32600057105187
 10
217.8641047879513
 20
-33.32600057105187
 10
217.8444052014511
 20
-33.32600057105187
 10
217.8210500215513
 20
-33.32600057105187
 10
217.7964763106512
 20
-33.32600057105187
 10
217.7731211307508
 20
-33.32600057105187
 10
217.7534215442512
 20
-33.32600057105187
 10
217.7398146133507
 20
-33.32600057105187
 10
217.734737400351
 20
-33.32600057105187
 10
217.734737400351
 20
-33.34863676305215
 10
217.734737400351
 20
-33.40930175755211
 10
217.734737400351
 20
-33.49713018245215
 10
217.734737400351
 20
-33.60125666565205
 10
217.734737400351
 20
-33.71081583485201
 10
217.734737400351
 20
-33.8149423179518
 10
217.734737400351
 20
-33.90277074295195
 10
217.734737400351
 20
-33.9634357374519
 10
217.734737400351
 20
-33.98607192945219
 10
217.7261538435511
 20
-33.98607192945219
 10
217.7031499114511
 20
-33.98607192945219
 10
217.6698457111512
 20
-33.98607192945219
 10
217.6303613500512
 20
-33.98607192945219
 10
217.5888169352512
 20
-33.98607192945219
 10
217.5493325741511
 20
-33.98607192945219
 10
217.5160283738513
 20
-33.98607192945219
 10
217.4930244417512
 20
-33.98607192945219
 10
217.4844408849513
 20
-33.98607192945219
 10
217.4844408849513
 20
-33.98607192945219
 10
217.4844408849513
 20
-33.98607192945219
 10
217.4844408849513
 20
-33.98607192945219
 10
217.4844408849513
 20
-33.98607192945219
 10
217.4844408849513
 20
-33.98607192945219
 10
217.4844408849513
 20
-33.98607192945219
 10
217.4844408849513
 20
-33.98607192945219
 10
217.4844408849513
 20
-33.98607192945219
 10
217.4844408849513
 20
-33.98607192945219
  0
LWPOLYLINE
  5
BA
330
70
100
AcDbEntity
  8
CK_LEVEL_1
 62
     1
420
 16711680
370
    25
100
AcDbPolyline
 90
       82
 70
     0
 43
0.0
 10
217.734737400351
 20
-33.11147489545228
 10
217.7452155412515
 20
-33.11147489545228
 10
217.7732969590508
 20
-33.11147489545228
 10
217.8139521459509
 20
-33.11147489545228
 10
217.8621515943512
 20
-33.11147489545228
 10
217.9128657965512
 20
-33.11147489545228
 10
217.9610652449509
 20
-33.11147489545228
 10
218.001720431851
 20
-33.11147489545228
 10
218.029801849651
 20
-33.11147489545228
 10
218.0402799905508
 20
-33.11147489545228
 10
218.0869663613513
 20
-33.11064577635236
 10
218.130246569651
 20
-33.10816877795208
 10
218.1701222509508
 20
-33.10405943845206
 10
218.2065950410513
 20
-33.09833329625189
 10
218.2396665754509
 20
-33.09100588975178
 10
218.2693384898512
 20
-33.08209275705227
 10
218.2956124197513
 20
-33.07160943665239
 10
218.3184900008509
 20
-33.05957146685226
 10
218.3379728687512
 20
-33.04599438585189
 10
218.3544607943509
 20
-33.03101408595202
 10
218.369070219251
 20
-33.01496082435186
 10
218.381784787351
 20
-32.99784359695194
 10
218.3925881425508
 20
-32.97967139965216
 10
218.4014639286512
 20
-32.9604532283518
 10
218.4083957896508
 20
-32.94019807895202
 10
218.4133673693509
 20
-32.91891494715191
 10
218.4163623117511
 20
-32.89661282895209
 10
218.417364260551
 20
-32.87330072025183
 10
218.4168962028512
 20
-32.85814581865203
 10
218.4154893036512
 20
-32.84335075175218
 10
218.413139474051
 20
-32.82891470175178
 10
218.4098426249508
 20
-32.81483685085226
 10
218.4055946673511
 20
-32.8011163812518
 10
218.4003915122513
 20
-32.78775247505238
 10
218.3942290704513
 20
-32.7747443145523
 10
218.3871032531513
 20
-32.76209108195236
 10
218.3790099711511
 20
-32.74979195935192
 10
218.3698653993507
 20
-32.73808370165201
 10
218.3601058373514
 20
-32.72701251495218
 10
218.3497124756509
 20
-32.71658984855192
 10
218.3386665046509
 20
-32.7068271516519
 10
218.3269491148511
 20
-32.69773587355228
 10
218.3145414966512
 20
-32.68932746365202
 10
218.3014248405511
 20
-32.68161337105232
 10
218.287580336951
 20
-32.67460504515216
 10
218.2729891764509
 20
-32.66831393525231
 10
218.2562935280511
 20
-32.66263781555211
 10
218.2368001650507
 20
-32.65766010235203
 10
218.2144935489513
 20
-32.6533726174519
 10
218.1893581414509
 20
-32.6497671828518
 10
218.1613784042512
 20
-32.64683562045232
 10
218.1305387990509
 20
-32.64456975235236
 10
218.0968237874511
 20
-32.64296140025231
 10
218.0602178312511
 20
-32.64200238625234
 10
218.0207053921508
 20
-32.64168453235187
 10
218.0108985336512
 20
-32.64168453235187
 10
217.984616153151
 20
-32.64168453235187
 10
217.946565542351
 20
-32.64168453235187
 10
217.9014539936514
 20
-32.64168453235187
 10
217.8539887988511
 20
-32.64168453235187
 10
217.8088772500507
 20
-32.64168453235187
 10
217.7708266393508
 20
-32.64168453235187
 10
217.7445442587511
 20
-32.64168453235187
 10
217.734737400351
 20
-32.64168453235187
 10
217.734737400351
 20
-32.65779531295216
 10
217.734737400351
 20
-32.70097220505182
 10
217.734737400351
 20
-32.76348203385193
 10
217.734737400351
 20
-32.83759162475189
 10
217.734737400351
 20
-32.91556780305227
 10
217.734737400351
 20
-32.98967739395222
 10
217.734737400351
 20
-33.05218722275234
 10
217.734737400351
 20
-33.09536411485199
 10
217.734737400351
 20
-33.11147489545228
 10
217.734737400351
 20
-33.11147489545228
 10
217.734737400351
 20
-33.11147489545228
 10
217.734737400351
 20
-33.11147489545228
 10
217.734737400351
 20
-33.11147489545228
 10
217.734737400351
 20
-33.11147489545228
 10
217.734737400351
 20
-33.11147489545228
 10
217.734737400351
 20
-33.11147489545228
 10
217.734737400351
 20
-33.11147489545228
 10
217.734737400351
 20
-33.11147489545228
  0
LWPOLYLINE
  5
BB
330
70
100
AcDbEntity
  8
CK_LEVEL_1
 62
     1
420
 16711680
370
    25
100
AcDbPolyline
 90
       82
 70
     0
 43
0.0
 10
178.9064045203513
 20
-43.76542602715214
 10
178.9767016274509
 20
-43.76407430495222
 10
179.042396094451
 20
-43.76001418605234
 10
179.1034782643512
 20
-43.753238242052
 10
179.1599384803513
 20
-43.74373904455199
 10
179.2117670853508
 20
-43.73150916515185
 10
179.2589544225509
 20
-43.71654117545236
 10
179.3014908350511
 20
-43.69882764705175
 10
179.3393666658512
 20
-43.67836115155211
 10
179.3725722579513
 20
-43.65513426045221
 10
179.402071818551
 20
-43.62890084595227
 10
179.4281119706511
 20
-43.59928899265183
 10
179.4506897429509
 20
-43.56628310085233
 10
179.4698021639508
 20
-43.52986757075196
 10
179.4854462623511
 20
-43.49002680295189
 10
179.4976190668511
 20
-43.44674519755209
 10
179.5063176060513
 20
-43.40000715505234
 10
179.5115389085513
 20
-43.3497970758523
 10
179.513280002951
 20
-43.29609936015208
 10
179.5115595842509
 20
-43.24086965955237
 10
179.5064027850508
 20
-43.18926204955207
 10
179.4978162910513
 20
-43.14127504445234
 10
179.4858067876508
 20
-43.0969071586519
 10
179.4703809605509
 20
-43.05615690625231
 10
179.451545495251
 20
-43.01902280185188
 10
179.4293070773508
 20
-42.98550335955217
 10
179.4036723923513
 20
-42.95559709375192
 10
179.3746481259512
 20
-42.92930251875227
 10
179.3416536243507
 20
-42.90606634215175
 10
179.3039183142513
 20
-42.88557496145235
 10
179.2614347672512
 20
-42.8678254052519
 10
179.2141955549513
 20
-42.85281470225218
 10
179.162193249051
 20
-42.84053988095222
 10
179.1054204210512
 20
-42.830997970152
 10
179.0438696425507
 20
-42.82418599835181
 10
178.977533485151
 20
-42.82010099435226
 10
178.9064045203513
 20
-42.81873998655227
 10
178.8870256672509
 20
-42.81873998655227
 10
178.8350903407509
 20
-42.81873998655227
 10
178.759900390451
 20
-42.81873998655227
 10
178.6707576659511
 20
-42.81873998655227
 10
178.5769640166512
 20
-42.81873998655227
 10
178.4878212920512
 20
-42.81873998655227
 10
178.4126313418508
 20
-42.81873998655227
 10
178.3606960153508
 20
-42.81873998655227
 10
178.3413171621509
 20
-42.81873998655227
 10
178.3413171621509
 20
-42.85120521435189
 10
178.3413171621509
 20
-42.93821202465223
 10
178.3413171621509
 20
-43.06417710825217
 10
178.3413171621509
 20
-43.2135171557523
 10
178.3413171621509
 20
-43.37064885795213
 10
178.3413171621509
 20
-43.51998890555236
 10
178.3413171621509
 20
-43.6459539891523
 10
178.3413171621509
 20
-43.732960799452
 10
178.3413171621509
 20
-43.76542602715214
 10
178.3606960153508
 20
-43.76542602715214
 10
178.4126313418508
 20
-43.76542602715214
 10
178.4878212920512
 20
-43.76542602715214
 10
178.5769640166512
 20
-43.76542602715214
 10
178.6707576659511
 20
-43.76542602715214
 10
178.759900390451
 20
-43.76542602715214
 10
178.8350903407509
 20
-43.76542602715214
 10
178.8870256672509
 20
-43.76542602715214
 10
178.9064045203513
 20
-43.76542602715214
 10
178.9064045203513
 20
-43.76542602715214
 10
178.9064045203513
 20
-43.76542602715214
 10
178.9064045203513
 20
-43.76542602715214
 10
178.9064045203513
 20
-43.76542602715214
 10
178.9064045203513
 20
-43.76542602715214
 10
178.9064045203513
 20
-43.76542602715214
 10
178.9064045203513
 20
-43.76542602715214
 10
178.9064045203513
 20
-43.76542602715214
 10
178.9064045203513
 20
-43.76542602715214
 10
178.9064045203513
 20
-43.76542602715214
 10
178.9064045203513
 20
-43.76542602715214
 10
178.9064045203513
 20
-43.76542602715214
 10
178.9064045203513
 20
-43.76542602715214
 10
178.9064045203513
 20
-43.76542602715214
 10
178.9064045203513
 20
-43.76542602715214
 10
178.9064045203513
 20
-43.76542602715214
 10
178.9064045203513
 20
-43.76542602715214
 10
178.9064045203513
 20
-43.76542602715214
  0
LWPOLYLINE
  5
BC
330
70
100
AcDbEntity
  8
CK_LEVEL_1
 62
     1
420
 16711680
370
    25
100
AcDbPolyline
 90
       91
 70
     0
 43
0.0
 10
177.9497904156511
 20
-45.4136651799523
 10
177.9497904156511
 20
-45.31307218715176
 10
177.9497904156511
 20
-45.0434829665519
 10
177.9497904156511
 20
-44.65318215455187
 10
177.9497904156511
 20
-44.19045438785175
 10
177.9497904156511
 20
-43.70358430275186
 10
177.9497904156511
 20
-43.24085653605238
 10
177.9497904156511
 20
-42.85055572405235
 10
177.9497904156511
 20
-42.58096650345186
 10
177.9497904156511
 20
-42.48037351065195
 10
177.9848586805512
 20
-42.48037351065195
 10
178.078841630351
 20
-42.48037351065195
 10
178.2149064980508
 20
-42.48037351065195
 10
178.376220516451
 20
-42.48037351065195
 10
178.5459509183509
 20
-42.48037351065195
 10
178.707264936751
 20
-42.48037351065195
 10
178.8433298044509
 20
-42.48037351065195
 10
178.9373127542513
 20
-42.48037351065195
 10
178.9723810191513
 20
-42.48037351065195
 10
179.0763187753513
 20
-42.48287465485237
 10
179.1742298661509
 20
-42.49036768755213
 10
179.2661180055508
 20
-42.5028370092523
 10
179.3519869079508
 20
-42.52026702015234
 10
179.4318402874511
 20
-42.542642120752
 10
179.5056818582513
 20
-42.56994671125204
 10
179.573515334651
 20
-42.60216519215221
 10
179.6353444307511
 20
-42.63928196365198
 10
179.6911728608512
 20
-42.68128142625175
 10
179.7409215123513
 20
-42.7284851059523
 10
179.7848618934511
 20
-42.78074455845195
 10
179.8229821187513
 20
-42.8380612696523
 10
179.8552703028511
 20
-42.90043672495189
 10
179.881714560151
 20
-42.96787241025231
 10
179.9023030053508
 20
-43.04036981105219
 10
179.9170237529511
 20
-43.11793041315175
 10
179.9258649175511
 20
-43.20055570225176
 10
179.9288146136512
 20
-43.28824716395224
 10
179.9253963089513
 20
-43.38168387835228
 10
179.9151334713509
 20
-43.46944677655213
 10
179.898014215351
 20
-43.55153140155215
 10
179.8740266555509
 20
-43.6279332961519
 10
179.8431589064511
 20
-43.69864800345186
 10
179.8053990826508
 20
-43.76367106635234
 10
179.760735298651
 20
-43.82299802785179
 10
179.709155668951
 20
-43.87662443085178
 10
179.6506483082508
 20
-43.92454581835208
 10
179.5852808149509
 20
-43.96700819435199
 10
179.5121082958511
 20
-44.00449725285185
 10
179.4311344651509
 20
-44.03700705095235
 10
179.3423630370513
 20
-44.06453164615204
 10
179.2457977257513
 20
-44.08706509555227
 10
179.1414422455511
 20
-44.10460145655217
 10
179.029300310551
 20
-44.11713478625176
 10
178.9093756350512
 20
-44.12465914215219
 10
178.7816719330511
 20
-44.12716858135223
 10
178.7665706034512
 20
-44.12716858135223
 10
178.7260990401512
 20
-44.12716858135223
 10
178.6675058813511
 20
-44.12716858135223
 10
178.5980397652511
 20
-44.12716858135223
 10
178.524949330051
 20
-44.12716858135223
 10
178.4554832138509
 20
-44.12716858135223
 10
178.3968900550508
 20
-44.12716858135223
 10
178.3564184917509
 20
-44.12716858135223
 10
178.3413171621509
 20
-44.12716858135223
 10
178.3413171621509
 20
-44.17128712045195
 10
178.3413171621509
 20
-44.28952480505192
 10
178.3413171621509
 20
-44.46070473655231
 10
178.3413171621509
 20
-44.66365001615237
 10
178.3413171621509
 20
-44.87718374515216
 10
178.3413171621509
 20
-45.08012902475223
 10
178.3413171621509
 20
-45.25130895625196
 10
178.3413171621509
 20
-45.36954664095205
 10
178.3413171621509
 20
-45.4136651799523
 10
178.327890319051
 20
-45.4136651799523
 10
178.291906379351
 20
-45.4136651799523
 10
178.2398102278513
 20
-45.4136651799523
 10
178.1780467493507
 20
-45.4136651799523
 10
178.1130608284513
 20
-45.4136651799523
 10
178.0512973499513
 20
-45.4136651799523
 10
177.9992011984511
 20
-45.4136651799523
 10
177.9632172588511
 20
-45.4136651799523
 10
177.9497904156511
 20
-45.4136651799523
 10
177.9497904156511
 20
-45.4136651799523
 10
177.9497904156511
 20
-45.4136651799523
 10
177.9497904156511
 20
-45.4136651799523
 10
177.9497904156511
 20
-45.4136651799523
 10
177.9497904156511
 20
-45.4136651799523
 10
177.9497904156511
 20
-45.4136651799523
 10
177.9497904156511
 20
-45.4136651799523
 10
177.9497904156511
 20
-45.4136651799523
 10
177.9497904156511
 20
-45.4136651799523
  0
LWPOLYLINE
  5
BD
330
70
100
AcDbEntity
  8
CK_LEVEL_1
 62
     1
420
 16711680
370
    25
100
AcDbPolyline
 90
      154
 70
     0
 43
0.0
 10
180.3071641113514
 20
-45.4136651799523
 10
180.3071641113514
 20
-45.35460935525215
 10
180.3071641113514
 20
-45.19633974515201
 10
180.3071641113514
 20
-44.96720314535203
 10
180.3071641113514
 20
-44.695546351852
 10
180.3071641113514
 20
-44.40971616035206
 10
180.3071641113514
 20
-44.13805936685203
 10
180.3071641113514
 20
-43.90892276705204
 10
180.3071641113514
 20
-43.75065315695191
 10
180.3071641113514
 20
-43.69159733225176
 10
180.3071267217507
 20
-43.66934232425216
 10
180.3070120766512
 20
-43.64781678565197
 10
180.306816462051
 20
-43.62700808825238
 10
180.3065361635509
 20
-43.60690360365178
 10
180.3061674669512
 20
-43.58749070365201
 10
180.3057066582514
 20
-43.5687567598521
 10
180.305150023051
 20
-43.55068914415209
 10
180.304493847151
 20
-43.53327522805218
 10
180.3037344165507
 20
-43.51650238335229
 10
180.3030501365512
 20
-43.50018106195233
 10
180.3022648302508
 20
-43.48383522685209
 10
180.3013844403512
 20
-43.46747379205203
 10
180.3004149096509
 20
-43.45110567165215
 10
180.2993621807509
 20
-43.43473977985185
 10
180.2982321964508
 20
-43.41838503055218
 10
180.2970308994512
 20
-43.40205033805201
 10
180.2957642325512
 20
-43.38574461625174
 10
180.2944381383511
 20
-43.3694767793521
 10
180.307406896451
 20
-43.3694767793521
 10
180.3421631682509
 20
-43.3694767793521
 10
180.3924819498507
 20
-43.3694767793521
 10
180.452138237351
 20
-43.3694767793521
 10
180.5149070267509
 20
-43.3694767793521
 10
180.5745633142512
 20
-43.3694767793521
 10
180.624882095851
 20
-43.3694767793521
 10
180.6596383676509
 20
-43.3694767793521
 10
180.6726071258509
 20
-43.3694767793521
 10
180.6729011668513
 20
-43.38289433705208
 10
180.673689196951
 20
-43.41885339155235
 10
180.6748300762509
 20
-43.47091351525217
 10
180.6761826650506
 20
-43.53263428045196
 10
180.6776058237512
 20
-43.59757525945212
 10
180.678958412651
 20
-43.65929602465191
 10
180.6800992919509
 20
-43.71135614835238
 10
180.6808873219512
 20
-43.74731520285201
 10
180.681181363051
 20
-43.76073276055199
 10
180.694626281951
 20
-43.71878504925229
 10
180.7102321241508
 20
-43.67916911445202
 10
180.7280003751509
 20
-43.64189015605217
 10
180.747932520651
 20
-43.60695337395184
 10
180.7700300465512
 20
-43.57436396805201
 10
180.7942944382514
 20
-43.54412713815232
 10
180.8207271815511
 20
-43.51624808425194
 10
180.8493297621512
 20
-43.49073200625186
 10
180.8801036657511
 20
-43.46758410385224
 10
180.9133247337511
 20
-43.44689067055235
 10
180.948668097251
 20
-43.428667924852
 10
180.9861367275513
 20
-43.41290621005207
 10
181.0257335961512
 20
-43.39959586905239
 10
181.0674616742507
 20
-43.38872724495233
 10
181.1113239332507
 20
-43.38029068085194
 10
181.1573233446509
 20
-43.3742765198519
 10
181.2054628796513
 20
-43.37067510505223
 10
181.2557455096508
 20
-43.3694767793521
 10
181.2650395593509
 20
-43.36949807415204
 10
181.2742132689509
 20
-43.36956691075193
 10
181.2832733238509
 20
-43.36969071745214
 10
181.2922264096509
 20
-43.36987692285208
 10
181.3010792120514
 20
-43.37013295525212
 10
181.3098384165508
 20
-43.37046624305211
 10
181.318510708751
 20
-43.37088421465191
 10
181.3271027740509
 20
-43.37139429855208
 10
181.3356212982511
 20
-43.37200392295229
 10
181.3442190586511
 20
-43.3727451540521
 10
181.3527440207509
 20
-43.37364163885193
 10
181.3611969273511
 20
-43.37468817735196
 10
181.3695785212511
 20
-43.37587956985203
 10
181.3778895452508
 20
-43.37721061625222
 10
181.3861307422511
 20
-43.37867611695183
 10
181.3943028550513
 20
-43.38027087175212
 10
181.4024066265508
 20
-43.38198968105239
 10
181.410442799551
 20
-43.38382734475208
 10
181.410442799551
 20
-43.39587993295237
 10
181.410442799551
 20
-43.4281808690521
 10
181.410442799551
 20
-43.47494491095227
 10
181.410442799551
 20
-43.53038681635232
 10
181.410442799551
 20
-43.58872134285227
 10
181.410442799551
 20
-43.64416324815223
 10
181.410442799551
 20
-43.69092729005174
 10
181.410442799551
 20
-43.72322822625223
 10
181.410442799551
 20
-43.73528081435177
 10
181.3967770093509
 20
-43.73264224465191
 10
181.383395727051
 20
-43.73019755635203
 10
181.3702959813511
 20
-43.72794006395178
 10
181.3574748009512
 20
-43.72586308165174
 10
181.3449292142513
 20
-43.72395992415176
 10
181.3326562501509
 20
-43.72222390575188
 10
181.3206529370509
 20
-43.72064834095175
 10
181.3089163038513
 20
-43.71922654415215
 10
181.2974433789511
 20
-43.71795182975197
 10
181.285996701151
 20
-43.71661484055196
 10
181.2748315598508
 20
-43.71543236215185
 10
181.2639620691509
 20
-43.71440513745176
 10
181.253402342951
 20
-43.71353390925233
 10
181.2431664952507
 20
-43.71281942045175
 10
181.2332686399508
 20
-43.71226241385197
 10
181.2237228911512
 20
-43.71186363225232
 10
181.2145433626507
 20
-43.7116238185523
 10
181.205744168651
 20
-43.71154371565199
 10
181.1509272397508
 20
-43.71330325725184
 10
181.0990467597509
 20
-43.71858683455236
 10
181.0500908429511
 20
-43.72740187595214
 10
181.0040476039513
 20
-43.73975580965207
 10
180.9609051574513
 20
-43.7556560643523
 10
180.9206516178511
 20
-43.77511006815175
 10
180.8832750997511
 20
-43.79812524965238
 10
180.848763717651
 20
-43.82470903725212
 10
180.817105586251
 20
-43.85486885935207
 10
180.7885545092513
 20
-43.88812818365212
 10
180.7633707284508
 20
-43.9244814388519
 10
180.7415520154513
 20
-43.96392045375221
 10
180.7230961417509
 20
-44.0064370571519
 10
180.7080008786511
 20
-44.05202307775231
 10
180.6962639977512
 20
-44.1006703442522
 10
180.6878832705511
 20
-44.15237068555182
 10
180.6828564684513
 20
-44.20711593025176
 10
180.681181363051
 20
-44.26489790715216
 10
180.681181363051
 20
-44.30429321825192
 10
180.681181363051
 20
-44.40987265215198
 10
180.681181363051
 20
-44.56272645935185
 10
180.681181363051
 20
-44.7439448905519
 10
180.681181363051
 20
-44.93461819655192
 10
180.681181363051
 20
-45.11583662775196
 10
180.681181363051
 20
-45.26869043495184
 10
180.681181363051
 20
-45.3742698688519
 10
180.681181363051
 20
-45.4136651799523
 10
180.6683549826512
 20
-45.4136651799523
 10
180.6339802832512
 20
-45.4136651799523
 10
180.5842139274512
 20
-45.4136651799523
 10
180.525212577751
 20
-45.4136651799523
 10
180.4631328967508
 20
-45.4136651799523
 10
180.4041315469512
 20
-45.4136651799523
 10
180.3543651911512
 20
-45.4136651799523
 10
180.3199904917512
 20
-45.4136651799523
 10
180.3071641113514
 20
-45.4136651799523
 10
180.3071641113514
 20
-45.4136651799523
 10
180.3071641113514
 20
-45.4136651799523
 10
180.3071641113514
 20
-45.4136651799523
 10
180.3071641113514
 20
-45.4136651799523
 10
180.3071641113514
 20
-45.4136651799523
 10
180.3071641113514
 20
-45.4136651799523
 10
180.3071641113514
 20
-45.4136651799523
 10
180.3071641113514
 20
-45.4136651799523
 10
180.3071641113514
 20
-45.4136651799523
  0
LWPOLYLINE
  5
BE
330
70
100
AcDbEntity
  8
CK_LEVEL_1
 62
     1
420
 16711680
370
    25
100
AcDbPolyline
 90
      235
 70
     0
 43
0.0
 10
183.3893767423508
 20
-45.4136651799523
 10
183.3777760489512
 20
-45.4136651799523
 10
183.3466861905508
 20
-45.4136651799523
 10
183.3016754999512
 20
-45.4136651799523
 10
183.2483123101509
 20
-45.4136651799523
 10
183.1921649538513
 20
-45.4136651799523
 10
183.138801764051
 20
-45.4136651799523
 10
183.0937910734513
 20
-45.4136651799523
 10
183.0627012150509
 20
-45.4136651799523
 10
183.0511005215513
 20
-45.4136651799523
 10
183.0465678322512
 20
-45.39725966995233
 10
183.042102741451
 20
-45.37632654675221
 10
183.0376859352509
 20
-45.35087101015217
 10
183.0332980998507
 20
-45.32089826015204
 10
183.0289199214513
 20
-45.28641349655209
 10
183.0245320860511
 20
-45.24742191925201
 10
183.0201152798509
 20
-45.2039287281522
 10
183.0156501890508
 20
-45.15593912315234
 10
183.0111174997514
 20
-45.10345830405205
 10
183.0111174997514
 20
-45.10170940975177
 10
183.0111174997514
 20
-45.10007045585232
 10
183.0111174997514
 20
-45.09853772815219
 10
183.0111174997514
 20
-45.09710751245179
 10
183.0111174997514
 20
-45.09577609455212
 10
183.0111174997514
 20
-45.09453976025235
 10
183.0111174997514
 20
-45.09339479535221
 10
183.0111174997514
 20
-45.0923374856521
 10
183.0111174997514
 20
-45.09136411685232
 10
182.9928848495508
 20
-45.13060825995176
 10
182.972419220651
 20
-45.16771227935218
 10
182.9497139274513
 20
-45.20267543225229
 10
182.9247622844509
 20
-45.23549697585208
 10
182.897557605951
 20
-45.26617616725207
 10
182.8680932064512
 20
-45.29471226365227
 10
182.8363624004513
 20
-45.32110452215192
 10
182.8023585022512
 20
-45.34535220005176
 10
182.7660748264513
 20
-45.36745455425211
 10
182.7277868429513
 20
-45.38759828565237
 10
182.6876551292508
 20
-45.40536938415224
 10
182.645681170851
 20
-45.42076859285206
 10
182.601866453651
 20
-45.43379665445235
 10
182.5562124631512
 20
-45.44445431175186
 10
182.5087206850512
 20
-45.45274230775206
 10
182.4593926051512
 20
-45.45866138515224
 10
182.4082297090512
 20
-45.46221228685184
 10
182.3552334824514
 20
-45.46339575565218
 10
182.2877431984513
 20
-45.46132471615197
 10
182.2233513023512
 20
-45.45510416935226
 10
182.1620407089513
 20
-45.4447229724521
 10
182.1037943329507
 20
-45.43016998295217
 10
182.0485950888511
 20
-45.41143405835182
 10
181.9964258913509
 20
-45.38850405585207
 10
181.9472696552509
 20
-45.36136883295227
 10
181.9011092951507
 20
-45.33001724705234
 10
181.8579277256509
 20
-45.2944381555522
 10
181.8187851040508
 20
-45.25547901555206
 10
181.784216894751
 20
-45.21381816455188
 10
181.754231268751
 20
-45.16946154505184
 10
181.728836397551
 20
-45.12241509995186
 10
181.7080404521513
 20
-45.0726847718522
 10
181.6918516040507
 20
-45.02027650355205
 10
181.6802780242509
 20
-44.96519623775178
 10
181.6733278841513
 20
-44.90744991725186
 10
181.671009354951
 20
-44.84704348455181
 10
181.6742020836509
 20
-44.77673746335232
 10
181.6837817555513
 20
-44.70969696935184
 10
181.6997505991511
 20
-44.64593834485189
 10
181.7221108428509
 20
-44.58547793245238
 10
181.7508647153512
 20
-44.52833207465185
 10
181.7860144450513
 20
-44.474517113952
 10
181.8275622605506
 20
-44.42404939285202
 10
181.8755103903508
 20
-44.37694525375223
 10
181.9298610628512
 20
-44.33322103925192
 10
181.9895796251513
 20
-44.29328073075225
 10
182.0539899683508
 20
-44.25805597415238
 10
182.1230906069511
 20
-44.22754231235194
 10
182.1968800551512
 20
-44.20173528845209
 10
182.2753568272512
 20
-44.18063044515225
 10
182.3585194377511
 20
-44.16422332575185
 10
182.4463664006511
 20
-44.15250947285215
 10
182.5388962305506
 20
-44.1454844296518
 10
182.636107441751
 20
-44.14314373905177
 10
182.6483024076509
 20
-44.14314373905177
 10
182.6809849161511
 20
-44.14314373905177
 10
182.7283013838511
 20
-44.14314373905177
 10
182.7843982269511
 20
-44.14314373905177
 10
182.8434218618508
 20
-44.14314373905177
 10
182.899518705051
 20
-44.14314373905177
 10
182.9468351726508
 20
-44.14314373905177
 10
182.9795176812513
 20
-44.14314373905177
 10
182.991712647151
 20
-44.14314373905177
 10
182.991712647151
 20
-44.13463821465182
 10
182.991712647151
 20
-44.11184340915203
 10
182.991712647151
 20
-44.07884197435214
 10
182.991712647151
 20
-44.03971656195179
 10
182.991712647151
 20
-43.99854982365189
 10
182.991712647151
 20
-43.95942441125217
 10
182.991712647151
 20
-43.92642297645229
 10
182.991712647151
 20
-43.90362817095186
 10
182.991712647151
 20
-43.8951226465519
 10
182.9904458563511
 20
-43.8593231789521
 10
182.9866459792513
 20
-43.82556652295197
 10
182.9803137587511
 20
-43.79384302145196
 10
182.9714499375509
 20
-43.76414301775233
 10
182.960055258551
 20
-43.73645685475225
 10
182.9461304645512
 20
-43.71077487565186
 10
182.9296762985507
 20
-43.68708742335226
 10
182.9106935031511
 20
-43.66538484115178
 10
182.8891828214513
 20
-43.64565747195216
 10
182.8653013640508
 20
-43.62790878245224
 10
182.8390227600508
 20
-43.61221478985198
 10
182.8103432954508
 20
-43.59858440835208
 10
182.779259255951
 20
-43.58702655205186
 10
182.7457669273512
 20
-43.57755013505192
 10
182.7098625954511
 20
-43.57016407135213
 10
182.6715425460512
 20
-43.56487727505179
 10
182.630803064851
 20
-43.56169866025216
 10
182.5876404378513
 20
-43.56063714115202
 10
182.546697542151
 20
-43.5617907725519
 10
182.5076838034512
 20
-43.56525315235223
 10
182.4705962503509
 20
-43.57102650925201
 10
182.4354319114508
 20
-43.57911307155186
 10
182.4021878153511
 20
-43.58951506795206
 10
182.3708609908511
 20
-43.60223472695213
 10
182.3414484663512
 20
-43.61727427695206
 10
182.3139472706511
 20
-43.6346359465521
 10
182.2883544324509
 20
-43.65432196425238
 10
182.2650540001513
 20
-43.67599631855232
 10
182.2443668809511
 20
-43.69938069185237
 10
182.2262856464512
 20
-43.72447359845176
 10
182.2108028681509
 20
-43.75127355265229
 10
182.1979111178514
 20
-43.77977906875194
 10
182.1876029669511
 20
-43.80998866105185
 10
182.1798709871511
 20
-43.84190084405213
 10
182.1747077500509
 20
-43.87551413185181
 10
182.1721058271511
 20
-43.91082703885214
 10
182.1596941994514
 20
-43.91082703885214
 10
182.1264310371513
 20
-43.91082703885214
 10
182.0782739215512
 20
-43.91082703885214
 10
182.021180434051
 20
-43.91082703885214
 10
181.9611081558508
 20
-43.91082703885214
 10
181.9040146683512
 20
-43.91082703885214
 10
181.8558575527511
 20
-43.91082703885214
 10
181.8225943904511
 20
-43.91082703885214
 10
181.8101827627513
 20
-43.91082703885214
 10
181.8101827627513
 20
-43.90974372975225
 10
181.8101827627513
 20
-43.90684046115196
 10
181.8101827627513
 20
-43.90263722165183
 10
181.8101827627513
 20
-43.89765399955211
 10
181.8101827627513
 20
-43.8924107832519
 10
181.8101827627513
 20
-43.88742756115219
 10
181.8101827627513
 20
-43.88322432165206
 10
181.8101827627513
 20
-43.88032105315187
 10
181.8101827627513
 20
-43.87923774395188
 10
181.8125644334507
 20
-43.8205367494519
 10
181.8197158833509
 20
-43.76496088515177
 10
181.831646769351
 20
-43.71251980815234
 10
181.8483667485509
 20
-43.66322317515206
 10
181.8698854777508
 20
-43.61708064315229
 10
181.8962126139509
 20
-43.57410186915182
 10
181.9273578139511
 20
-43.53429651005191
 10
181.9633307348508
 20
-43.49767422265177
 10
182.0041410334513
 20
-43.46424466405223
 10
182.0493695000509
 20
-43.43390197945204
 10
182.0988202725511
 20
-43.40713458645196
 10
182.1524770081514
 20
-43.38394099945199
 10
182.2103233646508
 20
-43.36431973265191
 10
182.2723429993513
 20
-43.34826930035222
 10
182.3385195698512
 20
-43.33578821705238
 10
182.4088367336507
 20
-43.32687499695218
 10
182.4832781482508
 20
-43.32152815445224
 10
182.561827471151
 20
-43.31974620375233
 10
182.6533402284509
 20
-43.32160640025177
 10
182.739067743551
 20
-43.32718005685228
 10
182.8190144733508
 20
-43.33645677355228
 10
182.8931848749514
 20
-43.34942615075191
 10
182.961583405351
 20
-43.36607778865237
 10
183.0242145216512
 20
-43.3864012873522
 10
183.0810826809512
 20
-43.41038624725216
 10
183.1321923401511
 20
-43.43802226845207
 10
183.1775479563513
 20
-43.46929895125195
 10
183.2178808560512
 20
-43.50516614115217
 10
183.253493746851
 20
-43.54556762985175
 10
183.284379943151
 20
-43.59051827415229
 10
183.3105327593506
 20
-43.64003293085222
 10
183.3319455100509
 20
-43.69412645675185
 10
183.3486115094512
 20
-43.75281370875226
 10
183.3605240721511
 20
-43.81610954355176
 10
183.3676765124508
 20
-43.88402881795193
 10
183.3700621449514
 20
-43.95658638895207
 10
183.3700621449514
 20
-43.99988470815221
 10
183.3700621449514
 20
-44.11592420375217
 10
183.3700621449514
 20
-44.28392168255236
 10
183.3700621449514
 20
-44.48309395105218
 10
183.3700621449514
 20
-44.69265781635235
 10
183.3700621449514
 20
-44.89183008495228
 10
183.3700621449514
 20
-45.05982756365236
 10
183.3700621449514
 20
-45.17586705925233
 10
183.3700621449514
 20
-45.21916537855194
 10
183.3700976774513
 20
-45.22516245415206
 10
183.3702126939514
 20
-45.23184220035188
 10
183.3704198226512
 20
-45.23920535975182
 10
183.3707316918508
 20
-45.2472526753521
 10
183.3711609299512
 20
-45.2559848900522
 10
183.3717201650511
 20
-45.2654027464519
 10
183.3724220255509
 20
-45.27550698755207
 10
183.3732791397513
 20
-45.28629835625216
 10
183.3743041359512
 20
-45.2977775952521
 10
183.375608440151
 20
-45.30945950595221
 10
183.3769966853512
 20
-45.32145563815184
 10
183.3784725857508
 20
-45.33375930635192
 10
183.3800398555513
 20
-45.34636382505206
 10
183.381702208951
 20
-45.35926250855232
 10
183.3834633600508
 20
-45.37244867135234
 10
183.385327023251
 20
-45.38591562795237
 10
183.3872969126512
 20
-45.39965669265185
 10
183.3893767423508
 20
-45.4136651799523
 10
183.3893767423508
 20
-45.4136651799523
 10
183.3893767423508
 20
-45.4136651799523
 10
183.3893767423508
 20
-45.4136651799523
 10
183.3893767423508
 20
-45.4136651799523
 10
183.3893767423508
 20
-45.4136651799523
 10
183.3893767423508
 20
-45.4136651799523
 10
183.3893767423508
 20
-45.4136651799523
 10
183.3893767423508
 20
-45.4136651799523
 10
183.3893767423508
 20
-45.4136651799523
 10
183.3893767423508
 20
-45.4136651799523
 10
183.3893767423508
 20
-45.4136651799523
 10
183.3893767423508
 20
-45.4136651799523
 10
183.3893767423508
 20
-45.4136651799523
 10
183.3893767423508
 20
-45.4136651799523
 10
183.3893767423508
 20
-45.4136651799523
 10
183.3893767423508
 20
-45.4136651799523
 10
183.3893767423508
 20
-45.4136651799523
 10
183.3893767423508
 20
-45.4136651799523
  0
LWPOLYLINE
  5
BF
330
70
100
AcDbEntity
  8
CK_LEVEL_1
 62
     1
420
 16711680
370
    25
100
AcDbPolyline
 90
       82
 70
     0
 43
0.0
 10
182.991712647151
 20
-44.39955855855202
 10
182.9807959860512
 20
-44.39955855855202
 10
182.9515393343509
 20
-44.39955855855202
 10
182.9091826892511
 20
-44.39955855855202
 10
182.858966048251
 20
-44.39955855855202
 10
182.806129408551
 20
-44.39955855855202
 10
182.7559127675509
 20
-44.39955855855202
 10
182.7135561225512
 20
-44.39955855855202
 10
182.6842994707514
 20
-44.39955855855202
 10
182.673382809651
 20
-44.39955855855202
 10
182.6099280070513
 20
-44.40089629055203
 10
182.5497632451508
 20
-44.40491196285202
 10
182.4928758958513
 20
-44.41160928955207
 10
182.4392533308513
 20
-44.42099198485182
 10
182.3888829218507
 20
-44.43306376305225
 10
182.3417520405511
 20
-44.44782833825221
 10
182.2978480586511
 20
-44.46528942475206
 10
182.257158347751
 20
-44.48545073655181
 10
182.2196702797509
 20
-44.50831598815203
 10
182.1859355375509
 20
-44.53339044745182
 10
182.1561556784511
 20
-44.56059908775219
 10
182.1303344167511
 20
-44.58994339475196
 10
182.1084754665512
 20
-44.62142485395236
 10
182.0905825420508
 20
-44.65504495115229
 10
182.0766593576511
 20
-44.69080517195179
 10
182.0667096273508
 20
-44.72870700215236
 10
182.060737065451
 20
-44.76875192735208
 10
182.0587453860511
 20
-44.81094143325236
 10
182.0601075080511
 20
-44.84366058865222
 10
182.0641869407509
 20
-44.87504263105227
 10
182.0709732845513
 20
-44.90510761715192
 10
182.0804561395509
 20
-44.93387560355177
 10
182.0926251060509
 20
-44.96136664705196
 10
182.1074697842512
 20
-44.98760080435189
 10
182.1249797743513
 20
-45.01259813215225
 10
182.1451446765508
 20
-45.03637868705236
 10
182.1679540912514
 20
-45.05896252585233
 10
182.1931147201512
 20
-45.07966833985221
 10
182.2196295473512
 20
-45.09792426565186
 10
182.2475156582508
 20
-45.11373401755227
 10
182.276790138151
 20
-45.12710130965228
 10
182.3074700724511
 20
-45.13802985615216
 10
182.3395725463509
 20
-45.14652337135223
 10
182.3731146452507
 20
-45.152585569352
 10
182.4081134545513
 20
-45.15622016445183
 10
182.444586059451
 20
-45.15743087075184
 10
182.5018538669511
 20
-45.15566142455234
 10
182.5560351718512
 20
-45.1503619999518
 10
182.6071455738511
 20
-45.14154596815181
 10
182.6552006726513
 20
-45.12922670035204
 10
182.7002160678514
 20
-45.11341756745186
 10
182.7422073591512
 20
-45.09413194075231
 10
182.7811901461511
 20
-45.07138319145181
 10
182.8171800285509
 20
-45.04518469045226
 10
182.8501926060509
 20
-45.01554980905217
 10
182.8797913358514
 20
-44.98223625745181
 10
182.9059440282512
 20
-44.94577751885207
 10
182.9286410263511
 20
-44.90617730755203
 10
182.9478726733512
 20
-44.86343933765181
 10
182.9636293120512
 20
-44.81756732345177
 10
182.9759012857514
 20
-44.76856497915214
 10
182.9846789374509
 20
-44.71643601885179
 10
182.9899526102513
 20
-44.6611841569518
 10
182.991712647151
 20
-44.60281310745222
 10
182.991712647151
 20
-44.59584278685209
 10
182.991712647151
 20
-44.57716232765196
 10
182.991712647151
 20
-44.55011748365211
 10
182.991712647151
 20
-44.51805400885238
 10
182.991712647151
 20
-44.48431765715187
 10
182.991712647151
 20
-44.45225418235213
 10
182.991712647151
 20
-44.42520933835228
 10
182.991712647151
 20
-44.40652887915215
 10
182.991712647151
 20
-44.39955855855202
 10
182.991712647151
 20
-44.39955855855202
 10
182.991712647151
 20
-44.39955855855202
 10
182.991712647151
 20
-44.39955855855202
 10
182.991712647151
 20
-44.39955855855202
 10
182.991712647151
 20
-44.39955855855202
 10
182.991712647151
 20
-44.39955855855202
 10
182.991712647151
 20
-44.39955855855202
 10
182.991712647151
 20
-44.39955855855202
 10
182.991712647151
 20
-44.39955855855202
  0
LWPOLYLINE
  5
C0
330
70
100
AcDbEntity
  8
CK_LEVEL_1
 62
     1
420
 16711680
370
    25
100
AcDbPolyline
 90
        6
 70
     0
 43
0.0
 10
182.7352978276508
 20
-42.981740748252
 10
182.7352978276508
 20
-42.56638664795235
 10
183.0977624228511
 20
-42.56638664795235
 10
183.0977624228511
 20
-42.981740748252
 10
182.7352978276508
 20
-42.981740748252
 10
182.7352978276508
 20
-42.981740748252
  0
LWPOLYLINE
  5
C1
330
70
100
AcDbEntity
  8
CK_LEVEL_1
 62
     1
420
 16711680
370
    25
100
AcDbPolyline
 90
        6
 70
     0
 43
0.0
 10
182.0790527899508
 20
-42.981740748252
 10
182.0790527899508
 20
-42.56638664795235
 10
182.4412466197511
 20
-42.56638664795235
 10
182.4412466197511
 20
-42.981740748252
 10
182.0790527899508
 20
-42.981740748252
 10
182.0790527899508
 20
-42.981740748252
  0
LWPOLYLINE
  5
C2
330
70
100
AcDbEntity
  8
CK_LEVEL_1
 62
     1
420
 16711680
370
    25
100
AcDbPolyline
 90
       12
 70
     0
 43
0.0
 10
183.797329922251
 20
-45.4136651799523
 10
183.797329922251
 20
-45.03594746805203
 10
184.8874313616511
 20
-43.64971895275238
 10
183.8650212684514
 20
-43.64971895275238
 10
183.8650212684514
 20
-43.3694767793521
 10
185.3027854620509
 20
-43.3694767793521
 10
185.3027854620509
 20
-43.69917876305231
 10
184.1826290649512
 20
-45.12511953485201
 10
185.2992655120512
 20
-45.12511953485201
 10
185.2992655120512
 20
-45.4136651799523
 10
183.797329922251
 20
-45.4136651799523
 10
183.797329922251
 20
-45.4136651799523
  0
LWPOLYLINE
  5
C3
330
70
100
AcDbEntity
  8
CK_LEVEL_1
 62
     1
420
 16711680
370
    25
100
AcDbPolyline
 90
        6
 70
     0
 43
0.0
 10
186.1849390859513
 20
-42.89581786615188
 10
185.7425084470511
 20
-42.89581786615188
 10
185.7425084470511
 20
-42.48037351065195
 10
186.1849390859513
 20
-42.48037351065195
 10
186.1849390859513
 20
-42.89581786615188
 10
186.1849390859513
 20
-42.89581786615188
  0
LWPOLYLINE
  5
C4
330
70
100
AcDbEntity
  8
CK_LEVEL_1
 62
     1
420
 16711680
370
    25
100
AcDbPolyline
 90
        6
 70
     0
 43
0.0
 10
185.7768956509509
 20
-45.4136651799523
 10
185.7768956509509
 20
-43.3694767793521
 10
186.1552451487512
 20
-43.3694767793521
 10
186.1552451487512
 20
-45.4136651799523
 10
185.7768956509509
 20
-45.4136651799523
 10
185.7768956509509
 20
-45.4136651799523
  0
LWPOLYLINE
  5
C5
330
70
100
AcDbEntity
  8
CK_LEVEL_1
 62
     1
420
 16711680
370
    25
100
AcDbPolyline
 90
      307
 70
     0
 43
0.0
 10
186.6408177389508
 20
-44.79929852175234
 10
186.6537710212509
 20
-44.79929852175234
 10
186.688485817751
 20
-44.79929852175234
 10
186.7387445531512
 20
-44.79929852175234
 10
186.7983296516509
 20
-44.79929852175234
 10
186.8610235380509
 20
-44.79929852175234
 10
186.9206086366507
 20
-44.79929852175234
 10
186.9708673719508
 20
-44.79929852175234
 10
187.0055821685511
 20
-44.79929852175234
 10
187.0185354508511
 20
-44.79929852175234
 10
187.0185354508511
 20
-44.79958018205205
 10
187.0185354508511
 20
-44.80033503195175
 10
187.0185354508511
 20
-44.80142787415181
 10
187.0185354508511
 20
-44.80272351195194
 10
187.0185354508511
 20
-44.80408674815194
 10
187.0185354508511
 20
-44.80538238595207
 10
187.0185354508511
 20
-44.80647522815213
 10
187.0185354508511
 20
-44.80723007805184
 10
187.0185354508511
 20
-44.80751173835218
 10
187.0199982276512
 20
-44.84390721175187
 10
187.0243811108514
 20
-44.87861346565213
 10
187.0316759289513
 20
-44.91164609975216
 10
187.0418745108507
 20
-44.94302071375236
 10
187.0549686852509
 20
-44.97275290725182
 10
187.0709502808512
 20
-45.00085827985213
 10
187.0898111265513
 20
-45.02735243135192
 10
187.1115430509512
 20
-45.05225096135217
 10
187.136137882951
 20
-45.07556946945192
 10
187.1634611683509
 20
-45.09676085355222
 10
187.1927195533508
 20
-45.11550086385226
 10
187.2239093238508
 20
-45.13177835765189
 10
187.257026765551
 20
-45.14558219235226
 10
187.2920681643508
 20
-45.15690122545215
 10
187.3290298060511
 20
-45.16572431425197
 10
187.3679079763509
 20
-45.17204031605221
 10
187.4086989610507
 20
-45.17583808845232
 10
187.451399046051
 20
-45.17710648875213
 10
187.4928158739511
 20
-45.17598455185217
 10
187.5324662270513
 20
-45.17262369355188
 10
187.5703486195514
 20
-45.16703134215229
 10
187.6064615658513
 20
-45.15921492615208
 10
187.6408035803512
 20
-45.14918187395235
 10
187.6733731771512
 20
-45.13693961385222
 10
187.7041688707508
 20
-45.12249557435226
 10
187.733189175351
 20
-45.10585718385232
 10
187.7604326053507
 20
-45.08703187065216
 10
187.7852154997512
 20
-45.06652352845208
 10
187.8070938876509
 20
-45.04470927255235
 10
187.826064797551
 20
-45.02158687435207
 10
187.8421252580513
 20
-44.99715410545188
 10
187.8552722979509
 20
-44.97140873725217
 10
187.8655029457508
 20
-44.9443485412522
 10
187.8728142302511
 20
-44.91597128895183
 10
187.8772031798513
 20
-44.88627475175213
 10
187.8786668233513
 20
-44.85525670125176
 10
187.8779273256513
 20
-44.83216946425218
 10
187.8757058609508
 20
-44.8100865475521
 10
187.8719979722508
 20
-44.7890161226523
 10
187.8667992025512
 20
-44.76896636065191
 10
187.8601050948509
 20
-44.74994543285216
 10
187.851911192051
 20
-44.73196151045225
 10
187.8422130370511
 20
-44.71502276475216
 10
187.831006172951
 20
-44.69913736695234
 10
187.8182861425509
 20
-44.68431348825203
 10
187.8044217663511
 20
-44.67013130005205
 10
187.788828057251
 20
-44.65681897815183
 10
187.7715139294509
 20
-44.64436389425176
 10
187.7524882969512
 20
-44.63275342005231
 10
187.7317600738513
 20
-44.62197492735209
 10
187.7093381743511
 20
-44.61201578775209
 10
187.6852315124514
 20
-44.60286337295207
 10
187.6594490022512
 20
-44.59450505475197
 10
187.631999557751
 20
-44.5869282048522
 10
187.617155127251
 20
-44.58342447355188
 10
187.5773720532512
 20
-44.57403447365208
 10
187.5197756627511
 20
-44.56043999605213
 10
187.4514912821511
 20
-44.54432283205182
 10
187.3796442381511
 20
-44.52736477245232
 10
187.3113598575511
 20
-44.51124760845202
 10
187.253763466951
 20
-44.49765313085207
 10
187.2139803930512
 20
-44.48826313095226
 10
187.1991359625512
 20
-44.48475939965194
 10
187.1397333550509
 20
-44.46990630265216
 10
187.0838458692509
 20
-44.4533216442521
 10
187.0314653336509
 20
-44.43499873895205
 10
186.982583577051
 20
-44.41493090115216
 10
186.9371924283509
 20
-44.39311144525196
 10
186.8952837161512
 20
-44.36953368585181
 10
186.8568492693508
 20
-44.34419093725178
 10
186.8218809164509
 20
-44.31707651385204
 10
186.7903704864511
 20
-44.2881837302523
 10
186.7622017247508
 20
-44.25780415115236
 10
186.7373274609508
 20
-44.22569078225214
 10
186.7157528948512
 20
-44.19184139495205
 10
186.6974832264512
 20
-44.15625376075195
 10
186.6825236556513
 20
-44.11892565105227
 10
186.6708793822509
 20
-44.07985483745234
 10
186.662555606051
 20
-44.03903909135193
 10
186.657557527151
 20
-43.9964761842522
 10
186.655890345351
 20
-43.95216388765239
 10
186.6587096728508
 20
-43.89107874635203
 10
186.6671597319512
 20
-43.83261954645198
 10
186.6812286369508
 20
-43.77679148775185
 10
186.7009045025507
 20
-43.7235997703522
 10
186.7261754431512
 20
-43.6730495938518
 10
186.7570295735513
 20
-43.62514615835186
 10
186.7934550081512
 20
-43.57989466365198
 10
186.8354398614514
 20
-43.5373003096519
 10
186.8829722481512
 20
-43.49736829615188
 10
186.9355324273512
 20
-43.46086758705193
 10
186.9915921283513
 20
-43.42868055315221
 10
187.0511610082511
 20
-43.40080199445225
 10
187.1142487239512
 20
-43.3772267111518
 10
187.1808649322509
 20
-43.3579495033518
 10
187.2510192901508
 20
-43.34296517115185
 10
187.324721454551
 20
-43.33226851465227
 10
187.4019810824508
 20
-43.32585433405213
 10
187.4828078307509
 20
-43.32371742935229
 10
187.5574439933507
 20
-43.32550445615212
 10
187.6285145212511
 20
-43.33086008895224
 10
187.6960105004508
 20
-43.33977615665225
 10
187.759923016651
 20
-43.35224448785209
 10
187.8202431560507
 20
-43.36825691135191
 10
187.8769620042509
 20
-43.38780525605198
 10
187.9300706474508
 20
-43.41088135045211
 10
187.9795601713508
 20
-43.43747702345194
 10
188.0254216619509
 20
-43.46758410385224
 10
188.0671628636512
 20
-43.50104882355238
 10
188.103996117651
 20
-43.53712165645225
 10
188.1359206812512
 20
-43.57580334545196
 10
188.1629358115509
 20
-43.61709463335218
 10
188.1850407658509
 20
-43.66099626295226
 10
188.202234801051
 20
-43.7075089770522
 10
188.2145171745512
 20
-43.75663351865223
 10
188.2218871433508
 20
-43.80837063055235
 10
188.2243439647511
 20
-43.86272105545182
 10
188.2243434694512
 20
-43.8680724788519
 10
188.2243400029512
 20
-43.87311413775207
 10
188.2243305935514
 20
-43.87784380365218
 10
188.2243122701511
 20
-43.88225924795202
 10
188.2242820613512
 20
-43.88635824215209
 10
188.224236995651
 20
-43.89013855775229
 10
188.2241741018509
 20
-43.89359796625184
 10
188.2240904084514
 20
-43.89673423915189
 10
188.223982944251
 20
-43.89954514785222
 10
188.2236782557509
 20
-43.90233723785231
 10
188.2233639104509
 20
-43.90506098665186
 10
188.2230369367513
 20
-43.90772159385221
 10
188.2226943634513
 20
-43.91032425965213
 10
188.2223332191508
 20
-43.91287418365227
 10
188.2219505324507
 20
-43.91537656585184
 10
188.2215433319509
 20
-43.91783660625192
 10
188.2211086464507
 20
-43.92025950455205
 10
188.2206435044509
 20
-43.92265046065194
 10
188.2077521255514
 20
-43.92265046065194
 10
188.1732032300508
 20
-43.92265046065194
 10
188.1231846798508
 20
-43.92265046065194
 10
188.0638843367513
 20
-43.92265046065194
 10
188.0014900628509
 20
-43.92265046065194
 10
187.9421897197508
 20
-43.92265046065194
 10
187.8921711695508
 20
-43.92265046065194
 10
187.8576222740509
 20
-43.92265046065194
 10
187.8447308951507
 20
-43.92265046065194
 10
187.8447308951507
 20
-43.92211499645232
 10
187.8447308951507
 20
-43.92067995225219
 10
187.8447308951507
 20
-43.91860235105204
 10
187.8447308951507
 20
-43.91613921555203
 10
187.8447308951507
 20
-43.91354756865188
 10
187.8447308951507
 20
-43.91108443315188
 10
187.8447308951507
 20
-43.90900683185225
 10
187.8447308951507
 20
-43.90757178775223
 10
187.8447308951507
 20
-43.90703632345187
 10
187.8434368668511
 20
-43.87494115415221
 10
187.8395532964512
 20
-43.8444170926518
 10
187.8330779552512
 20
-43.81545745335208
 10
187.8240086148512
 20
-43.78805555065195
 10
187.8123430466509
 20
-43.7622046990523
 10
187.7980790221508
 20
-43.73789821305211
 10
187.7812143128508
 20
-43.71512940695209
 10
187.7617466902509
 20
-43.69389159535197
 10
187.7396739258507
 20
-43.67417809245234
 10
187.7157230128507
 20
-43.65614316175194
 10
187.6898407143507
 20
-43.64024389755202
 10
187.6620277732509
 20
-43.62647658585192
 10
187.6322849323511
 20
-43.61483751225183
 10
187.600612934551
 20
-43.60532296275235
 10
187.5670125226511
 20
-43.59792922305185
 10
187.5314844394508
 20
-43.59265257885192
 10
187.4940294278509
 20
-43.58948931615187
 10
187.4546482306513
 20
-43.58843572065199
 10
187.4160780916512
 20
-43.58948931615187
 10
187.3790656891512
 20
-43.59265257885192
 10
187.3436043378511
 20
-43.59792922305185
 10
187.309687352051
 20
-43.60532296275235
 10
187.2773080462512
 20
-43.61483751225183
 10
187.2464597347511
 20
-43.62647658585192
 10
187.217135732151
 20
-43.64024389755202
 10
187.1893293528512
 20
-43.65614316175194
 10
187.163033911151
 20
-43.67417809245234
 10
187.1388461558512
 20
-43.69364101045186
 10
187.1174901087511
 20
-43.71412756265219
 10
187.0989694840511
 20
-43.73564517765211
 10
187.0832879959512
 20
-43.75820128365188
 10
187.0704493587513
 20
-43.7818033092522
 10
187.0604572865508
 20
-43.80645868275219
 10
187.0533154935513
 20
-43.83217483255231
 10
187.0490276940511
 20
-43.85895918705176
 10
187.0475976021512
 20
-43.88681917475179
 10
187.0484533544512
 20
-43.90832242815181
 10
187.0510206114509
 20
-43.9289045591518
 10
187.0552993730512
 20
-43.94856036805227
 10
187.0612896393512
 20
-43.96728465485209
 10
187.0689914103508
 20
-43.98507221975231
 10
187.0784046859511
 20
-44.0019178627518
 10
187.0895294661508
 20
-44.01781638415235
 10
187.1023657510509
 20
-44.0327625838521
 10
187.1169135406511
 20
-44.04675126205209
 10
187.1336701666509
 20
-44.0601616389518
 10
187.1526018297507
 20
-44.07308545525204
 10
187.1737241297511
 20
-44.08553756775186
 10
187.1970526661508
 20
-44.09753283335235
 10
187.2226030387511
 20
-44.10908610875178
 10
187.250390847051
 20
-44.120212250952
 10
187.280431690751
 20
-44.13092611655183
 10
187.3127411696508
 20
-44.14124256245234
 10
187.3473348831512
 20
-44.15117644545194
 10
187.3632966697512
 20
-44.15553753865232
 10
187.406074257751
 20
-44.16722526825236
 10
187.4680059896512
 20
-44.18414630955234
 10
187.5414302079512
 20
-44.20420733795196
 10
187.6186852549509
 20
-44.22531502875215
 10
187.692109473251
 20
-44.24537605715176
 10
187.7540412051512
 20
-44.26229709855184
 10
187.796818793151
 20
-44.27398482815187
 10
187.8127805797509
 20
-44.27834592125216
 10
187.8647359629509
 20
-44.29348080245218
 10
187.9136137576509
 20
-44.31035987335205
 10
187.959405049851
 20
-44.32897570545178
 10
188.0021009253511
 20
-44.3493208703522
 10
188.0416924702508
 20
-44.37138793975228
 10
188.0781707702507
 20
-44.39516948505196
 10
188.111526911451
 20
-44.42065807805225
 10
188.1417519796509
 20
-44.44784629025192
 10
188.1688370608513
 20
-44.47672669325178
 10
188.1930186258511
 20
-44.50783710355199
 10
188.2143580828511
 20
-44.54093461245208
 10
188.2328546890507
 20
-44.57601401995222
 10
188.248507701551
 20
-44.61307012615207
 10
188.2613163775513
 20
-44.65209773115187
 10
188.2712799742511
 20
-44.69309163525216
 10
188.2783977486513
 20
-44.73604663835233
 10
188.2826689580507
 20
-44.78095754065215
 10
188.2840928596508
 20
-44.82781914225189
 10
188.2813781488511
 20
-44.89061739765226
 10
188.2732325306511
 20
-44.95059880175204
 10
188.2596537765508
 20
-45.00774775465185
 10
188.2406396581512
 20
-45.06204865695222
 10
188.216187946751
 20
-45.11348590875186
 10
188.1862964139513
 20
-45.16204391065191
 10
188.1509628312514
 20
-45.20770706285184
 10
188.1101849699508
 20
-45.25045976575196
 10
188.063960601751
 20
-45.29028641965182
 10
188.0128511901507
 20
-45.32662593225192
 10
187.9579547774511
 20
-45.35868742615239
 10
187.8992617065508
 20
-45.38647164405183
 10
187.8367623206511
 20
-45.40997932895176
 10
187.7704469627507
 20
-45.42921122345195
 10
187.700305975951
 20
-45.44416807055201
 10
187.6263297033507
 20
-45.45485061305192
 10
187.548508488051
 20
-45.46125959385179
 10
187.4668326730507
 20
-45.46339575565218
 10
187.3749091248512
 20
-45.46155313965233
 10
187.2885524238512
 20
-45.45602232025194
 10
187.2077603414513
 20
-45.44679884035192
 10
187.1325306491513
 20
-45.43387824305212
 10
187.0628611185511
 20
-45.41725607125221
 10
186.9987495210512
 20
-45.39692786785182
 10
186.9401936280508
 20
-45.37288917585198
 10
186.8871912110509
 20
-45.34513553815235
 10
186.8397400416509
 20
-45.31366249785213
 10
186.7979988400513
 20
-45.27865266975187
 10
186.7611655859508
 20
-45.23944579255218
 10
186.7292410223513
 20
-45.19603666615182
 10
186.7022258920509
 20
-45.14842009095206
 10
186.6801209378509
 20
-45.0965908668523
 10
186.6629269025508
 20
-45.04054379405229
 10
186.6506445291513
 20
-44.98027367265232
 10
186.643274560251
 20
-44.91577530285215
 10
186.6408177389508
 20
-44.84704348455181
 10
186.6408177389508
 20
-44.84540614015227
 10
186.6408177389508
 20
-44.8410180571519
 10
186.6408177389508
 20
-44.83466516085192
 10
186.6408177389508
 20
-44.82713337665175
 10
186.6408177389508
 20
-44.81920862965177
 10
186.6408177389508
 20
-44.81167684545224
 10
186.6408177389508
 20
-44.80532394915226
 10
186.6408177389508
 20
-44.80093586615189
 10
186.6408177389508
 20
-44.79929852175234
 10
186.6408177389508
 20
-44.79929852175234
 10
186.6408177389508
 20
-44.79929852175234
 10
186.6408177389508
 20
-44.79929852175234
 10
186.6408177389508
 20
-44.79929852175234
 10
186.6408177389508
 20
-44.79929852175234
 10
186.6408177389508
 20
-44.79929852175234
 10
186.6408177389508
 20
-44.79929852175234
 10
186.6408177389508
 20
-44.79929852175234
 10
186.6408177389508
 20
-44.79929852175234
  0
LWPOLYLINE
  5
C6
330
70
100
AcDbEntity
  8
CK_LEVEL_1
 62
     1
420
 16711680
370
    25
100
AcDbPolyline
 90
        6
 70
     0
 43
0.0
 10
189.2036121066507
 20
-42.89581786615188
 10
188.7618132536512
 20
-42.89581786615188
 10
188.7618132536512
 20
-42.48037351065195
 10
189.2036121066507
 20
-42.48037351065195
 10
189.2036121066507
 20
-42.89581786615188
 10
189.2036121066507
 20
-42.89581786615188
  0
LWPOLYLINE
  5
C7
330
70
100
AcDbEntity
  8
CK_LEVEL_1
 62
     1
420
 16711680
370
    25
100
AcDbPolyline
 90
        6
 70
     0
 43
0.0
 10
188.7955686716509
 20
-45.4136651799523
 10
188.7955686716509
 20
-43.3694767793521
 10
189.1739181694512
 20
-43.3694767793521
 10
189.1739181694512
 20
-45.4136651799523
 10
188.7955686716509
 20
-45.4136651799523
 10
188.7955686716509
 20
-45.4136651799523
  0
LWPOLYLINE
  5
C8
330
70
100
AcDbEntity
  8
CK_LEVEL_1
 62
     1
420
 16711680
370
    25
100
AcDbPolyline
 90
       91
 70
     0
 43
0.0
 10
190.7204397926514
 20
-43.59403153855215
 10
190.6573202586509
 20
-43.5967510778522
 10
190.5972025433511
 20
-43.60490375305201
 10
190.5400799612511
 20
-43.61848064995214
 10
190.4859458267509
 20
-43.63747285465222
 10
190.4347934542508
 20
-43.66187145295215
 10
190.3866161581509
 20
-43.69166753065187
 10
190.3414072529508
 20
-43.72685217395176
 10
190.2991600530508
 20
-43.76741646845216
 10
190.2598678729509
 20
-43.81335150035215
 10
190.224159650951
 20
-43.86427495415211
 10
190.1926663063512
 20
-43.91908643545234
 10
190.165384124751
 20
-43.97778297295207
 10
190.1423093922512
 20
-44.04036159515226
 10
190.1234383943512
 20
-44.10681933085221
 10
190.108767417051
 20
-44.17715320855225
 10
190.098292746151
 20
-44.25136025695223
 10
190.0920106673508
 20
-44.32943750465191
 10
190.0899174664508
 20
-44.41138198035182
 10
190.091926726351
 20
-44.49050440475196
 10
190.0979554965511
 20
-44.56558800505216
 10
190.1080052626507
 20
-44.63662535275182
 10
190.1220775104511
 20
-44.70360901945176
 10
190.1401737256512
 20
-44.76653157695233
 10
190.162295393751
 20
-44.8253855965521
 10
190.1884440005512
 20
-44.88016365005208
 10
190.2186210317514
 20
-44.93085830905178
 10
190.2528279729509
 20
-44.97746214495178
 10
190.2908619049508
 20
-45.01937073335236
 10
190.3321569070513
 20
-45.05634611755222
 10
190.3767114934508
 20
-45.08838904045211
 10
190.4245241786508
 20
-45.11550024475194
 10
190.475593476851
 20
-45.13768047355203
 10
190.5299179023513
 20
-45.15493046945218
 10
190.5874959695511
 20
-45.16725097535185
 10
190.6483261927509
 20
-45.17464273415179
 10
190.7124070862512
 20
-45.17710648875213
 10
190.7767294028513
 20
-45.17448624245198
 10
190.8378656763508
 20
-45.16662748455218
 10
190.895818878051
 20
-45.15353318635223
 10
190.9505919792509
 20
-45.13520631925237
 10
191.0021879513512
 20
-45.11164985455206
 10
191.050609765851
 20
-45.08286676365221
 10
191.095860393851
 20
-45.04886001795176
 10
191.1379428069509
 20
-45.00963258875212
 10
191.1768599763507
 20
-44.96518744755236
 10
191.2121228654507
 20
-44.9161857222523
 10
191.2432399613508
 20
-44.86311991625192
 10
191.2702105212508
 20
-44.80601082905187
 10
191.2930338023508
 20
-44.74487926025235
 10
191.3117090616512
 20
-44.67974600925198
 10
191.3262355564509
 20
-44.61063187575235
 10
191.3366125438509
 20
-44.53755765925221
 10
191.3428392810513
 20
-44.46054415915214
 10
191.3449150252508
 20
-44.37961217515178
 10
191.3428933846513
 20
-44.2983908547522
 10
191.3368314342511
 20
-44.22139109725181
 10
191.3267336310511
 20
-44.14860250295194
 10
191.312604432151
 20
-44.08001467195239
 10
191.294448294551
 20
-44.01561720465202
 10
191.272269675351
 20
-43.95539970115192
 10
191.2460730314509
 20
-43.89935176165201
 10
191.2158628200513
 20
-43.8474629865518
 10
191.1816434981511
 20
-43.79972297595236
 10
191.1437291634508
 20
-43.75656109175199
 10
191.1024423326509
 20
-43.71847429425204
 10
191.0578000910513
 20
-43.68546332635196
 10
191.0098195238511
 20
-43.65752893075233
 10
190.958517716651
 20
-43.63467185045206
 10
190.9039117545513
 20
-43.61689282825181
 10
190.8460187229513
 20
-43.60419260705231
 10
190.7848557071513
 20
-43.59657192945211
 10
190.7204397926514
 20
-43.59403153855215
 10
190.7204397926514
 20
-43.59403153855215
 10
190.7204397926514
 20
-43.59403153855215
 10
190.7204397926514
 20
-43.59403153855215
 10
190.7204397926514
 20
-43.59403153855215
 10
190.7204397926514
 20
-43.59403153855215
 10
190.7204397926514
 20
-43.59403153855215
 10
190.7204397926514
 20
-43.59403153855215
 10
190.7204397926514
 20
-43.59403153855215
 10
190.7204397926514
 20
-43.59403153855215
 10
190.7204397926514
 20
-43.59403153855215
 10
190.7204397926514
 20
-43.59403153855215
 10
190.7204397926514
 20
-43.59403153855215
 10
190.7204397926514
 20
-43.59403153855215
 10
190.7204397926514
 20
-43.59403153855215
 10
190.7204397926514
 20
-43.59403153855215
 10
190.7204397926514
 20
-43.59403153855215
 10
190.7204397926514
 20
-43.59403153855215
 10
190.7204397926514
 20
-43.59403153855215
  0
LWPOLYLINE
  5
C9
330
70
100
AcDbEntity
  8
CK_LEVEL_1
 62
     1
420
 16711680
370
    25
100
AcDbPolyline
 90
       82
 70
     0
 43
0.0
 10
189.7027229660512
 20
-44.43132836365196
 10
189.7060694627509
 20
-44.32001481975186
 10
189.7161238097512
 20
-44.21400292885231
 10
189.732908292251
 20
-44.11329937665199
 10
189.7564451955511
 20
-44.0179108486519
 10
189.786756804651
 20
-43.92784403045189
 10
189.8238654049509
 20
-43.84310560765177
 10
189.867793281551
 20
-43.76370226565183
 10
189.9185627197508
 20
-43.68964069025212
 10
189.9761960047513
 20
-43.62092756685224
 10
190.0393183862508
 20
-43.55851051235235
 10
190.1073249445511
 20
-43.50345055085234
 10
190.1802193936509
 20
-43.45574396815199
 10
190.2580054478513
 20
-43.41538704985211
 10
190.3406868214512
 20
-43.38237608195204
 10
190.4282672284507
 20
-43.35670735015209
 10
190.5207503831508
 20
-43.33837714025197
 10
190.6181399998512
 20
-43.32738173805211
 10
190.7204397926514
 20
-43.32371742935229
 10
190.8237252110508
 20
-43.32714737185202
 10
190.9218300593512
 20
-43.33743818975213
 10
191.0147350237512
 20
-43.35459136875207
 10
191.1024207902507
 20
-43.37860839465205
 10
191.1848680452508
 20
-43.40949075295201
 10
191.262057474651
 20
-43.44723992935205
 10
191.333969764751
 20
-43.49185740965238
 10
191.4005856016513
 20
-43.54334467945176
 10
191.4618856714513
 20
-43.60170322445221
 10
191.517474164051
 20
-43.66588613475179
 10
191.5664922318508
 20
-43.73551332345238
 10
191.6089480460513
 20
-43.81059370475212
 10
191.6448497780513
 20
-43.89113619265216
 10
191.6742055990511
 20
-43.97714970135192
 10
191.6970236801507
 20
-44.06864314485189
 10
191.7133121927513
 20
-44.16562543725205
 10
191.7230793081509
 20
-44.26810549265233
 10
191.7263331973511
 20
-44.37609222515209
 10
191.7229728342512
 20
-44.48754443275229
 10
191.7128882784511
 20
-44.59342385035178
 10
191.6960743299509
 20
-44.69371339275213
 10
191.6725257888509
 20
-44.78839597455213
 10
191.6422374554509
 20
-44.8774545105521
 10
191.605204129651
 20
-44.96087191525201
 10
191.561420611651
 20
-45.03863110345213
 10
191.5108817016512
 20
-45.11071498965183
 10
191.4535821996512
 20
-45.17710648875213
 10
191.3900792361513
 20
-45.2370571886521
 10
191.3210666242511
 20
-45.29000215925178
 10
191.2465636776512
 20
-45.33592877225223
 10
191.1665897103511
 20
-45.374824399352
 10
191.0811640361512
 20
-45.40667641215203
 10
190.9903059689511
 20
-45.43147218255234
 10
190.8940348225513
 20
-45.44919908205187
 10
190.7923699108512
 20
-45.45984448255192
 10
190.6853305477508
 20
-45.46339575565218
 10
190.586220883751
 20
-45.45998265085202
 10
190.4919545402511
 20
-45.44974284135189
 10
190.4025144318511
 20
-45.43267558425229
 10
190.3178834732508
 20
-45.40878013665184
 10
190.2380445791508
 20
-45.37805575575182
 10
190.1629806641513
 20
-45.34050169875222
 10
190.0926746429512
 20
-45.29611722275228
 10
190.0271094302512
 20
-45.2449015850521
 10
189.9662679406509
 20
-45.18685404255201
 10
189.9107817124514
 20
-45.12289311785201
 10
189.8618844801511
 20
-45.05393733325177
 10
189.8195599010513
 20
-44.97998594575236
 10
189.783791632751
 20
-44.90103821275208
 10
189.754563332751
 20
-44.81709339115186
 10
189.7318586585509
 20
-44.72815073835193
 10
189.7156612677511
 20
-44.63420951145216
 10
189.7059548177509
 20
-44.53526896745236
 10
189.7027229660512
 20
-44.43132836365196
 10
189.7027229660512
 20
-44.43132836365196
 10
189.7027229660512
 20
-44.43132836365196
 10
189.7027229660512
 20
-44.43132836365196
 10
189.7027229660512
 20
-44.43132836365196
 10
189.7027229660512
 20
-44.43132836365196
 10
189.7027229660512
 20
-44.43132836365196
 10
189.7027229660512
 20
-44.43132836365196
 10
189.7027229660512
 20
-44.43132836365196
 10
189.7027229660512
 20
-44.43132836365196
  0
LWPOLYLINE
  5
CA
330
70
100
AcDbEntity
  8
CK_LEVEL_1
 62
     1
420
 16711680
370
    25
100
AcDbPolyline
 90
      190
 70
     0
 43
0.0
 10
192.6514482623512
 20
-43.70314998865226
 10
192.6679494749513
 20
-43.66733999755206
 10
192.6870588007511
 20
-43.63324893945182
 10
192.7087636115512
 20
-43.60086418605196
 10
192.7330512789512
 20
-43.57017310925187
 10
192.7599091747511
 20
-43.54116308055178
 10
192.7893246705512
 20
-43.51382147175221
 10
192.8212851380514
 20
-43.48813565465178
 10
192.8557779491509
 20
-43.46409300085213
 10
192.8927904753512
 20
-43.44168088205175
 10
192.931700340151
 20
-43.42140901075211
 10
192.971953260751
 20
-43.4035498855521
 10
193.0135484942512
 20
-43.38809607805186
 10
193.0564852977508
 20
-43.37504015995231
 10
193.1007629284511
 20
-43.36437470285233
 10
193.1463806435508
 20
-43.35609227815184
 10
193.1933377002512
 20
-43.35018545765187
 10
193.2416333555513
 20
-43.34664681275236
 10
193.2912668667508
 20
-43.34546891525175
 10
193.3358854612512
 20
-43.3463774092521
 10
193.3796631603512
 20
-43.34909991995176
 10
193.4225947639511
 20
-43.35363199025228
 10
193.4646750723513
 20
-43.35996916305203
 10
193.5058988855513
 20
-43.36810698145215
 10
193.5462610036508
 20
-43.37804098825219
 10
193.5857562268508
 20
-43.38976672655198
 10
193.6243793552509
 20
-43.40327973915237
 10
193.6621251888514
 20
-43.41857556915193
 10
193.6985861559512
 20
-43.43577009965186
 10
193.7332895623511
 20
-43.4542705438521
 10
193.7662227796508
 20
-43.47409250145181
 10
193.7973731795513
 20
-43.49525157195186
 10
193.8267281338513
 20
-43.51776335525225
 10
193.8542750142512
 20
-43.54164345075183
 10
193.8800011923513
 20
-43.56690745825178
 10
193.9038940400509
 20
-43.59357097745191
 10
193.9259409288511
 20
-43.62164960785182
 10
193.9372389147512
 20
-43.63793267295179
 10
193.9478913722511
 20
-43.65495337875177
 10
193.957874530351
 20
-43.6727139537519
 10
193.9671646182513
 20
-43.69121662645226
 10
193.9757378649511
 20
-43.71046362545182
 10
193.9835704996513
 20
-43.73045717915188
 10
193.9906387514511
 20
-43.75119951615205
 10
193.9969188493507
 20
-43.77269286495177
 10
194.0023870225513
 20
-43.79493945415195
 10
194.007122259651
 20
-43.8193246812522
 10
194.0113337942509
 20
-43.84729114275176
 10
194.0150127121508
 20
-43.87883661005233
 10
194.0181500992509
 20
-43.91395885465184
 10
194.0207370415512
 20
-43.9526556480521
 10
194.0227646248511
 20
-43.99492476175235
 10
194.0242239351513
 20
-44.04076396715235
 10
194.0251060582511
 20
-44.09017103575199
 10
194.0254020802509
 20
-44.14314373905177
 10
194.0254020802509
 20
-44.18671443325187
 10
194.0254020802509
 20
-44.30348389345232
 10
194.0254020802509
 20
-44.47253818675219
 10
194.0254020802509
 20
-44.67296337975191
 10
194.0254020802509
 20
-44.88384553935226
 10
194.0254020802509
 20
-45.08427073235199
 10
194.0254020802509
 20
-45.25332502555239
 10
194.0254020802509
 20
-45.3700944858523
 10
194.0254020802509
 20
-45.4136651799523
 10
194.0124921302512
 20
-45.4136651799523
 10
193.9778934644513
 20
-45.4136651799523
 10
193.927802858751
 20
-45.4136651799523
 10
193.8684170890511
 20
-45.4136651799523
 10
193.8059329313511
 20
-45.4136651799523
 10
193.7465471616512
 20
-45.4136651799523
 10
193.6964565559509
 20
-45.4136651799523
 10
193.6618578900508
 20
-45.4136651799523
 10
193.6489479401513
 20
-45.4136651799523
 10
193.6489479401513
 20
-45.36938569215188
 10
193.6489479401513
 20
-45.2507166647518
 10
193.6489479401513
 20
-45.07891225195207
 10
193.6489479401513
 20
-44.87522660785198
 10
193.6489479401513
 20
-44.6609138867523
 10
193.6489479401513
 20
-44.45722824275231
 10
193.6489479401513
 20
-44.28542382995193
 10
193.6489479401513
 20
-44.16675480255185
 10
193.6489479401513
 20
-44.12247531465196
 10
193.6476016654507
 20
-44.06670272145215
 10
193.6435529367511
 20
-44.01436353735211
 10
193.6367868973511
 20
-43.96544810535177
 10
193.6272886902512
 20
-43.9199467686519
 10
193.615043458851
 20
-43.87784987015233
 10
193.600036346151
 20
-43.83914775305192
 10
193.5822524955511
 20
-43.80383076045197
 10
193.5616770500509
 20
-43.7718892353518
 10
193.5382951528511
 20
-43.74331352075193
 10
193.512458539051
 20
-43.71789005015193
 10
193.4835049663509
 20
-43.69541862795195
 10
193.4514329488512
 20
-43.67590965385197
 10
193.4162410010507
 20
-43.65937352775218
 10
193.3779276371511
 20
-43.64582064925181
 10
193.3364913715512
 20
-43.63526141825231
 10
193.2919307185514
 20
-43.62770623455186
 10
193.2442441925511
 20
-43.62316549785234
 10
193.1934303076512
 20
-43.62164960785182
 10
193.1416691773513
 20
-43.62323222965179
 10
193.0919917147511
 20
-43.62798603785219
 10
193.0444090625508
 20
-43.63591994645225
 10
192.998932363351
 20
-43.64704286965201
 10
192.9555727597512
 20
-43.66136372135187
 10
192.914341394351
 20
-43.67889141585202
 10
192.8752494097508
 20
-43.69963486715229
 10
192.838307948551
 20
-43.7236029892519
 10
192.8035281534511
 20
-43.75080469645232
 10
192.7715229916507
 20
-43.78047226275191
 10
192.743313745151
 20
-43.81206081485217
 10
192.7188922426513
 20
-43.84555252445177
 10
192.6982503128511
 20
-43.88092956335206
 10
192.6813797846512
 20
-43.91817410345196
 10
192.668272486751
 20
-43.95726831655218
 10
192.6589202479507
 20
-43.99819437445215
 10
192.6533148968509
 20
-44.04093444905206
 10
192.6514482623512
 20
-44.08547071205188
 10
192.6514482623512
 20
-44.13101921925179
 10
192.6514482623512
 20
-44.25308921835226
 10
192.6514482623512
 20
-44.42981742595221
 10
192.6514482623512
 20
-44.63934055875195
 10
192.6514482623512
 20
-44.85979533325223
 10
192.6514482623512
 20
-45.06931846605198
 10
192.6514482623512
 20
-45.24604667375203
 10
192.6514482623512
 20
-45.36811667285185
 10
192.6514482623512
 20
-45.4136651799523
 10
192.6384764090513
 20
-45.4136651799523
 10
192.603711842151
 20
-45.4136651799523
 10
192.5533810512512
 20
-45.4136651799523
 10
192.4937105260509
 20
-45.4136651799523
 10
192.4309267559508
 20
-45.4136651799523
 10
192.3712562307511
 20
-45.4136651799523
 10
192.3209254398507
 20
-45.4136651799523
 10
192.2861608729511
 20
-45.4136651799523
 10
192.2731890196511
 20
-45.4136651799523
 10
192.2731890196511
 20
-45.35793975715177
 10
192.2731890196511
 20
-45.20859562395194
 10
192.2731890196511
 20
-44.99238098335207
 10
192.2731890196511
 20
-44.7360440383521
 10
192.2731890196511
 20
-44.46633299185185
 10
192.2731890196511
 20
-44.20999604685188
 10
192.2731890196511
 20
-43.99378140625201
 10
192.2731890196511
 20
-43.84443727315228
 10
192.2731890196511
 20
-43.78871185025229
 10
192.2731356589512
 20
-43.76378670185205
 10
192.2729760720514
 20
-43.73902052135207
 10
192.2727110017509
 20
-43.71442519415181
 10
192.2723411909513
 20
-43.69001260575209
 10
192.2718673825513
 20
-43.66579464155236
 10
192.2712903191507
 20
-43.6417831870522
 10
192.2706107438512
 20
-43.61799012765233
 10
192.2698293994513
 20
-43.59442734875219
 10
192.2689470286512
 20
-43.57110673595211
 10
192.267953850851
 20
-43.54796849055192
 10
192.2668982743511
 20
-43.52500704115181
 10
192.265778070851
 20
-43.50222535915201
 10
192.2645910115507
 20
-43.47962641605223
 10
192.2633348681511
 20
-43.45721318295238
 10
192.2620074121508
 20
-43.43498863145227
 10
192.2606064148512
 20
-43.41295573275192
 10
192.2591296477511
 20
-43.39111745825221
 10
192.257574882451
 20
-43.3694767793521
 10
192.2706581618513
 20
-43.3694767793521
 10
192.3057213506508
 20
-43.3694767793521
 10
192.3564844747509
 20
-43.3694767793521
 10
192.4166675599511
 20
-43.3694767793521
 10
192.4799906322509
 20
-43.3694767793521
 10
192.540173717451
 20
-43.3694767793521
 10
192.5909368415511
 20
-43.3694767793521
 10
192.6260000303513
 20
-43.3694767793521
 10
192.6390833097509
 20
-43.3694767793521
 10
192.6395073478509
 20
-43.38091961925228
 10
192.6406437701512
 20
-43.4115864299523
 10
192.642289038151
 20
-43.4559846484518
 10
192.6442396136511
 20
-43.50862171165232
 10
192.646291958351
 20
-43.56400505645214
 10
192.6482425338511
 20
-43.61664211965202
 10
192.649887801951
 20
-43.66104033815217
 10
192.6510242241512
 20
-43.69170714885218
 10
192.6514482623512
 20
-43.70314998865226
 10
192.6514482623512
 20
-43.70314998865226
 10
192.6514482623512
 20
-43.70314998865226
 10
192.6514482623512
 20
-43.70314998865226
 10
192.6514482623512
 20
-43.70314998865226
 10
192.6514482623512
 20
-43.70314998865226
 10
192.6514482623512
 20
-43.70314998865226
 10
192.6514482623512
 20
-43.70314998865226
 10
192.6514482623512
 20
-43.70314998865226
 10
192.6514482623512
 20
-43.70314998865226
  0
LWPOLYLINE
  5
CB
330
70
100
AcDbEntity
  8
CK_LEVEL_1
 62
     1
420
 16711680
370
    25
100
AcDbPolyline
 90
      307
 70
     0
 43
0.0
 10
194.5052885973514
 20
-44.79929852175234
 10
194.5182604506513
 20
-44.79929852175234
 10
194.553025017551
 20
-44.79929852175234
 10
194.6033558083513
 20
-44.79929852175234
 10
194.663026333651
 20
-44.79929852175234
 10
194.7258101036511
 20
-44.79929852175234
 10
194.7854806289508
 20
-44.79929852175234
 10
194.8358114197511
 20
-44.79929852175234
 10
194.8705759866508
 20
-44.79929852175234
 10
194.8835478399508
 20
-44.79929852175234
 10
194.8835478399508
 20
-44.79958018205205
 10
194.8835478399508
 20
-44.80033503195175
 10
194.8835478399508
 20
-44.80142787415181
 10
194.8835478399508
 20
-44.80272351195194
 10
194.8835478399508
 20
-44.80408674815194
 10
194.8835478399508
 20
-44.80538238595207
 10
194.8835478399508
 20
-44.80647522815213
 10
194.8835478399508
 20
-44.80723007805184
 10
194.8835478399508
 20
-44.80751173835218
 10
194.8849958838511
 20
-44.84390721175187
 10
194.889342491551
 20
-44.87861346565213
 10
194.8965913774511
 20
-44.91164609975216
 10
194.9067462555512
 20
-44.94302071375236
 10
194.919810840051
 20
-44.97275290725182
 10
194.935788845351
 20
-45.00085827985213
 10
194.9546839854512
 20
-45.02735243135192
 10
194.9764999747507
 20
-45.05225096135217
 10
195.0012405272509
 20
-45.07556946945192
 10
195.0284062066509
 20
-45.09676085355222
 10
195.0575508132513
 20
-45.11550086385226
 10
195.0886676615511
 20
-45.13177835765189
 10
195.1217500659512
 20
-45.14558219235226
 10
195.1567913409511
 20
-45.15690122545215
 10
195.1937848009511
 20
-45.16572431425197
 10
195.2327237603507
 20
-45.17204031605221
 10
195.2736015336507
 20
-45.17583808845232
 10
195.3164114352514
 20
-45.17710648875213
 10
195.3577361509512
 20
-45.17598455185217
 10
195.3973434192511
 20
-45.17262369355188
 10
195.4352206118509
 20
-45.16703134215229
 10
195.471355100551
 20
-45.15921492615208
 10
195.5057342570513
 20
-45.14918187395235
 10
195.5383454529508
 20
-45.13693961385222
 10
195.5691760599507
 20
-45.12249557435226
 10
195.5982134499509
 20
-45.10585718385232
 10
195.6254449945511
 20
-45.08703187065216
 10
195.6501979277507
 20
-45.06652352845208
 10
195.6720470971508
 20
-45.04470927255235
 10
195.6909902743508
 20
-45.02158687435207
 10
195.7070252307511
 20
-44.99715410545188
 10
195.7201497377509
 20
-44.97140873725217
 10
195.7303615669507
 20
-44.9443485412522
 10
195.7376584898511
 20
-44.91597128895183
 10
195.7420382777511
 20
-44.88627475175213
 10
195.7434987023508
 20
-44.85525670125176
 10
195.7427692328513
 20
-44.83216946425218
 10
195.7405778532509
 20
-44.8100865475521
 10
195.736920106251
 20
-44.7890161226523
 10
195.7317915350509
 20
-44.76896636065191
 10
195.7251876824508
 20
-44.74994543285216
 10
195.7171040914511
 20
-44.73196151045225
 10
195.7075363050509
 20
-44.71502276475216
 10
195.696479866051
 20
-44.69913736695234
 10
195.6839303176508
 20
-44.68431348825203
 10
195.6699048687508
 20
-44.67013130005205
 10
195.6541396873509
 20
-44.65681897815183
 10
195.6366600298511
 20
-44.64436389425176
 10
195.6174911529507
 20
-44.63275342005231
 10
195.5966583132508
 20
-44.62197492735209
 10
195.574186767151
 20
-44.61201578775209
 10
195.5501017714511
 20
-44.60286337295207
 10
195.5244285826509
 20
-44.59450505475197
 10
195.4971924572506
 20
-44.5869282048522
 10
195.4823294556512
 20
-44.58342447355188
 10
195.4424966113513
 20
-44.57403447365208
 10
195.3848281652509
 20
-44.56043999605213
 10
195.3164583580511
 20
-44.54432283205182
 10
195.2445214303509
 20
-44.52736477245232
 10
195.1761516231511
 20
-44.51124760845202
 10
195.1184831769513
 20
-44.49765313085207
 10
195.0786503327508
 20
-44.48826313095226
 10
195.0637873311508
 20
-44.48475939965194
 10
195.0044736170512
 20
-44.46990630265216
 10
194.9486200541511
 20
-44.4533216442521
 10
194.8962303568509
 20
-44.43499873895205
 10
194.8473082393508
 20
-44.41493090115216
 10
194.801857415751
 20
-44.39311144525196
 10
194.7598816003512
 20
-44.36953368585181
 10
194.7213845072509
 20
-44.34419093725178
 10
194.6863698506509
 20
-44.31707651385204
 10
194.6548413449511
 20
-44.2881837302523
 10
194.6267025444511
 20
-44.25780415115236
 10
194.6018574989511
 20
-44.22569078225214
 10
194.5803106656511
 20
-44.19184139495205
 10
194.5620665014511
 20
-44.15625376075195
 10
194.5471294634509
 20
-44.11892565105227
 10
194.5355040086513
 20
-44.07985483745234
 10
194.5271945940507
 20
-44.03903909135193
 10
194.5222056768509
 20
-43.9964761842522
 10
194.5205417140507
 20
-43.95216388765239
 10
194.5233527465508
 20
-43.89107874635203
 10
194.5317848535508
 20
-43.83261954645198
 10
194.5458365494508
 20
-43.77679148775185
 10
194.565506348451
 20
-43.7235997703522
 10
194.5907927649509
 20
-43.6730495938518
 10
194.6216943133512
 20
-43.62514615835186
 10
194.6582095078514
 20
-43.57989466365198
 10
194.700336862751
 20
-43.5373003096519
 10
194.7480748924512
 20
-43.49736829615188
 10
194.800491827151
 20
-43.46086758705193
 10
194.8564714253509
 20
-43.42868055315221
 10
194.9160062583508
 20
-43.40080199445225
 10
194.979088897951
 20
-43.3772267111518
 10
195.0457119155508
 20
-43.3579495033518
 10
195.1158678829513
 20
-43.34296517115185
 10
195.1895493716512
 20
-43.33226851465227
 10
195.2667489532513
 20
-43.32585433405213
 10
195.3474591993511
 20
-43.32371742935229
 10
195.4222064166513
 20
-43.32550445615212
 10
195.493372399651
 20
-43.33086008895224
 10
195.560952691151
 20
-43.33977615665225
 10
195.6249428342512
 20
-43.35224448785209
 10
195.6853383719508
 20
-43.36825691135191
 10
195.7421348470511
 20
-43.38780525605198
 10
195.7953278025513
 20
-43.41088135045211
 10
195.8449127815512
 20
-43.43747702345194
 10
195.890885326751
 20
-43.46758410385224
 10
195.932492198051
 20
-43.50104882355238
 10
195.9692208354509
 20
-43.53712165645225
 10
196.0010667817508
 20
-43.57580334545196
 10
196.0280255799511
 20
-43.61709463335218
 10
196.0500927731509
 20
-43.66099626295226
 10
196.0672639041512
 20
-43.7075089770522
 10
196.079534515951
 20
-43.75663351865223
 10
196.0869001515508
 20
-43.80837063055235
 10
196.0893563538514
 20
-43.86272105545182
 10
196.0893552396514
 20
-43.8680724788519
 10
196.0893474398509
 20
-43.87311413775207
 10
196.0893262688507
 20
-43.87784380365218
 10
196.0892850412513
 20
-43.88225924795202
 10
196.0892170712512
 20
-43.88635824215209
 10
196.0891156735509
 20
-43.89013855775229
 10
196.0889741624512
 20
-43.89359796625184
 10
196.088785852351
 20
-43.89673423915189
 10
196.088544057751
 20
-43.89954514785222
 10
196.0883350719511
 20
-43.90233723785231
 10
196.0880755729511
 20
-43.90506098665186
 10
196.0877752177509
 20
-43.90772159385221
 10
196.0874436632512
 20
-43.91032425965213
 10
196.0870905663508
 20
-43.91287418365227
 10
196.0867255840508
 20
-43.91537656585184
 10
196.0863583731513
 20
-43.91783660625192
 10
196.0859985907511
 20
-43.92025950455205
 10
196.0856558936507
 20
-43.92265046065194
 10
196.0727459437513
 20
-43.92265046065194
 10
196.0381472778512
 20
-43.92265046065194
 10
195.9880566721509
 20
-43.92265046065194
 10
195.928670902451
 20
-43.92265046065194
 10
195.866186744751
 20
-43.92265046065194
 10
195.8068009750511
 20
-43.92265046065194
 10
195.7567103693508
 20
-43.92265046065194
 10
195.7221117034514
 20
-43.92265046065194
 10
195.7092017535512
 20
-43.92265046065194
 10
195.7092017535512
 20
-43.92211499645232
 10
195.7092017535512
 20
-43.92067995225219
 10
195.7092017535512
 20
-43.91860235105204
 10
195.7092017535512
 20
-43.91613921555203
 10
195.7092017535512
 20
-43.91354756865188
 10
195.7092017535512
 20
-43.91108443315188
 10
195.7092017535512
 20
-43.90900683185225
 10
195.7092017535512
 20
-43.90757178775223
 10
195.7092017535512
 20
-43.90703632345187
 10
195.7079287724513
 20
-43.87494115415221
 10
195.7040989341507
 20
-43.8444170926518
 10
195.6976958960512
 20
-43.81545745335208
 10
195.6887033158513
 20
-43.78805555065195
 10
195.6771048509512
 20
-43.7622046990523
 10
195.662884158851
 20
-43.73789821305211
 10
195.646024897051
 20
-43.71512940695209
 10
195.6265107230513
 20
-43.69389159535197
 10
195.604325294451
 20
-43.67417809245234
 10
195.5804282374514
 20
-43.65614316175194
 10
195.5545886522509
 20
-43.64024389755202
 10
195.5268095104508
 20
-43.62647658585192
 10
195.4970937832509
 20
-43.61483751225183
 10
195.465444442051
 20
-43.60532296275235
 10
195.4318644582511
 20
-43.59792922305185
 10
195.3963568031509
 20
-43.59265257885192
 10
195.3589244482513
 20
-43.58948931615187
 10
195.319570364751
 20
-43.58843572065199
 10
195.2810033208507
 20
-43.58948931615187
 10
195.2439992134511
 20
-43.59265257885192
 10
195.2085498713509
 20
-43.59792922305185
 10
195.1746471233509
 20
-43.60532296275235
 10
195.1422827981512
 20
-43.61483751225183
 10
195.1114487244512
 20
-43.62647658585192
 10
195.0821367311511
 20
-43.64024389755202
 10
195.054338646851
 20
-43.65614316175194
 10
195.0280463003508
 20
-43.67417809245234
 10
195.0038937061509
 20
-43.69364101045186
 10
194.9825297353511
 20
-43.71412756265219
 10
194.9639685020511
 20
-43.73564517765211
 10
194.9482241201513
 20
-43.75820128365188
 10
194.9353107036511
 20
-43.7818033092522
 10
194.9252423664509
 20
-43.80645868275219
 10
194.9180332226511
 20
-43.83217483255231
 10
194.9136973860511
 20
-43.85895918705176
 10
194.9122489707507
 20
-43.88681917475179
 10
194.9131199513512
 20
-43.90832242815181
 10
194.9157269502508
 20
-43.9289045591518
 10
194.9200610535512
 20
-43.94856036805227
 10
194.9261133470507
 20
-43.96728465485209
 10
194.9338749166509
 20
-43.98507221975231
 10
194.9433368482512
 20
-44.0019178627518
 10
194.9544902279511
 20
-44.01781638415235
 10
194.9673261414511
 20
-44.0327625838521
 10
194.9818356746512
 20
-44.04675126205209
 10
194.9984766651508
 20
-44.0601616389518
 10
195.0173543485511
 20
-44.07308545525204
 10
195.0384724390513
 20
-44.08553756775186
 10
195.0618346509509
 20
-44.09753283335235
 10
195.0874446983509
 20
-44.10908610875178
 10
195.1153062955508
 20
-44.120212250952
 10
195.1454231566509
 20
-44.13092611655183
 10
195.1777989958513
 20
-44.14124256245234
 10
195.2124375274511
 20
-44.15117644545194
 10
195.2283962188511
 20
-44.15553753865232
 10
195.2711655118512
 20
-44.16722526825236
 10
195.3330852345509
 20
-44.18414630955234
 10
195.4064952149508
 20
-44.20420733795196
 10
195.483735281351
 20
-44.22531502875215
 10
195.5571452618509
 20
-44.24537605715176
 10
195.6190649845513
 20
-44.26229709855184
 10
195.6618342775508
 20
-44.27398482815187
 10
195.6777929689514
 20
-44.27834592125216
 10
195.7297211145509
 20
-44.29348080245218
 10
195.7785753860509
 20
-44.31035987335205
 10
195.8243438977509
 20
-44.32897570545178
 10
195.8670147643509
 20
-44.3493208703522
 10
195.9065761003508
 20
-44.37138793975228
 10
195.943016020351
 20
-44.39516948505196
 10
195.9763226388508
 20
-44.42065807805225
 10
196.0064840703512
 20
-44.44784629025192
 10
196.0334884294509
 20
-44.47672669325178
 10
196.0577805539512
 20
-44.50783710355199
 10
196.0792119993511
 20
-44.54093461245208
 10
196.0977835086514
 20
-44.57601401995222
 10
196.1134958246507
 20
-44.61307012615207
 10
196.126349690051
 20
-44.65209773115187
 10
196.1363458479511
 20
-44.69309163525216
 10
196.1434850409511
 20
-44.73604663835233
 10
196.1477680120509
 20
-44.78095754065215
 10
196.1491955039507
 20
-44.82781914225189
 10
196.1464770789508
 20
-44.89061739765226
 10
196.1383188324512
 20
-44.95059880175204
 10
196.1247163074512
 20
-45.00774775465185
 10
196.1056650470512
 20
-45.06204865695222
 10
196.0811605939514
 20
-45.11348590875186
 10
196.0511984913509
 20
-45.16204391065191
 10
196.0157742820513
 20
-45.20770706285184
 10
195.974883509051
 20
-45.25045976575196
 10
195.9285217152511
 20
-45.29028641965182
 10
195.8775228631513
 20
-45.32662593225192
 10
195.8227184388509
 20
-45.35868742615239
 10
195.7641002710512
 20
-45.38647164405183
 10
195.7016601885512
 20
-45.40997932895176
 10
195.6353900201508
 20
-45.42921122345195
 10
195.5652815945509
 20
-45.44416807055201
 10
195.491326740551
 20
-45.45485061305192
 10
195.413517286851
 20
-45.46125959385179
 10
195.331845062151
 20
-45.46339575565218
 10
195.2399475134507
 20
-45.46155313965233
 10
195.1536056692511
 20
-45.45602232025194
 10
195.0728128440512
 20
-45.44679884035192
 10
194.9975623522511
 20
-45.43387824305212
 10
194.9278475083511
 20
-45.41725607125221
 10
194.8636616267508
 20
-45.39692786785182
 10
194.8049980218508
 20
-45.37288917585198
 10
194.751850008151
 20
-45.34513553815235
 10
194.7042109000508
 20
-45.31366249785213
 10
194.6624221566513
 20
-45.27865266975187
 10
194.6255636460511
 20
-45.23944579255218
 10
194.593631654051
 20
-45.19603666615182
 10
194.566622466451
 20
-45.14842009095206
 10
194.5445323689513
 20
-45.0965908668523
 10
194.5273576475512
 20
-45.04054379405229
 10
194.515094587951
 20
-44.98027367265232
 10
194.5077394759512
 20
-44.91577530285215
 10
194.5052885973514
 20
-44.84704348455181
 10
194.5052885973514
 20
-44.84540614015227
 10
194.5052885973514
 20
-44.8410180571519
 10
194.5052885973514
 20
-44.83466516085192
 10
194.5052885973514
 20
-44.82713337665175
 10
194.5052885973514
 20
-44.81920862965177
 10
194.5052885973514
 20
-44.81167684545224
 10
194.5052885973514
 20
-44.80532394915226
 10
194.5052885973514
 20
-44.80093586615189
 10
194.5052885973514
 20
-44.79929852175234
 10
194.5052885973514
 20
-44.79929852175234
 10
194.5052885973514
 20
-44.79929852175234
 10
194.5052885973514
 20
-44.79929852175234
 10
194.5052885973514
 20
-44.79929852175234
 10
194.5052885973514
 20
-44.79929852175234
 10
194.5052885973514
 20
-44.79929852175234
 10
194.5052885973514
 20
-44.79929852175234
 10
194.5052885973514
 20
-44.79929852175234
 10
194.5052885973514
 20
-44.79929852175234
  0
LWPOLYLINE
  5
CC
330
70
100
AcDbEntity
  8
CK_LEVEL_1
 62
     1
420
 16711680
370
    25
100
AcDbPolyline
 90
       15
 70
     0
 43
0.0
 10
198.2355330494509
 20
-43.3694767793521
 10
198.7002567049509
 20
-45.00995399115202
 10
199.2215703259512
 20
-43.3694767793521
 10
199.5872841057513
 20
-43.3694767793521
 10
198.879593644851
 20
-45.4136651799523
 10
198.4837346522512
 20
-45.4136651799523
 10
197.9902196107509
 20
-43.69574906815214
 10
197.4533821076513
 20
-45.4136651799523
 10
197.0530103586511
 20
-45.4136651799523
 10
196.3836783272511
 20
-43.3694767793521
 10
196.7531828224514
 20
-43.3694767793521
 10
197.2624022562513
 20
-45.00995399115202
 10
197.7755929156511
 20
-43.3694767793521
 10
198.2355330494509
 20
-43.3694767793521
 10
198.2355330494509
 20
-43.3694767793521
  0
LWPOLYLINE
  5
CD
330
70
100
AcDbEntity
  8
CK_LEVEL_1
 62
     1
420
 16711680
370
    25
100
AcDbPolyline
 90
       73
 70
     0
 43
0.0
 10
200.2354964371512
 20
-44.18845181345196
 10
200.2716542014511
 20
-44.18845181345196
 10
200.3685570099511
 20
-44.18845181345196
 10
200.508849135651
 20
-44.18845181345196
 10
200.6751748517511
 20
-44.18845181345196
 10
200.8501784312509
 20
-44.18845181345196
 10
201.0165041472509
 20
-44.18845181345196
 10
201.1567962729507
 20
-44.18845181345196
 10
201.2536990814508
 20
-44.18845181345196
 10
201.2898568457513
 20
-44.18845181345196
 10
201.2898568457513
 20
-44.18689803865222
 10
201.2898568457513
 20
-44.18273392205185
 10
201.2898568457513
 20
-44.17670527565212
 10
201.2898568457513
 20
-44.16955791135223
 10
201.2898568457513
 20
-44.16203764115215
 10
201.2898568457513
 20
-44.15489027685227
 10
201.2898568457513
 20
-44.14886163045189
 10
201.2898568457513
 20
-44.14469751395228
 10
201.2898568457513
 20
-44.14314373905177
 10
201.2881159989512
 20
-44.08776398475187
 10
201.2828964297508
 20
-44.0348051477521
 10
201.2742025952512
 20
-43.98426797105201
 10
201.2620389524514
 20
-43.93615319735214
 10
201.246409958451
 20
-43.8904615696521
 10
201.2273200702509
 20
-43.84719383065177
 10
201.2047737449509
 20
-43.8063507232519
 10
201.1787754395512
 20
-43.76793299025186
 10
201.1493296110514
 20
-43.73194137455175
 10
201.1172677457509
 20
-43.69934627355178
 10
201.0831727258508
 20
-43.67057754425182
 10
201.0470371228513
 20
-43.64563741525212
 10
201.0088535084511
 20
-43.62452811505213
 10
200.9686144542512
 20
-43.60725187205189
 10
200.926312531851
 20
-43.59381091495238
 10
200.8819403127512
 20
-43.58420747215232
 10
200.8354903685508
 20
-43.57844377225195
 10
200.7869552709512
 20
-43.57652204365193
 10
200.7337992098507
 20
-43.57859271175214
 10
200.6828813273511
 20
-43.58481065865236
 10
200.6342068233509
 20
-43.59518479855203
 10
200.587780897651
 20
-43.60972404545229
 10
200.5436087502512
 20
-43.62843731345182
 10
200.5016955810512
 20
-43.65133351665185
 10
200.4620465898513
 20
-43.67842156925182
 10
200.4246669765513
 20
-43.70971038505202
 10
200.3895619411508
 20
-43.74520887845207
 10
200.3572272057513
 20
-43.78410883875229
 10
200.3286965568511
 20
-43.8255961127522
 10
200.3039699944513
 20
-43.86967070035232
 10
200.2830475186508
 20
-43.91633260165213
 10
200.2659291292513
 20
-43.96558181665226
 10
200.2526148264512
 20
-44.01741834535207
 10
200.2431046101509
 20
-44.07184218775221
 10
200.2373984803511
 20
-44.12885334375193
 10
200.2354964371512
 20
-44.18845181345196
 10
200.2354964371512
 20
-44.18845181345196
 10
200.2354964371512
 20
-44.18845181345196
 10
200.2354964371512
 20
-44.18845181345196
 10
200.2354964371512
 20
-44.18845181345196
 10
200.2354964371512
 20
-44.18845181345196
 10
200.2354964371512
 20
-44.18845181345196
 10
200.2354964371512
 20
-44.18845181345196
 10
200.2354964371512
 20
-44.18845181345196
 10
200.2354964371512
 20
-44.18845181345196
 10
200.2354964371512
 20
-44.18845181345196
 10
200.2354964371512
 20
-44.18845181345196
 10
200.2354964371512
 20
-44.18845181345196
 10
200.2354964371512
 20
-44.18845181345196
 10
200.2354964371512
 20
-44.18845181345196
 10
200.2354964371512
 20
-44.18845181345196
 10
200.2354964371512
 20
-44.18845181345196
 10
200.2354964371512
 20
-44.18845181345196
 10
200.2354964371512
 20
-44.18845181345196
  0
LWPOLYLINE
  5
CE
330
70
100
AcDbEntity
  8
CK_LEVEL_1
 62
     1
420
 16711680
370
    25
100
AcDbPolyline
 90
      172
 70
     0
 43
0.0
 10
201.6353534768513
 20
-44.75723963195189
 10
201.6321824143508
 20
-44.82651570465192
 10
201.6235031889511
 20
-44.89270453205206
 10
201.6093031726507
 20
-44.95580759975231
 10
201.5895697368509
 20
-45.01582639335206
 10
201.564290253551
 20
-45.07276239875226
 10
201.5334520942507
 20
-45.12661710145219
 10
201.4970426307513
 20
-45.17739198715196
 10
201.4550492347511
 20
-45.22508854155236
 10
201.4074592779507
 20
-45.26970825035218
 10
201.3555037709509
 20
-45.31041417985217
 10
201.2999930290511
 20
-45.34631170245208
 10
201.240915166751
 20
-45.37740601785206
 10
201.1782582986512
 20
-45.40370232615204
 10
201.1120105392508
 20
-45.42520582715228
 10
201.0421600031511
 20
-45.44192172065238
 10
200.9686948048511
 20
-45.45385520675227
 10
200.8916030589509
 20
-45.46101148505202
 10
200.8108728799514
 20
-45.46339575565218
 10
200.707569138151
 20
-45.46015610415197
 10
200.6099444124511
 20
-45.45043516875208
 10
200.5180083598513
 20
-45.43422997805226
 10
200.4317706370512
 20
-45.41153756075177
 10
200.3512409012512
 20
-45.38235494555237
 10
200.276428809251
 20
-45.34667916085235
 10
200.2073440179508
 20
-45.30450723555177
 10
200.143996184251
 20
-45.25583619805213
 10
200.0863949652512
 20
-45.20066307725222
 10
200.0346728339512
 20
-45.13951491825191
 10
199.9890189672512
 20
-45.07226432415206
 10
199.949437822251
 20
-44.99891946605177
 10
199.9159338557512
 20
-44.91948851515214
 10
199.888511524951
 20
-44.83397964285199
 10
199.8671752869508
 20
-44.74240102025232
 10
199.8519295986513
 20
-44.64476081875193
 10
199.8427789172511
 20
-44.54106720945182
 10
199.8397276996509
 20
-44.43132836365196
 10
199.8427459846512
 20
-44.31458688375182
 10
199.8517998491512
 20
-44.20413429195204
 10
199.866887807651
 20
-44.0999616743522
 10
199.888008374351
 20
-44.00206011675225
 10
199.915160063551
 20
-43.91042070505222
 10
199.948341389551
 20
-43.82503452525226
 10
199.9875508667509
 20
-43.7458926631523
 10
200.0327870094513
 20
-43.67298620485195
 10
200.0840483318513
 20
-43.60630623605231
 10
200.1407112194509
 20
-43.54617985425217
 10
200.2025249635509
 20
-43.49312160045205
 10
200.2695059065509
 20
-43.44713296035208
 10
200.3416703910509
 20
-43.40821541945215
 10
200.4190347594512
 20
-43.37637046365196
 10
200.501615354251
 20
-43.35159957845205
 10
200.5894285180508
 20
-43.3339042495519
 10
200.6824905931509
 20
-43.32328596275238
 10
200.7808179222512
 20
-43.31974620375233
 10
200.871033556151
 20
-43.32269305225199
 10
200.9568404313514
 20
-43.33152765505192
 10
201.0382422620508
 20
-43.34624109805212
 10
201.1152427623512
 20
-43.36682446715203
 10
201.187845646551
 20
-43.39326884835175
 10
201.2560546288511
 20
-43.42556532745188
 10
201.3198734234512
 20
-43.46370499045193
 10
201.3793057444507
 20
-43.50767892315182
 10
201.4343553061507
 20
-43.55747821165179
 10
201.4843911893509
 20
-43.61232262555184
 10
201.5285905741509
 20
-43.67143540135232
 10
201.5669400896514
 20
-43.73481282475223
 10
201.5994263645513
 20
-43.80245118175217
 10
201.6260360276509
 20
-43.87434675785224
 10
201.6467557080508
 20
-43.95049583915186
 10
201.6615720345509
 20
-44.03089471125186
 10
201.6704716358512
 20
-44.115539659952
 10
201.6734411410511
 20
-44.20442697115215
 10
201.6734090750511
 20
-44.22593876725213
 10
201.6733183247512
 20
-44.24629990325235
 10
201.6731770611509
 20
-44.26549626525195
 10
201.6729934557512
 20
-44.2835137392519
 10
201.6727756796512
 20
-44.30033821135198
 10
201.6725319041513
 20
-44.31595556745176
 10
201.6722703004509
 20
-44.33035169375178
 10
201.6719990398512
 20
-44.34351247615224
 10
201.6717262935513
 20
-44.35542380085176
 10
201.6710787842512
 20
-44.36697398105181
 10
201.6704505887509
 20
-44.37834216545217
 10
201.6698275930509
 20
-44.38953355375235
 10
201.6691956833511
 20
-44.40055334585208
 10
201.6685407456511
 20
-44.41140674165233
 10
201.6678486658511
 20
-44.42209894115231
 10
201.6671053300509
 20
-44.43263514405217
 10
201.6662966242509
 20
-44.44302055035235
 10
201.6654084345509
 20
-44.45326035985185
 10
201.6156938299508
 20
-44.45326035985185
 10
201.4824586896509
 20
-44.45326035985185
 10
201.2895660237508
 20
-44.45326035985185
 10
201.0608788424509
 20
-44.45326035985185
 10
200.8202601561507
 20
-44.45326035985185
 10
200.591572974951
 20
-44.45326035985185
 10
200.3986803090509
 20
-44.45326035985185
 10
200.2654451686508
 20
-44.45326035985185
 10
200.2157305640514
 20
-44.45326035985185
 10
200.2157305640514
 20
-44.45462842455221
 10
200.2157305640514
 20
-44.45829483795239
 10
200.2157305640514
 20
-44.46360292905203
 10
200.2157305640514
 20
-44.46989602665186
 10
200.2157305640514
 20
-44.4765174597522
 10
200.2157305640514
 20
-44.48281055745215
 10
200.2157305640514
 20
-44.48811864845232
 10
200.2157305640514
 20
-44.49178506185186
 10
200.2157305640514
 20
-44.49315312655222
 10
200.2157305640514
 20
-44.49595115935212
 10
200.2157305640514
 20
-44.50344988725215
 10
200.2157305640514
 20
-44.514306254452
 10
200.2157305640514
 20
-44.52717720525217
 10
200.2157305640514
 20
-44.54071968385235
 10
200.2157305640514
 20
-44.55359063465187
 10
200.2157305640514
 20
-44.56444700185236
 10
200.2157305640514
 20
-44.57194572975239
 10
200.2157305640514
 20
-44.5747437625523
 10
200.2175827131507
 20
-44.63765864395206
 10
200.2231401510513
 20
-44.69727977025228
 10
200.2324043633509
 20
-44.75360937015199
 10
200.2453768356511
 20
-44.80664967195177
 10
200.2620590537508
 20
-44.85640290425181
 10
200.2824525033513
 20
-44.90287129565238
 10
200.3065586700513
 20
-44.94605707455219
 10
200.334379039551
 20
-44.98596246955211
 10
200.3659150975512
 20
-45.0225897091523
 10
200.4003869852513
 20
-45.05575927345187
 10
200.4379208617511
 20
-45.08504601025228
 10
200.4785234125509
 20
-45.11044471955178
 10
200.5222013233511
 20
-45.13195020145192
 10
200.5689612796511
 20
-45.14955725605235
 10
200.618809966951
 20
-45.16326068345207
 10
200.6717540709509
 20
-45.17305528395221
 10
200.7278002770509
 20
-45.17893585745219
 10
200.7869552709512
 20
-45.18089720415176
 10
200.835818951751
 20
-45.17948679755182
 10
200.8823560558509
 20
-45.17525656815223
 10
200.9265799544513
 20
-45.16820800165183
 10
200.9685040186512
 20
-45.158342583752
 10
201.0081416196514
 20
-45.14566180015224
 10
201.0455061284508
 20
-45.1301671364519
 10
201.0806109163511
 20
-45.11186007845186
 10
201.1134693543512
 20
-45.09074211165202
 10
201.1440948136507
 20
-45.06681472195208
 10
201.1719588868508
 20
-45.04025693385222
 10
201.1965923465513
 20
-45.01173061815179
 10
201.2180070781508
 20
-44.98123948925184
 10
201.2362149669508
 20
-44.9487872611518
 10
201.2512278984512
 20
-44.91437764825209
 10
201.2630577582513
 20
-44.87801436475234
 10
201.271716431651
 20
-44.83970112465192
 10
201.277215804151
 20
-44.79944164235194
 10
201.2795677611509
 20
-44.75723963195189
 10
201.2917689173512
 20
-44.75723963195189
 10
201.3244680160511
 20
-44.75723963195189
 10
201.3718085022508
 20
-44.75723963195189
 10
201.4279338209511
 20
-44.75723963195189
 10
201.486987417051
 20
-44.75723963195189
 10
201.5431127357513
 20
-44.75723963195189
 10
201.5904532219511
 20
-44.75723963195189
 10
201.6231523206509
 20
-44.75723963195189
 10
201.6353534768513
 20
-44.75723963195189
 10
201.6353534768513
 20
-44.75723963195189
 10
201.6353534768513
 20
-44.75723963195189
 10
201.6353534768513
 20
-44.75723963195189
 10
201.6353534768513
 20
-44.75723963195189
 10
201.6353534768513
 20
-44.75723963195189
 10
201.6353534768513
 20
-44.75723963195189
 10
201.6353534768513
 20
-44.75723963195189
 10
201.6353534768513
 20
-44.75723963195189
 10
201.6353534768513
 20
-44.75723963195189
  0
LWPOLYLINE
  5
CF
330
70
100
AcDbEntity
  8
CK_LEVEL_1
 62
     1
420
 16711680
370
    25
100
AcDbPolyline
 90
      154
 70
     0
 43
0.0
 10
202.1903322607511
 20
-45.4136651799523
 10
202.1903322607511
 20
-45.35460935525215
 10
202.1903322607511
 20
-45.19633974515201
 10
202.1903322607511
 20
-44.96720314535203
 10
202.1903322607511
 20
-44.695546351852
 10
202.1903322607511
 20
-44.40971616035206
 10
202.1903322607511
 20
-44.13805936685203
 10
202.1903322607511
 20
-43.90892276705204
 10
202.1903322607511
 20
-43.75065315695191
 10
202.1903322607511
 20
-43.69159733225176
 10
202.1903166610513
 20
-43.66934232425216
 10
202.1902609480509
 20
-43.64781678565197
 10
202.1901517504506
 20
-43.62700808825238
 10
202.1899756972513
 20
-43.60690360365178
 10
202.189719417251
 20
-43.58749070365201
 10
202.189369539351
 20
-43.5687567598521
 10
202.1889126923509
 20
-43.55068914415209
 10
202.1883355052513
 20
-43.53327522805218
 10
202.1876246068511
 20
-43.51650238335229
 10
202.1869853925512
 20
-43.50018106195233
 10
202.1862681799513
 20
-43.48383522685209
 10
202.1854685121511
 20
-43.46747379205203
 10
202.1845819319509
 20
-43.45110567165215
 10
202.1836039823511
 20
-43.43473977985185
 10
202.1825302062513
 20
-43.41838503055218
 10
202.1813561467507
 20
-43.40205033805201
 10
202.1800773467509
 20
-43.38574461625174
 10
202.178689349151
 20
-43.3694767793521
 10
202.1916612024509
 20
-43.3694767793521
 10
202.2264257693513
 20
-43.3694767793521
 10
202.276756560251
 20
-43.3694767793521
 10
202.3364270854513
 20
-43.3694767793521
 10
202.3992108555508
 20
-43.3694767793521
 10
202.4588813807511
 20
-43.3694767793521
 10
202.5092121716509
 20
-43.3694767793521
 10
202.5439767384511
 20
-43.3694767793521
 10
202.5569485918511
 20
-43.3694767793521
 10
202.557227157051
 20
-43.38289433705208
 10
202.5579737117508
 20
-43.41885339155235
 10
202.5590545448511
 20
-43.47091351525217
 10
202.560335944751
 20
-43.53263428045196
 10
202.5616842003508
 20
-43.59757525945212
 10
202.5629656003509
 20
-43.65929602465191
 10
202.5640464333511
 20
-43.71135614835238
 10
202.564792988151
 20
-43.74731520285201
 10
202.5650715533508
 20
-43.76073276055199
 10
202.578538014651
 20
-43.71878504925229
 10
202.5942010555506
 20
-43.67916911445202
 10
202.6120510190511
 20
-43.64189015605217
 10
202.632078248151
 20
-43.60695337395184
 10
202.6542730861513
 20
-43.57436396805201
 10
202.6786258758508
 20
-43.54412713815232
 10
202.7051269605513
 20
-43.51624808425194
 10
202.7337666831512
 20
-43.49073200625186
 10
202.7645353868507
 20
-43.46758410385224
 10
202.7976218769512
 20
-43.44689067055235
 10
202.8328588904513
 20
-43.428667924852
 10
202.8702441987514
 20
-43.41290621005207
 10
202.909775573551
 20
-43.39959586905239
 10
202.9514507861511
 20
-43.38872724495233
 10
202.9952676081509
 20
-43.38029068085194
 10
203.041223810951
 20
-43.3742765198519
 10
203.0893171660511
 20
-43.37067510505223
 10
203.1395454448511
 20
-43.3694767793521
 10
203.1488669796511
 20
-43.36949807415204
 10
203.1580659457513
 20
-43.36956691075193
 10
203.1671534858507
 20
-43.36969071745214
 10
203.1761407423511
 20
-43.36987692285208
 10
203.1850388580508
 20
-43.37013295525212
 10
203.193858975451
 20
-43.37046624305211
 10
203.2026122371513
 20
-43.37088421465191
 10
203.2113097859511
 20
-43.37139429855208
 10
203.2199627642513
 20
-43.37200392295229
 10
203.2285605246513
 20
-43.3727451540521
 10
203.2370854867511
 20
-43.37364163885193
 10
203.2455383933513
 20
-43.37468817735196
 10
203.2539199872513
 20
-43.37587956985203
 10
203.262231011251
 20
-43.37721061625222
 10
203.2704722082513
 20
-43.37867611695183
 10
203.2786443210514
 20
-43.38027087175212
 10
203.286748092551
 20
-43.38198968105239
 10
203.2947842655512
 20
-43.38382734475208
 10
203.2947842655512
 20
-43.39587993295237
 10
203.2947842655512
 20
-43.4281808690521
 10
203.2947842655512
 20
-43.47494491095227
 10
203.2947842655512
 20
-43.53038681635232
 10
203.2947842655512
 20
-43.58872134285227
 10
203.2947842655512
 20
-43.64416324815223
 10
203.2947842655512
 20
-43.69092729005174
 10
203.2947842655512
 20
-43.72322822625223
 10
203.2947842655512
 20
-43.73528081435177
 10
203.2809986304513
 20
-43.73264224465191
 10
203.2675472735511
 20
-43.73019755635203
 10
203.2544101381511
 20
-43.72794006395178
 10
203.2415671676512
 20
-43.72586308165174
 10
203.228998305351
 20
-43.72395992415176
 10
203.2166834945508
 20
-43.72222390575188
 10
203.2046026784513
 20
-43.72064834095175
 10
203.1927358005512
 20
-43.71922654415215
 10
203.1810628039511
 20
-43.71795182975197
 10
203.1697136858512
 20
-43.71661484055196
 10
203.1586498184508
 20
-43.71543236215185
 10
203.1478689733512
 20
-43.71440513745176
 10
203.137368922051
 20
-43.71353390925233
 10
203.1271474359512
 20
-43.71281942045175
 10
203.117202286451
 20
-43.71226241385197
 10
203.1075312451509
 20
-43.71186363225232
 10
203.0981320835509
 20
-43.7116238185523
 10
203.0890025730508
 20
-43.71154371565199
 10
203.0344575238512
 20
-43.71330325725184
 10
202.9827486399511
 20
-43.71858683455236
 10
202.9338907781508
 20
-43.72740187595214
 10
202.8878987951511
 20
-43.73975580965207
 10
202.8447875479507
 20
-43.7556560643523
 10
202.804571893251
 20
-43.77511006815175
 10
202.7672666878512
 20
-43.79812524965238
 10
202.7328867885509
 20
-43.82470903725212
 10
202.701447052151
 20
-43.85486885935207
 10
202.672737873951
 20
-43.88812818365212
 10
202.647436848251
 20
-43.9244814388519
 10
202.625535803751
 20
-43.96392045375221
 10
202.6070265692512
 20
-44.0064370571519
 10
202.5919009735511
 20
-44.05202307775231
 10
202.5801508453509
 20
-44.1006703442522
 10
202.5717680134511
 20
-44.15237068555182
 10
202.5667443064512
 20
-44.20711593025176
 10
202.5650715533508
 20
-44.26489790715216
 10
202.5650715533508
 20
-44.30429321825192
 10
202.5650715533508
 20
-44.40987265215198
 10
202.5650715533508
 20
-44.56272645935185
 10
202.5650715533508
 20
-44.7439448905519
 10
202.5650715533508
 20
-44.93461819655192
 10
202.5650715533508
 20
-45.11583662775196
 10
202.5650715533508
 20
-45.26869043495184
 10
202.5650715533508
 20
-45.3742698688519
 10
202.5650715533508
 20
-45.4136651799523
 10
202.5522204116512
 20
-45.4136651799523
 10
202.5177793518511
 20
-45.4136651799523
 10
202.4679169219508
 20
-45.4136651799523
 10
202.4088016699512
 20
-45.4136651799523
 10
202.3466021440513
 20
-45.4136651799523
 10
202.2874868921511
 20
-45.4136651799523
 10
202.2376244622508
 20
-45.4136651799523
 10
202.2031834024508
 20
-45.4136651799523
 10
202.1903322607511
 20
-45.4136651799523
 10
202.1903322607511
 20
-45.4136651799523
 10
202.1903322607511
 20
-45.4136651799523
 10
202.1903322607511
 20
-45.4136651799523
 10
202.1903322607511
 20
-45.4136651799523
 10
202.1903322607511
 20
-45.4136651799523
 10
202.1903322607511
 20
-45.4136651799523
 10
202.1903322607511
 20
-45.4136651799523
 10
202.1903322607511
 20
-45.4136651799523
 10
202.1903322607511
 20
-45.4136651799523
  0
LWPOLYLINE
  5
D0
330
70
100
AcDbEntity
  8
CK_LEVEL_1
 62
     1
420
 16711680
370
    25
100
AcDbPolyline
 90
       13
 70
     0
 43
0.0
 10
204.0763936765509
 20
-45.4136651799523
 10
203.6984954543508
 20
-45.4136651799523
 10
203.6984954543508
 20
-42.48037351065195
 10
204.0763936765509
 20
-42.48037351065195
 10
204.0763936765509
 20
-44.20424646095184
 10
204.8504216567513
 20
-43.36505427815189
 10
205.3114448519512
 20
-43.36505427815189
 10
204.4597974614508
 20
-44.24820070835231
 10
205.370561961051
 20
-45.4136651799523
 10
204.907733663151
 20
-45.4136651799523
 10
204.0763936765509
 20
-44.31850945335183
 10
204.0763936765509
 20
-45.4136651799523
 10
204.0763936765509
 20
-45.4136651799523
  0
LWPOLYLINE
  5
D1
330
70
100
AcDbEntity
  8
CK_LEVEL_1
 62
     1
420
 16711680
370
    25
100
AcDbPolyline
 90
       12
 70
     0
 43
0.0
 10
205.5240859342507
 20
-45.4136651799523
 10
205.5240859342507
 20
-45.03594746805203
 10
206.6138263531513
 20
-43.64971895275238
 10
205.5917772804511
 20
-43.64971895275238
 10
205.5917772804511
 20
-43.3694767793521
 10
207.0291804535511
 20
-43.3694767793521
 10
207.0291804535511
 20
-43.69917876305231
 10
205.908843546151
 20
-45.12511953485201
 10
207.0253897381508
 20
-45.12511953485201
 10
207.0253897381508
 20
-45.4136651799523
 10
205.5240859342507
 20
-45.4136651799523
 10
205.5240859342507
 20
-45.4136651799523
  0
LWPOLYLINE
  5
D2
330
70
100
AcDbEntity
  8
CK_LEVEL_1
 62
     1
420
 16711680
370
    25
100
AcDbPolyline
 90
       73
 70
     0
 43
0.0
 10
207.7796518452508
 20
-44.18845181345196
 10
207.8157972289508
 20
-44.18845181345196
 10
207.9126668572508
 20
-44.18845181345196
 10
208.0529109458508
 20
-44.18845181345196
 10
208.2191797108512
 20
-44.18845181345196
 10
208.3941233678511
 20
-44.18845181345196
 10
208.5603921327514
 20
-44.18845181345196
 10
208.7006362214509
 20
-44.18845181345196
 10
208.7975058497509
 20
-44.18845181345196
 10
208.8336512333508
 20
-44.18845181345196
 10
208.8336512333508
 20
-44.18689803865222
 10
208.8336512333508
 20
-44.18273392205185
 10
208.8336512333508
 20
-44.17670527565212
 10
208.8336512333508
 20
-44.16955791135223
 10
208.8336512333508
 20
-44.16203764115215
 10
208.8336512333508
 20
-44.15489027685227
 10
208.8336512333508
 20
-44.14886163045189
 10
208.8336512333508
 20
-44.14469751395228
 10
208.8336512333508
 20
-44.14314373905177
 10
208.8319079103508
 20
-44.08776398475187
 10
208.8266843793507
 20
-44.0348051477521
 10
208.8179902972508
 20
-43.98426797105201
 10
208.8058353209508
 20
-43.93615319735214
 10
208.790229107351
 20
-43.8904615696521
 10
208.7711813134509
 20
-43.84719383065177
 10
208.7487015962513
 20
-43.8063507232519
 10
208.7227996124513
 20
-43.76793299025186
 10
208.6934850191509
 20
-43.73194137455175
 10
208.6613369843512
 20
-43.69934627355178
 10
208.6271201385507
 20
-43.67057754425182
 10
208.5908515671508
 20
-43.64563741525212
 10
208.5525483554511
 20
-43.62452811505213
 10
208.5122275887508
 20
-43.60725187205189
 10
208.4699063524512
 20
-43.59381091495238
 10
208.4256017318508
 20
-43.58420747215232
 10
208.3793308122507
 20
-43.57844377225195
 10
208.3311106790508
 20
-43.57652204365193
 10
208.2778469060508
 20
-43.57859271175214
 10
208.2268435968513
 20
-43.58481065865236
 10
208.1781014943511
 20
-43.59518479855203
 10
208.1316213413509
 20
-43.60972404545229
 10
208.0874038807514
 20
-43.62843731345182
 10
208.0454498552512
 20
-43.65133351665185
 10
208.0057600078512
 20
-43.67842156925182
 10
207.9683350813508
 20
-43.70971038505202
 10
207.9331758184511
 20
-43.74520887845207
 10
207.900812112251
 20
-43.78410883875229
 10
207.8723059771511
 20
-43.8255961127522
 10
207.8476440418511
 20
-43.86967070035232
 10
207.8268129354509
 20
-43.91633260165213
 10
207.8097992866514
 20
-43.96558181665226
 10
207.7965897243511
 20
-44.01741834535207
 10
207.7871708774511
 20
-44.07184218775221
 10
207.781529374751
 20
-44.12885334375193
 10
207.7796518452508
 20
-44.18845181345196
 10
207.7796518452508
 20
-44.18845181345196
 10
207.7796518452508
 20
-44.18845181345196
 10
207.7796518452508
 20
-44.18845181345196
 10
207.7796518452508
 20
-44.18845181345196
 10
207.7796518452508
 20
-44.18845181345196
 10
207.7796518452508
 20
-44.18845181345196
 10
207.7796518452508
 20
-44.18845181345196
 10
207.7796518452508
 20
-44.18845181345196
 10
207.7796518452508
 20
-44.18845181345196
 10
207.7796518452508
 20
-44.18845181345196
 10
207.7796518452508
 20
-44.18845181345196
 10
207.7796518452508
 20
-44.18845181345196
 10
207.7796518452508
 20
-44.18845181345196
 10
207.7796518452508
 20
-44.18845181345196
 10
207.7796518452508
 20
-44.18845181345196
 10
207.7796518452508
 20
-44.18845181345196
 10
207.7796518452508
 20
-44.18845181345196
 10
207.7796518452508
 20
-44.18845181345196
  0
LWPOLYLINE
  5
D3
330
70
100
AcDbEntity
  8
CK_LEVEL_1
 62
     1
420
 16711680
370
    25
100
AcDbPolyline
 90
      172
 70
     0
 43
0.0
 10
209.1788770990508
 20
-44.75723963195189
 10
209.1758435858508
 20
-44.82651570465192
 10
209.1672781389509
 20
-44.89270453205206
 10
209.1531711014512
 20
-44.95580759975231
 10
209.133512816451
 20
-45.01582639335206
 10
209.108293626951
 20
-45.07276239875226
 10
209.0775038761512
 20
-45.12661710145219
 10
209.0411339069509
 20
-45.17739198715196
 10
208.9991740625507
 20
-45.22508854155236
 10
208.9516146860509
 20
-45.26970825035218
 10
208.8996616552509
 20
-45.31041417985217
 10
208.844108076151
 20
-45.34631170245208
 10
208.7849569202514
 20
-45.37740601785206
 10
208.7222111589511
 20
-45.40370232615204
 10
208.6558737634508
 20
-45.42520582715228
 10
208.5859477051513
 20
-45.44192172065238
 10
208.5124359555511
 20
-45.45385520675227
 10
208.4353414859509
 20
-45.46101148505202
 10
208.3546672675509
 20
-45.46339575565218
 10
208.2513283646512
 20
-45.46015610415197
 10
208.153711562551
 20
-45.45043516875208
 10
208.061816118551
 20
-45.43422997805226
 10
207.975641289651
 20
-45.41153756075177
 10
207.8951863330511
 20
-45.38235494555237
 10
207.8204505060507
 20
-45.34667916085235
 10
207.7514330655514
 20
-45.30450723555177
 10
207.6881332689515
 20
-45.25583619805213
 10
207.6305503733507
 20
-45.20066307725222
 10
207.5786970069513
 20
-45.13951491825191
 10
207.532946818551
 20
-45.07226432415206
 10
207.493299065451
 20
-44.99891946605177
 10
207.4597530047513
 20
-44.91948851515214
 10
207.4323078935512
 20
-44.83397964285199
 10
207.4109629889511
 20
-44.74240102025232
 10
207.3957175483513
 20
-44.64476081875193
 10
207.3865708286507
 20
-44.54106720945182
 10
207.383522087251
 20
-44.43132836365196
 10
207.3865521338511
 20
-44.31458688375182
 10
207.3956348454507
 20
-44.20413429195204
 10
207.4107590792511
 20
-44.0999616743522
 10
207.4319136927509
 20
-44.00206011675225
 10
207.4590875433513
 20
-43.91042070505222
 10
207.492269488451
 20
-43.82503452525226
 10
207.531448385351
 20
-43.7458926631523
 10
207.5766130915514
 20
-43.67298620485195
 10
207.6277524643513
 20
-43.60630623605231
 10
207.6843082591511
 20
-43.54617985425217
 10
207.746087708751
 20
-43.49312160045205
 10
207.8130863561511
 20
-43.44713296035208
 10
207.8852997442512
 20
-43.40821541945215
 10
207.9627234160512
 20
-43.37637046365196
 10
208.0453529145512
 20
-43.35159957845205
 10
208.133183782651
 20
-43.3339042495519
 10
208.2262115633511
 20
-43.32328596275238
 10
208.3244317995509
 20
-43.31974620375233
 10
208.4146333195511
 20
-43.32269305225199
 10
208.5004550515512
 20
-43.33152765505192
 10
208.5818962527512
 20
-43.34624109805212
 10
208.658956180351
 20
-43.36682446715203
 10
208.7316340914514
 20
-43.39326884835175
 10
208.7999292432508
 20
-43.42556532745188
 10
208.8638408928512
 20
-43.46370499045193
 10
208.9233682974512
 20
-43.50767892315182
 10
208.9785107142509
 20
-43.55747821165179
 10
209.0285755682511
 20
-43.61232262555184
 10
209.0727504393508
 20
-43.67143540135232
 10
209.1110353276508
 20
-43.73481282475223
 10
209.143430233151
 20
-43.80245118175217
 10
209.1699351558509
 20
-43.87434675785224
 10
209.1905500956509
 20
-43.95049583915186
 10
209.2052750527507
 20
-44.03089471125186
 10
209.2141100269512
 20
-44.115539659952
 10
209.2170550183508
 20
-44.20442697115215
 10
209.217031742651
 20
-44.22593876725213
 10
209.2169624108513
 20
-44.24629990325235
 10
209.2168477658513
 20
-44.26549626525195
 10
209.2166885503508
 20
-44.2835137392519
 10
209.2164855072513
 20
-44.30033821135198
 10
209.2162393794509
 20
-44.31595556745176
 10
209.2159509096508
 20
-44.33035169375178
 10
209.2156208408512
 20
-44.34351247615224
 10
209.2152499157508
 20
-44.35542380085176
 10
209.2147268322512
 20
-44.36697398105181
 10
209.2141740350508
 20
-44.37834216545217
 10
209.2135818673511
 20
-44.38953355375235
 10
209.2129406720512
 20
-44.40055334585208
 10
209.2122407924513
 20
-44.41140674165233
 10
209.2114725715509
 20
-44.42209894115231
 10
209.210626352351
 20
-44.43263514405217
 10
209.2096924779511
 20
-44.44302055035235
 10
209.2086612914512
 20
-44.45326035985185
 10
209.158996209551
 20
-44.45326035985185
 10
209.0258937899511
 20
-44.45326035985185
 10
208.8331932721513
 20
-44.45326035985185
 10
208.604733895351
 20
-44.45326035985185
 10
208.3643548989509
 20
-44.45326035985185
 10
208.1358955221513
 20
-44.45326035985185
 10
207.9431950043508
 20
-44.45326035985185
 10
207.8100925848511
 20
-44.45326035985185
 10
207.7604275029508
 20
-44.45326035985185
 10
207.7604275029508
 20
-44.45462842455221
 10
207.7604275029508
 20
-44.45829483795239
 10
207.7604275029508
 20
-44.46360292905203
 10
207.7604275029508
 20
-44.46989602665186
 10
207.7604275029508
 20
-44.4765174597522
 10
207.7604275029508
 20
-44.48281055745215
 10
207.7604275029508
 20
-44.48811864845232
 10
207.7604275029508
 20
-44.49178506185186
 10
207.7604275029508
 20
-44.49315312655222
 10
207.7604275029508
 20
-44.49595115935212
 10
207.7604275029508
 20
-44.50344988725215
 10
207.7604275029508
 20
-44.514306254452
 10
207.7604275029508
 20
-44.52717720525217
 10
207.7604275029508
 20
-44.54071968385235
 10
207.7604275029508
 20
-44.55359063465187
 10
207.7604275029508
 20
-44.56444700185236
 10
207.7604275029508
 20
-44.57194572975239
 10
207.7604275029508
 20
-44.5747437625523
 10
207.7622241866513
 20
-44.63765864395206
 10
207.7676340468512
 20
-44.69727977025228
 10
207.7766867971511
 20
-44.75360937015199
 10
207.7894121512508
 20
-44.80664967195177
 10
207.8058398226511
 20
-44.85640290425181
 10
207.825999525051
 20
-44.90287129565238
 10
207.8499209720513
 20
-44.94605707455219
 10
207.8776338772511
 20
-44.98596246955211
 10
207.9091679543508
 20
-45.0225897091523
 10
207.9437688486509
 20
-45.05575927345187
 10
207.9814436172507
 20
-45.08504601025228
 10
208.0221907744509
 20
-45.11044471955178
 10
208.0660088344512
 20
-45.13195020145192
 10
208.1128963117511
 20
-45.14955725605235
 10
208.1628517204507
 20
-45.16326068345207
 10
208.215873575051
 20
-45.17305528395221
 10
208.2719603898511
 20
-45.17893585745219
 10
208.3311106790508
 20
-45.18089720415176
 10
208.3798280202511
 20
-45.17948679755182
 10
208.426276726351
 20
-45.17525656815223
 10
208.4704545688509
 20
-45.16820800165183
 10
208.5123593191508
 20
-45.158342583752
 10
208.5519887489511
 20
-45.14566180015224
 10
208.589340629451
 20
-45.1301671364519
 10
208.6244127323511
 20
-45.11186007845186
 10
208.6572028290512
 20
-45.09074211165202
 10
208.687708690951
 20
-45.06681472195208
 10
208.7154338530511
 20
-45.04025693385222
 10
208.7400041712511
 20
-45.01173061815179
 10
208.7614203885508
 20
-44.98123948925184
 10
208.7796832475512
 20
-44.9487872611518
 10
208.7947934912511
 20
-44.91437764825209
 10
208.8067518623512
 20
-44.87801436475234
 10
208.815559103851
 20
-44.83970112465192
 10
208.8212159585512
 20
-44.79944164235194
 10
208.8237231692511
 20
-44.75723963195189
 10
208.835902659351
 20
-44.75723963195189
 10
208.868543692651
 20
-44.75723963195189
 10
208.9158001140512
 20
-44.75723963195189
 10
208.9718257682508
 20
-44.75723963195189
 10
209.0307745001512
 20
-44.75723963195189
 10
209.0868001543508
 20
-44.75723963195189
 10
209.134056575751
 20
-44.75723963195189
 10
209.1666976090511
 20
-44.75723963195189
 10
209.1788770990508
 20
-44.75723963195189
 10
209.1788770990508
 20
-44.75723963195189
 10
209.1788770990508
 20
-44.75723963195189
 10
209.1788770990508
 20
-44.75723963195189
 10
209.1788770990508
 20
-44.75723963195189
 10
209.1788770990508
 20
-44.75723963195189
 10
209.1788770990508
 20
-44.75723963195189
 10
209.1788770990508
 20
-44.75723963195189
 10
209.1788770990508
 20
-44.75723963195189
 10
209.1788770990508
 20
-44.75723963195189
  0
LWPOLYLINE
  5
D4
330
70
100
AcDbEntity
  8
CK_LEVEL_1
 62
     1
420
 16711680
370
    25
100
AcDbPolyline
 90
      190
 70
     0
 43
0.0
 10
211.1108783751508
 20
-45.09181539245194
 10
211.0940643028508
 20
-45.12767639205221
 10
211.074670345251
 20
-45.16191057075206
 10
211.0526972452514
 20
-45.19451570015211
 10
211.0281457456508
 20
-45.22548955165212
 10
211.0010165893513
 20
-45.25482989675198
 10
210.9713105190508
 20
-45.28253450695221
 10
210.9390282777514
 20
-45.30860115365192
 10
210.9041706081511
 20
-45.33302760845239
 10
210.8667382531514
 20
-45.35581164275209
 10
210.8273621320511
 20
-45.37642138275187
 10
210.7867268962511
 20
-45.39457306325211
 10
210.7448236315514
 20
-45.41027559845222
 10
210.7016434239513
 20
-45.42353790245218
 10
210.6571773593509
 20
-45.43436888925183
 10
210.611416523651
 20
-45.4427774730519
 10
210.5643520026508
 20
-45.44877256775213
 10
210.5159748825512
 20
-45.45236308765203
 10
210.4662762489509
 20
-45.45355794665202
 10
210.4225943763514
 20
-45.45263286255229
 10
210.379644201751
 20
-45.44986107685183
 10
210.3374353819512
 20
-45.44524778935218
 10
210.2959775739511
 20
-45.43879819995178
 10
210.2552804347507
 20
-45.43051750855227
 10
210.2153536212511
 20
-45.42041091515219
 10
210.176206790251
 20
-45.40848361945235
 10
210.1378495987511
 20
-45.39474082145189
 10
210.1002917037509
 20
-45.37918772095175
 10
210.0641245300511
 20
-45.36184672705198
 10
210.0296391474509
 20
-45.34315004915184
 10
209.996845955651
 20
-45.32308580175175
 10
209.9657553543511
 20
-45.30164209945231
 10
209.936377743451
 20
-45.27880705675199
 10
209.908723522551
 20
-45.25456878825201
 10
209.8828030916509
 20
-45.22891540855226
 10
209.8586268503512
 20
-45.20183503205181
 10
209.8362051984513
 20
-45.17331577335186
 10
209.824649694451
 20
-45.15719093325202
 10
209.8138726873508
 20
-45.1402883391522
 10
209.8038771485509
 20
-45.12261244795188
 10
209.794666049451
 20
-45.10416771675206
 10
209.786242361251
 20
-45.08495860265183
 10
209.7786090554507
 20
-45.06498956275216
 10
209.7717691033508
 20
-45.04426505385182
 10
209.765725476351
 20
-45.02278953325201
 10
209.7604811457513
 20
-45.00056745775213
 10
209.7559225808512
 20
-44.97620575395195
 10
209.7518780616511
 20
-44.94825018745227
 10
209.7483535307513
 20
-44.91670372975212
 10
209.745354931051
 20
-44.88156935205219
 10
209.7428882051512
 20
-44.84285002585219
 10
209.7409592957509
 20
-44.80054872235212
 10
209.7395741457514
 20
-44.7546684131518
 10
209.7387386977509
 20
-44.70521206945189
 10
209.7384588944513
 20
-44.65218266265199
 10
209.7384588944513
 20
-44.60819412065189
 10
209.7384588944513
 20
-44.49030482825182
 10
209.7384588944513
 20
-44.31962928545199
 10
209.7384588944513
 20
-44.11728199255235
 10
209.7384588944513
 20
-43.90437744945238
 10
209.7384588944513
 20
-43.70203015655209
 10
209.7384588944513
 20
-43.53135461375228
 10
209.7384588944513
 20
-43.4134653213522
 10
209.7384588944513
 20
-43.3694767793521
 10
209.7512790845511
 20
-43.3694767793521
 10
209.785637193751
 20
-43.3694767793521
 10
209.8353795311513
 20
-43.3694767793521
 10
209.8943524052512
 20
-43.3694767793521
 10
209.9564021250512
 20
-43.3694767793521
 10
210.0153749991511
 20
-43.3694767793521
 10
210.0651173365514
 20
-43.3694767793521
 10
210.0994754457512
 20
-43.3694767793521
 10
210.1122956358511
 20
-43.3694767793521
 10
210.1122956358511
 20
-43.41427625565234
 10
210.1122956358511
 20
-43.53433885195213
 10
210.1122956358511
 20
-43.70816081965229
 10
210.1122956358511
 20
-43.91423841035196
 10
210.1122956358511
 20
-44.13106787525238
 10
210.1122956358511
 20
-44.33714546595204
 10
210.1122956358511
 20
-44.51096743375232
 10
210.1122956358511
 20
-44.63103002995199
 10
210.1122956358511
 20
-44.67582950625224
 10
210.1136906904509
 20
-44.731692478352
 10
210.117866940051
 20
-44.78416958325204
 10
210.1248110136511
 20
-44.83325116385216
 10
210.1345095399509
 20
-44.87892756335187
 10
210.1469491480511
 20
-44.92118912485185
 10
210.1621164666511
 20
-44.96002619125191
 10
210.1799981246509
 20
-44.9954291058523
 10
210.2005807509514
 20
-45.0273882115522
 10
210.2238509743511
 20
-45.05589385145227
 10
210.2500281805514
 20
-45.08136795905223
 10
210.2792198337513
 20
-45.10387293285226
 10
210.3114251910513
 20
-45.12340134465206
 10
210.346643509751
 20
-45.13994576585223
 10
210.3848740468508
 20
-45.15349876805229
 10
210.4261160596514
 20
-45.16405292295185
 10
210.4703688052508
 20
-45.17160080205225
 10
210.5176315407514
 20
-45.17613497705182
 10
210.5679035234507
 20
-45.1776480194519
 10
210.6198498686508
 20
-45.17605388365184
 10
210.6696672329509
 20
-45.17125959065197
 10
210.7173526447512
 20
-45.16324731235186
 10
210.7629031327509
 20
-45.1519992205522
 10
210.8063157256512
 20
-45.1374974871519
 10
210.8475874520511
 20
-45.11972428385223
 10
210.8867153406513
 20
-45.09866178255207
 10
210.9236964199513
 20
-45.07429215505215
 10
210.9585277186511
 20
-45.046597573252
 10
210.990351998751
 20
-45.01657926235185
 10
211.0184851041509
 20
-44.98470830705178
 10
211.042912920851
 20
-44.95098396455179
 10
211.063621334751
 20
-44.91540549205187
 10
211.0805962320508
 20
-44.87797214665191
 10
211.0938234987512
 20
-44.83868318545179
 10
211.1032890207513
 20
-44.79753786575228
 10
211.1089786842509
 20
-44.75453544465195
 10
211.1108783751508
 20
-44.7096751793521
 10
211.1108783751508
 20
-44.66371501475223
 10
211.1108783751508
 20
-44.54054177355216
 10
211.1108783751508
 20
-44.36221633495212
 10
211.1108783751508
 20
-44.15079957775193
 10
211.1108783751508
 20
-43.92835238105237
 10
211.1108783751508
 20
-43.71693562385218
 10
211.1108783751508
 20
-43.53861018515203
 10
211.1108783751508
 20
-43.41543694405206
 10
211.1108783751508
 20
-43.3694767793521
 10
211.1238316574508
 20
-43.3694767793521
 10
211.1585464540511
 20
-43.3694767793521
 10
211.2088051893512
 20
-43.3694767793521
 10
211.268390287951
 20
-43.3694767793521
 10
211.331084174351
 20
-43.3694767793521
 10
211.3906692728514
 20
-43.3694767793521
 10
211.4409280082509
 20
-43.3694767793521
 10
211.475642804751
 20
-43.3694767793521
 10
211.4885960870511
 20
-43.3694767793521
 10
211.4885960870511
 20
-43.42575314235237
 10
211.4885960870511
 20
-43.57657379495201
 10
211.4885960870511
 20
-43.79492608305238
 10
211.4885960870511
 20
-44.05379735245215
 10
211.4885960870511
 20
-44.32617494895196
 10
211.4885960870511
 20
-44.58504621825227
 10
211.4885960870511
 20
-44.803398506352
 10
211.4885960870511
 20
-44.95421915895228
 10
211.4885960870511
 20
-45.0104955219519
 10
211.4886501906511
 20
-45.0371699360518
 10
211.4888149774513
 20
-45.06327681995204
 10
211.4890941616513
 20
-45.08881023105235
 10
211.4894914575508
 20
-45.11376422635207
 10
211.4900105793507
 20
-45.13813286345177
 10
211.4906552411512
 20
-45.16191019935205
 10
211.4914291571512
 20
-45.18509029145203
 10
211.492336041651
 20
-45.20766719705196
 10
211.4933796088509
 20
-45.22963497335203
 10
211.4941286397512
 20
-45.25148624755193
 10
211.4950997800508
 20
-45.27294678755227
 10
211.496274458551
 20
-45.29403367885175
 10
211.4976341043512
 20
-45.31476400655193
 10
211.4991601465509
 20
-45.33515485615217
 10
211.5008340139514
 20
-45.35522331305238
 10
211.5026371355507
 20
-45.37498646235217
 10
211.504550940451
 20
-45.39446138955221
 10
211.506556857651
 20
-45.4136651799523
 10
211.493393103851
 20
-45.4136651799523
 10
211.4581142436511
 20
-45.4136651799523
 10
211.4070388789514
 20
-45.4136651799523
 10
211.3464856114509
 20
-45.4136651799523
 10
211.2827730431508
 20
-45.4136651799523
 10
211.2222197756509
 20
-45.4136651799523
 10
211.1711444109512
 20
-45.4136651799523
 10
211.1358655507513
 20
-45.4136651799523
 10
211.1227017970514
 20
-45.4136651799523
 10
211.1222963298513
 20
-45.40262780725223
 10
211.1212096779511
 20
-45.37304764845234
 10
211.1196364654509
 20
-45.33022264245178
 10
211.1177713165512
 20
-45.27945072815223
 10
211.115808855651
 20
-45.22602984435211
 10
211.1139437067513
 20
-45.17525792995182
 10
211.1123704942511
 20
-45.13243292395189
 10
211.1112838423509
 20
-45.102852765152
 10
211.1108783751508
 20
-45.09181539245194
 10
211.1108783751508
 20
-45.09181539245194
 10
211.1108783751508
 20
-45.09181539245194
 10
211.1108783751508
 20
-45.09181539245194
 10
211.1108783751508
 20
-45.09181539245194
 10
211.1108783751508
 20
-45.09181539245194
 10
211.1108783751508
 20
-45.09181539245194
 10
211.1108783751508
 20
-45.09181539245194
 10
211.1108783751508
 20
-45.09181539245194
 10
211.1108783751508
 20
-45.09181539245194
  0
LWPOLYLINE
  5
D5
330
70
100
AcDbEntity
  8
CK_LEVEL_1
 62
     1
420
 16711680
370
    25
100
AcDbPolyline
 90
       91
 70
     0
 43
0.0
 10
213.5664496504507
 20
-44.30190250975225
 10
213.5645279219508
 20
-44.23025145185192
 10
213.5587508509509
 20
-44.16192534845204
 10
213.5491006091509
 20
-44.09691305665218
 10
213.5355593685511
 20
-44.03520343415194
 10
213.518109300951
 20
-43.97678533805222
 10
213.4967325780512
 20
-43.92164762595182
 10
213.4714113718508
 20
-43.86977915505176
 10
213.4421278540508
 20
-43.82116878295216
 10
213.4088641965509
 20
-43.77580536695218
 10
213.3723195360508
 20
-43.73482978635236
 10
213.3332596174508
 20
-43.69866929825181
 10
213.2916762693513
 20
-43.66732538835194
 10
213.2475613207509
 20
-43.64079954225213
 10
213.2009066002514
 20
-43.61909324585204
 10
213.1517039365508
 20
-43.60220798465224
 10
213.0999451585509
 20
-43.5901452443522
 10
213.0456220948514
 20
-43.58290651075215
 10
212.9887265743508
 20
-43.58049326935199
 10
212.9318545770514
 20
-43.58307501175195
 10
212.8776627486509
 20
-43.59082469585198
 10
212.826143660451
 20
-43.60374900735201
 10
212.7772898842509
 20
-43.62185463185189
 10
212.7310939915513
 20
-43.64514825475188
 10
212.687548554051
 20
-43.67363656175192
 10
212.6466461431508
 20
-43.70732623835176
 10
212.608379330651
 20
-43.74622397005174
 10
212.572740688051
 20
-43.79033644265194
 10
212.5398924022514
 20
-43.83921151355187
 10
212.510955914751
 20
-43.89179187325228
 10
212.485918597451
 20
-43.94807900735188
 10
212.4647678219513
 20
-44.00807440155208
 10
212.4474909599508
 20
-44.07177954155237
 10
212.4340753831507
 20
-44.1391959129521
 10
212.424508463351
 20
-44.21032500145205
 10
212.4187775722513
 20
-44.28516829275233
 10
212.4168700815509
 20
-44.36372727265187
 10
212.4188092667512
 20
-44.43580781605197
 10
212.4246283083508
 20
-44.50445272195227
 10
212.4343294346509
 20
-44.56966273305204
 10
212.447914874251
 20
-44.63143859235215
 10
212.4653868557513
 20
-44.68978104245237
 10
212.4867476074512
 20
-44.74469082635229
 10
212.5119993581511
 20
-44.79616868685191
 10
212.5411443361509
 20
-44.84421536675188
 10
212.5741847701508
 20
-44.88883160895232
 10
212.6106011667509
 20
-44.92970802035202
 10
212.6496323622513
 20
-44.96575596815223
 10
212.6912790993512
 20
-44.99698065215194
 10
212.7355421208514
 20
-45.02338727225212
 10
212.7824221696513
 20
-45.04498102835188
 10
212.8319199886509
 20
-45.06176712035219
 10
212.8840363206511
 20
-45.07375074805206
 10
212.938771908451
 20
-45.08093711155202
 10
212.9961274948509
 20
-45.08333141045214
 10
213.0522748511511
 20
-45.08073183985226
 10
213.1059069492513
 20
-45.07293758525179
 10
213.1570156179508
 20
-45.05995533225184
 10
213.2055926860512
 20
-45.04179176625205
 10
213.2516299823507
 20
-45.01845357285225
 10
213.295119335351
 20
-44.98994743775175
 10
213.3360525741508
 20
-44.95628004635209
 10
213.374421527251
 20
-44.91745808425182
 10
213.4102180234512
 20
-44.87348823715218
 10
213.4431975444509
 20
-44.82502569035212
 10
213.472230353551
 20
-44.77278579925198
 10
213.4973342789513
 20
-44.71677524945226
 10
213.5185271487511
 20
-44.65700072645204
 10
213.5358267911509
 20
-44.59346891605202
 10
213.5492510343512
 20
-44.52618650355235
 10
213.5588177065507
 20
-44.45516017465234
 10
213.5645446358513
 20
-44.38039661485236
 10
213.5664496504507
 20
-44.30190250975225
 10
213.5664496504507
 20
-44.30190250975225
 10
213.5664496504507
 20
-44.30190250975225
 10
213.5664496504507
 20
-44.30190250975225
 10
213.5664496504507
 20
-44.30190250975225
 10
213.5664496504507
 20
-44.30190250975225
 10
213.5664496504507
 20
-44.30190250975225
 10
213.5664496504507
 20
-44.30190250975225
 10
213.5664496504507
 20
-44.30190250975225
 10
213.5664496504507
 20
-44.30190250975225
 10
213.5664496504507
 20
-44.30190250975225
 10
213.5664496504507
 20
-44.30190250975225
 10
213.5664496504507
 20
-44.30190250975225
 10
213.5664496504507
 20
-44.30190250975225
 10
213.5664496504507
 20
-44.30190250975225
 10
213.5664496504507
 20
-44.30190250975225
 10
213.5664496504507
 20
-44.30190250975225
 10
213.5664496504507
 20
-44.30190250975225
 10
213.5664496504507
 20
-44.30190250975225
  0
LWPOLYLINE
  5
D6
330
70
100
AcDbEntity
  8
CK_LEVEL_1
 62
     1
420
 16711680
370
    25
100
AcDbPolyline
 90
      217
 70
     0
 43
0.0
 10
213.5206903004509
 20
-45.02565838345225
 10
213.5059213920511
 20
-45.05212641175185
 10
213.4882680336512
 20
-45.07773794485191
 10
213.4677272540511
 20
-45.10249223985233
 10
213.4442960818512
 20
-45.12638855415204
 10
213.4179715456514
 20
-45.14942614465199
 10
213.3887506740512
 20
-45.17160426865228
 10
213.3566304957507
 20
-45.19292218335226
 10
213.3216080393509
 20
-45.21337914575236
 10
213.283680333551
 20
-45.23297441315203
 10
213.2444033816509
 20
-45.25123764355238
 10
213.2046762684512
 20
-45.26739120685201
 10
213.164503450851
 20
-45.28142470315201
 10
213.123889385951
 20
-45.29332773265232
 10
213.0828385308512
 20
-45.30308989575178
 10
213.0413553424509
 20
-45.31070079255213
 10
212.9994442779512
 20
-45.316150023252
 10
212.9571097943512
 20
-45.31942718825217
 10
212.9143563486511
 20
-45.32052188755236
 10
212.8209207484511
 20
-45.31734364425219
 10
212.7324436090509
 20
-45.30781188555237
 10
212.6489360730512
 20
-45.29193106865206
 10
212.5704092829509
 20
-45.26970565045205
 10
212.4968743814513
 20
-45.24114008805205
 10
212.4283425111511
 20
-45.20623883845231
 10
212.3648248146507
 20
-45.16500635885202
 10
212.3063324345513
 20
-45.11744710605183
 10
212.252876513451
 20
-45.06356553735233
 10
212.2041196778508
 20
-45.0037474344521
 10
212.1611517988508
 20
-44.9382592295519
 10
212.1239587623513
 20
-44.8671068653521
 10
212.0925264544508
 20
-44.79029628455178
 10
212.0668407611508
 20
-44.70783342995205
 10
212.046887568451
 20
-44.61972424425201
 10
212.0326527623512
 20
-44.52597467015201
 10
212.024122228951
 20
-44.42659065035178
 10
212.0212818542509
 20
-44.32157812765179
 10
212.0241944082511
 20
-44.22238551315186
 10
212.0329360321514
 20
-44.12776582515191
 10
212.0475126687512
 20
-44.03772574925177
 10
212.0679302606507
 20
-43.95227197095183
 10
212.0941947505509
 20
-43.87141117585191
 10
212.1263120812509
 20
-43.79515004945175
 10
212.1642881955507
 20
-43.72349527745193
 10
212.208129036051
 20
-43.65645354525208
 10
212.2578405454511
 20
-43.59403153855215
 10
212.3125045729512
 20
-43.53731479505223
 10
212.3711970247513
 20
-43.48726504555204
 10
212.4339149296512
 20
-43.44388377575233
 10
212.5006553161511
 20
-43.40717247135194
 10
212.571415212851
 20
-43.37713261805226
 10
212.6461916485508
 20
-43.35376570155213
 10
212.7249816518508
 20
-43.33707320745221
 10
212.8077822512514
 20
-43.32705662145197
 10
212.8945904755513
 20
-43.32371742935229
 10
212.9466368566508
 20
-43.32464622765225
 10
212.9968135081513
 20
-43.32743064175175
 10
213.0451159728511
 20
-43.33206770015233
 10
213.0915397937513
 20
-43.33855443155194
 10
213.1360805138508
 20
-43.34688786455228
 10
213.1787336760513
 20
-43.35706502785194
 10
213.2194948233513
 20
-43.36908295005196
 10
213.2583594987511
 20
-43.3829386598522
 10
213.2953232451511
 20
-43.39862918585179
 10
213.3306532374513
 20
-43.41604718755195
 10
213.3641521278511
 20
-43.43532303345227
 10
213.3958407157513
 20
-43.45644929525239
 10
213.4257398007513
 20
-43.47941854445234
 10
213.4538701824513
 20
-43.50422335265229
 10
213.4802526602511
 20
-43.53085629155187
 10
213.504908033651
 20
-43.55930993265175
 10
213.5278571023512
 20
-43.58957684755211
 10
213.5491206658509
 20
-43.62164960785182
 10
213.5496035122508
 20
-43.61300170565225
 10
213.5508975404509
 20
-43.58982532775189
 10
213.5527709843509
 20
-43.55627146715224
 10
213.5549920776507
 20
-43.51649111695177
 10
213.5573290540512
 20
-43.47463527025213
 10
213.559550147351
 20
-43.43485492015178
 10
213.561423591251
 20
-43.40130105955213
 10
213.5627176195512
 20
-43.37812468165176
 10
213.563200465851
 20
-43.3694767793521
 10
213.575330433251
 20
-43.3694767793521
 10
213.6078387457508
 20
-43.3694767793521
 10
213.6549030190507
 20
-43.3694767793521
 10
213.7107008687508
 20
-43.3694767793521
 10
213.769409910751
 20
-43.3694767793521
 10
213.8252077605512
 20
-43.3694767793521
 10
213.8722720338511
 20
-43.3694767793521
 10
213.9047803462509
 20
-43.3694767793521
 10
213.9169103136509
 20
-43.3694767793521
 10
213.9153669385511
 20
-43.38873380675238
 10
213.9138696196512
 20
-43.4079328924519
 10
213.9124242994508
 20
-43.42706957955179
 10
213.9110369209512
 20
-43.44613941105182
 10
213.9097134266512
 20
-43.46513792985225
 10
213.9084597594507
 20
-43.48406067895221
 10
213.9072818618513
 20
-43.50290320125198
 10
213.906185676851
 20
-43.52166103965185
 10
213.9051771469512
 20
-43.54032973725232
 10
213.9042741004508
 20
-43.55919863035186
 10
213.9034884227511
 20
-43.57867590985182
 10
213.9028171424512
 20
-43.59875489025179
 10
213.902257288351
 20
-43.61942888595195
 10
213.9018058888509
 20
-43.64069121135183
 10
213.9014599727513
 20
-43.66253518095233
 10
213.9012165686509
 20
-43.68495410915232
 10
213.9010727052512
 20
-43.70794131035199
 10
213.9010254110508
 20
-43.73149009895214
 10
213.9010254110508
 20
-43.78693076625228
 10
213.9010254110508
 20
-43.93551175455214
 10
213.9010254110508
 20
-44.15062154355185
 10
213.9010254110508
 20
-44.40564861305233
 10
213.9010254110508
 20
-44.67398144275182
 10
213.9010254110508
 20
-44.9290085121522
 10
213.9010254110508
 20
-45.14411830125203
 10
213.9010254110508
 20
-45.29269928955187
 10
213.9010254110508
 20
-45.34813995685203
 10
213.8982221783512
 20
-45.44667911925196
 10
213.8898045567509
 20
-45.53910470385215
 10
213.8757606607509
 20
-45.6254204248522
 10
213.856078604751
 20
-45.70562999645235
 10
213.8307465035513
 20
-45.7797371327521
 10
213.7997524715508
 20
-45.84774554805179
 10
213.7630846233514
 20
-45.9096589565523
 10
213.7207310734509
 20
-45.96548107245197
 10
213.6726799364512
 20
-46.01521561005177
 10
213.6188995178511
 20
-46.0593342728518
 10
213.558516732351
 20
-46.09824859475192
 10
213.4915211801509
 20
-46.13196228985226
 10
213.4179024614512
 20
-46.16047907235177
 10
213.3376501765508
 20
-46.1838026565521
 10
213.250753925651
 20
-46.20193675655209
 10
213.1572033090509
 20
-46.214885086552
 10
213.0569879268511
 20
-46.22265136085214
 10
212.9500973794511
 20
-46.22523929355205
 10
212.8575858729512
 20
-46.22319871055196
 10
212.7707905245511
 20
-46.21708438985211
 10
212.6897113343509
 20
-46.20690747415203
 10
212.6143483022511
 20
-46.19267910605181
 10
212.5447014282511
 20
-46.17441042805206
 10
212.4807707123509
 20
-46.15211258295182
 10
212.4225561545511
 20
-46.12579671315223
 10
212.3700577549513
 20
-46.09547396145229
 10
212.3232755134512
 20
-46.0611554702519
 10
212.2820722522511
 20
-46.02217974025185
 10
212.2456484271511
 20
-45.97853080025222
 10
212.2140032953512
 20
-45.93019527915216
 10
212.1871361141508
 20
-45.87715980585211
 10
212.165046140551
 20
-45.81941100905228
 10
212.1477326317511
 20
-45.75693551785204
 10
212.1351948449511
 20
-45.68971996105235
 10
212.1274320372509
 20
-45.61775096745225
 10
212.1244434658513
 20
-45.5410151659522
 10
212.138362440851
 20
-45.5410151659522
 10
212.1756652939509
 20
-45.5410151659522
 10
212.2296709170509
 20
-45.5410151659522
 10
212.2936982022511
 20
-45.5410151659522
 10
212.3610660413512
 20
-45.5410151659522
 10
212.4250933265508
 20
-45.5410151659522
 10
212.4790989496508
 20
-45.5410151659522
 10
212.5164018027514
 20
-45.5410151659522
 10
212.530320777751
 20
-45.5410151659522
 10
212.5326509448513
 20
-45.58540632755197
 10
212.5377637925511
 20
-45.6273112016522
 10
212.5456407500509
 20
-45.66674390245213
 10
212.5562632463512
 20
-45.70371854385198
 10
212.5696127102513
 20
-45.73824923975197
 10
212.5856705708514
 20
-45.77035010415178
 10
212.6044182571515
 20
-45.80003525115183
 10
212.625837198151
 20
-45.82731879445213
 10
212.6499088227514
 20
-45.85221484835204
 10
212.6768365455514
 20
-45.87452420745238
 10
212.706468207951
 20
-45.89421728225195
 10
212.7387934101508
 20
-45.91129184395223
 10
212.7738017525509
 20
-45.92574566415195
 10
212.8114828353513
 20
-45.93757651435224
 10
212.8518262586511
 20
-45.94678216605234
 10
212.8948216227509
 20
-45.95336039065202
 10
212.9404585279509
 20
-45.95730895965179
 10
212.9887265743508
 20
-45.95862564455219
 10
213.0472190782513
 20
-45.95694608205221
 10
213.1022848586512
 20
-45.95191482295213
 10
213.1539068302508
 20
-45.94354300975193
 10
213.2020679076513
 20
-45.93184178525188
 10
213.246751005451
 20
-45.91682229195199
 10
213.2879390385508
 20
-45.89849567245233
 10
213.3256149213514
 20
-45.87687306935236
 10
213.3597615687511
 20
-45.85196562535226
 10
213.3903618952512
 20
-45.82378448295201
 10
213.4177940067512
 20
-45.79231391865202
 10
213.4419709908509
 20
-45.75717669345176
 10
213.4629002760509
 20
-45.71838320695235
 10
213.4805892907513
 20
-45.67594385905208
 10
213.495045463351
 20
-45.62986904935208
 10
213.5062762221512
 20
-45.58016917775191
 10
213.5142889957512
 20
-45.52685464395216
 10
213.5190912123507
 20
-45.46993584775231
 10
213.5206903004509
 20
-45.40942318895176
 10
213.5206903004509
 20
-45.39626253035237
 10
213.5206903004509
 20
-45.36099196525225
 10
213.5206903004509
 20
-45.30992860975175
 10
213.5206903004509
 20
-45.24938958005196
 10
213.5206903004509
 20
-45.18569199235206
 10
213.5206903004509
 20
-45.12515296265227
 10
213.5206903004509
 20
-45.07408960715177
 10
213.5206903004509
 20
-45.03881904205229
 10
213.5206903004509
 20
-45.02565838345225
 10
213.5206903004509
 20
-45.02565838345225
 10
213.5206903004509
 20
-45.02565838345225
 10
213.5206903004509
 20
-45.02565838345225
 10
213.5206903004509
 20
-45.02565838345225
 10
213.5206903004509
 20
-45.02565838345225
 10
213.5206903004509
 20
-45.02565838345225
 10
213.5206903004509
 20
-45.02565838345225
 10
213.5206903004509
 20
-45.02565838345225
 10
213.5206903004509
 20
-45.02565838345225
  0
LWPOLYLINE
  5
D7
330
70
100
AcDbEntity
  8
CK_LEVEL_1
 62
     1
420
 16711680
370
    25
100
AcDbPolyline
 90
       73
 70
     0
 43
0.0
 10
214.831646038851
 20
-44.18845181345196
 10
214.867788327351
 20
-44.18845181345196
 10
214.9646496605513
 20
-44.18845181345196
 10
215.1048817399508
 20
-44.18845181345196
 10
215.2711362671511
 20
-44.18845181345196
 10
215.4460649435509
 20
-44.18845181345196
 10
215.612319470651
 20
-44.18845181345196
 10
215.7525515501513
 20
-44.18845181345196
 10
215.8494128833509
 20
-44.18845181345196
 10
215.8855551718509
 20
-44.18845181345196
 10
215.8855551718509
 20
-44.18689803865222
 10
215.8855551718509
 20
-44.18273392205185
 10
215.8855551718509
 20
-44.17670527565212
 10
215.8855551718509
 20
-44.16955791135223
 10
215.8855551718509
 20
-44.16203764115215
 10
215.8855551718509
 20
-44.15489027685227
 10
215.8855551718509
 20
-44.14886163045189
 10
215.8855551718509
 20
-44.14469751395228
 10
215.8855551718509
 20
-44.14314373905177
 10
215.8838475051513
 20
-44.08776398475187
 10
215.8787131150513
 20
-44.0348051477521
 10
215.8701349160508
 20
-43.98426797105201
 10
215.8580958228513
 20
-43.93615319735214
 10
215.842578750151
 20
-43.8904615696521
 10
215.8235666126508
 20
-43.84719383065177
 10
215.8010423248512
 20
-43.8063507232519
 10
215.7749888016509
 20
-43.76793299025186
 10
215.745388957651
 20
-43.73194137455175
 10
215.7134489181509
 20
-43.69934627355178
 10
215.6794244680509
 20
-43.67057754425182
 10
215.6433170930513
 20
-43.64563741525212
 10
215.6051282788509
 20
-43.62452811505213
 10
215.5648595109509
 20
-43.60725187205189
 10
215.5225122752508
 20
-43.59381091495238
 10
215.4780880573509
 20
-43.58420747215232
 10
215.4315883428511
 20
-43.57844377225195
 10
215.3830146175509
 20
-43.57652204365193
 10
215.3297985101513
 20
-43.57859271175214
 10
215.2788213241513
 20
-43.58481065865236
 10
215.2300890023509
 20
-43.59518479855203
 10
215.1836074875511
 20
-43.60972404545229
 10
215.1393827222508
 20
-43.62843731345182
 10
215.0974206493512
 20
-43.65133351665185
 10
215.0577272115514
 20
-43.67842156925182
 10
215.0203083515511
 20
-43.70971038505202
 10
214.9851700120513
 20
-43.74520887845207
 10
214.952996473051
 20
-43.78410883875229
 10
214.9245913642507
 20
-43.8255961127522
 10
214.8999591425514
 20
-43.86967070035232
 10
214.8791042652509
 20
-43.91633260165213
 10
214.8620311891512
 20
-43.96558181665226
 10
214.848744371451
 20
-44.01741834535207
 10
214.839248269151
 20
-44.07184218775221
 10
214.8335473392509
 20
-44.12885334375193
 10
214.831646038851
 20
-44.18845181345196
 10
214.831646038851
 20
-44.18845181345196
 10
214.831646038851
 20
-44.18845181345196
 10
214.831646038851
 20
-44.18845181345196
 10
214.831646038851
 20
-44.18845181345196
 10
214.831646038851
 20
-44.18845181345196
 10
214.831646038851
 20
-44.18845181345196
 10
214.831646038851
 20
-44.18845181345196
 10
214.831646038851
 20
-44.18845181345196
 10
214.831646038851
 20
-44.18845181345196
 10
214.831646038851
 20
-44.18845181345196
 10
214.831646038851
 20
-44.18845181345196
 10
214.831646038851
 20
-44.18845181345196
 10
214.831646038851
 20
-44.18845181345196
 10
214.831646038851
 20
-44.18845181345196
 10
214.831646038851
 20
-44.18845181345196
 10
214.831646038851
 20
-44.18845181345196
 10
214.831646038851
 20
-44.18845181345196
 10
214.831646038851
 20
-44.18845181345196
  0
LWPOLYLINE
  5
D8
330
70
100
AcDbEntity
  8
CK_LEVEL_1
 62
     1
420
 16711680
370
    25
100
AcDbPolyline
 90
      172
 70
     0
 43
0.0
 10
216.2315030785511
 20
-44.75723963195189
 10
216.2282822456511
 20
-44.82651570465192
 10
216.219575535251
 20
-44.89270453205206
 10
216.205372547551
 20
-44.95580759975231
 10
216.1856628826508
 20
-45.01582639335206
 10
216.1604361410512
 20
-45.07276239875226
 10
216.1296819227514
 20
-45.12661710145219
 10
216.0933898280507
 20
-45.17739198715196
 10
216.051549457151
 20
-45.22508854155236
 10
216.0041504104511
 20
-45.26970825035218
 10
215.9522174362511
 20
-45.31041417985217
 10
215.8966638572512
 20
-45.34631170245208
 10
215.8374926446509
 20
-45.37740601785206
 10
215.774706769851
 20
-45.40370232615204
 10
215.7083092043513
 20
-45.42520582715228
 10
215.6383029192511
 20
-45.44192172065238
 10
215.5646908861513
 20
-45.45385520675227
 10
215.4874760763508
 20
-45.46101148505202
 10
215.4066614611512
 20
-45.46339575565218
 10
215.3033018824511
 20
-45.46015610415197
 10
215.205680747151
 20
-45.45043516875208
 10
215.1137935981513
 20
-45.43422997805226
 10
215.0276359784511
 20
-45.41153756075177
 10
214.9472034309512
 20
-45.38235494555237
 10
214.8724914985508
 20
-45.34667916085235
 10
214.8034957243509
 20
-45.30450723555177
 10
214.7402116511511
 20
-45.25583619805213
 10
214.6826348220512
 20
-45.20066307725222
 10
214.6309157859512
 20
-45.13951491825191
 10
214.585270214351
 20
-45.07226432415206
 10
214.5457010784512
 20
-44.99891946605177
 10
214.5122113498509
 20
-44.91948851515214
 10
214.4848039996509
 20
-44.83397964285199
 10
214.4634819994507
 20
-44.74240102025232
 10
214.4482483203511
 20
-44.64476081875193
 10
214.4391059339512
 20
-44.54106720945182
 10
214.4360578115511
 20
-44.43132836365196
 10
214.4390898391511
 20
-44.31458688375182
 10
214.4481730458511
 20
-44.20413429195204
 10
214.4632881180508
 20
-44.0999616743522
 10
214.4844157416511
 20
-44.00206011675225
 10
214.511536602951
 20
-43.91042070505222
 10
214.5446313880511
 20
-43.82503452525226
 10
214.5836807831507
 20
-43.7458926631523
 10
214.6286654742511
 20
-43.67298620485195
 10
214.6795661476511
 20
-43.60630623605231
 10
214.7362625869509
 20
-43.54617985425217
 10
214.7981641099512
 20
-43.49312160045205
 10
214.8652677455509
 20
-43.44713296035208
 10
214.9375705221508
 20
-43.40821541945215
 10
215.0150694684513
 20
-43.37637046365196
 10
215.0977616131512
 20
-43.35159957845205
 10
215.1856439849509
 20
-43.3339042495519
 10
215.2787136122513
 20
-43.32328596275238
 10
215.3769675239511
 20
-43.31974620375233
 10
215.467014285451
 20
-43.32269305225199
 10
215.5527288007508
 20
-43.33152765505192
 10
215.6341043844508
 20
-43.34624109805212
 10
215.711134350751
 20
-43.36682446715203
 10
215.7838120142511
 20
-43.39326884835175
 10
215.8521306893513
 20
-43.42556532745188
 10
215.916083690451
 20
-43.46370499045193
 10
215.9756643319511
 20
-43.50767892315182
 10
216.0308659283513
 20
-43.55747821165179
 10
216.0809307823508
 20
-43.61232262555184
 10
216.1251056534512
 20
-43.67143540135232
 10
216.1633905417511
 20
-43.73481282475223
 10
216.1957854472507
 20
-43.80245118175217
 10
216.2222903699513
 20
-43.87434675785224
 10
216.2429053097513
 20
-43.95049583915186
 10
216.2576302668511
 20
-44.03089471125186
 10
216.266465241051
 20
-44.115539659952
 10
216.2694102324512
 20
-44.20442697115215
 10
216.2693808902512
 20
-44.22593876725213
 10
216.2692958349513
 20
-44.24629990325235
 10
216.2691595237513
 20
-44.26549626525195
 10
216.2689764135514
 20
-44.2835137392519
 10
216.2687509614512
 20
-44.30033821135198
 10
216.2684876244512
 20
-44.31595556745176
 10
216.2681908596508
 20
-44.33035169375178
 10
216.2678651240511
 20
-44.34351247615224
 10
216.267514874751
 20
-44.35542380085176
 10
216.2670666942513
 20
-44.36697398105181
 10
216.2665635435512
 20
-44.37834216545217
 10
216.2660039370513
 20
-44.38953355375235
 10
216.2653863889507
 20
-44.40055334585208
 10
216.2647094135513
 20
-44.41140674165233
 10
216.263971525251
 20
-44.42209894115231
 10
216.2631712383512
 20
-44.43263514405217
 10
216.262307067151
 20
-44.44302055035235
 10
216.261377526051
 20
-44.45326035985185
 10
216.2116876827508
 20
-44.45326035985185
 10
216.078518902851
 20
-44.45326035985185
 10
215.885722310951
 20
-44.45326035985185
 10
215.6571490319513
 20
-44.45326035985185
 10
215.4166501905507
 20
-44.45326035985185
 10
215.1880769115511
 20
-44.45326035985185
 10
214.9952803197511
 20
-44.45326035985185
 10
214.8621115397512
 20
-44.45326035985185
 10
214.8124216965511
 20
-44.45326035985185
 10
214.8124216965511
 20
-44.45462842455221
 10
214.8124216965511
 20
-44.45829483795239
 10
214.8124216965511
 20
-44.46360292905203
 10
214.8124216965511
 20
-44.46989602665186
 10
214.8124216965511
 20
-44.4765174597522
 10
214.8124216965511
 20
-44.48281055745215
 10
214.8124216965511
 20
-44.48811864845232
 10
214.8124216965511
 20
-44.49178506185186
 10
214.8124216965511
 20
-44.49315312655222
 10
214.8124216965511
 20
-44.49595115935212
 10
214.8124216965511
 20
-44.50344988725215
 10
214.8124216965511
 20
-44.514306254452
 10
214.8124216965511
 20
-44.52717720525217
 10
214.8124216965511
 20
-44.54071968385235
 10
214.8124216965511
 20
-44.55359063465187
 10
214.8124216965511
 20
-44.56444700185236
 10
214.8124216965511
 20
-44.57194572975239
 10
214.8124216965511
 20
-44.5747437625523
 10
214.8142358369514
 20
-44.63765864395206
 10
214.8196876676508
 20
-44.69727977025228
 10
214.828791302551
 20
-44.75360937015199
 10
214.8415608556509
 20
-44.80664967195177
 10
214.8580104408508
 20
-44.85640290425181
 10
214.8781541721509
 20
-44.90287129565238
 10
214.9020061635511
 20
-44.94605707455219
 10
214.9295805290508
 20
-44.98596246955211
 10
214.9608913825511
 20
-45.0225897091523
 10
214.9955668085512
 20
-45.05575927345187
 10
215.0333354226511
 20
-45.08504601025228
 10
215.074181625251
 20
-45.11044471955178
 10
215.118089816551
 20
-45.13195020145192
 10
215.1650443970509
 20
-45.14955725605235
 10
215.2150297670509
 20
-45.16326068345207
 10
215.2680303269513
 20
-45.17305528395221
 10
215.324030476951
 20
-45.17893585745219
 10
215.3830146175509
 20
-45.18089720415176
 10
215.4319080119513
 20
-45.17948679755182
 10
215.4784726011511
 20
-45.17525656815223
 10
215.5227195277511
 20
-45.16820800165183
 10
215.5646599344513
 20
-45.158342583752
 10
215.6043049638508
 20
-45.14566180015224
 10
215.6416657585513
 20
-45.1301671364519
 10
215.6767534610511
 20
-45.11186007845186
 10
215.7095792140509
 20
-45.09074211165202
 10
215.7401541601509
 20
-45.06681472195208
 10
215.7680302427511
 20
-45.04025693385222
 10
215.7926474837509
 20
-45.01173061815179
 10
215.8140296540512
 20
-44.98123948925184
 10
215.832200524651
 20
-44.9487872611518
 10
215.8471838664514
 20
-44.91437764825209
 10
215.8590034502512
 20
-44.87801436475234
 10
215.8676830469513
 20
-44.83970112465192
 10
215.8732464275509
 20
-44.79944164235194
 10
215.8757173628514
 20
-44.75723963195189
 10
215.8879185190511
 20
-44.75723963195189
 10
215.9206176177509
 20
-44.75723963195189
 10
215.9679581039513
 20
-44.75723963195189
 10
216.024083422651
 20
-44.75723963195189
 10
216.0831370187509
 20
-44.75723963195189
 10
216.1392623374512
 20
-44.75723963195189
 10
216.1866028236509
 20
-44.75723963195189
 10
216.2193019223514
 20
-44.75723963195189
 10
216.2315030785511
 20
-44.75723963195189
 10
216.2315030785511
 20
-44.75723963195189
 10
216.2315030785511
 20
-44.75723963195189
 10
216.2315030785511
 20
-44.75723963195189
 10
216.2315030785511
 20
-44.75723963195189
 10
216.2315030785511
 20
-44.75723963195189
 10
216.2315030785511
 20
-44.75723963195189
 10
216.2315030785511
 20
-44.75723963195189
 10
216.2315030785511
 20
-44.75723963195189
 10
216.2315030785511
 20
-44.75723963195189
  0
LINE
  5
D9
330
70
100
AcDbEntity
  8
CK_LEVEL_1
 62
    18
420
        0
370
    25
100
AcDbLine
 10
159.4134151033511
 20
80.65188887574779
 30
0.0
 11
160.4134151033512
 21
81.65188887574782
 31
0.0
  0
LINE
  5
DA
330
70
100
AcDbEntity
  8
CK_LEVEL_1
 62
    18
420
        0
370
    25
100
AcDbLine
 10
160.4134151033512
 20
-2.34811112425194
 30
0.0
 11
159.4134151033511
 21
-1.348111124251904
 31
0.0
  0
LINE
  5
DB
330
70
100
AcDbEntity
  8
CK_LEVEL_1
 62
    18
420
        0
370
    25
100
AcDbLine
 10
179.4134151033512
 20
-1.348111124251904
 30
0.0
 11
178.4134151033511
 21
-2.34811112425194
 31
0.0
  0
LINE
  5
DC
330
70
100
AcDbEntity
  8
CK_LEVEL_1
 62
    18
420
        0
370
    25
100
AcDbLine
 10
178.4134151033511
 20
81.65188887574782
 30
0.0
 11
179.4134151033512
 21
80.65188887574779
 31
0.0
  0
LINE
  5
DD
330
70
100
AcDbEntity
  8
CK_LEVEL_1
 62
    18
420
        0
370
    25
100
AcDbLine
 10
179.4134151033512
 20
-1.348111124251904
 30
0.0
 11
179.4134151033512
 21
80.65188887574779
 31
0.0
  0
LINE
  5
DE
330
70
100
AcDbEntity
  8
CK_LEVEL_1
 62
    18
420
        0
370
    25
100
AcDbLine
 10
160.4134151033512
 20
81.65188887574782
 30
0.0
 11
178.4134151033511
 21
81.65188887574782
 31
0.0
  0
LINE
  5
DF
330
70
100
AcDbEntity
  8
CK_LEVEL_1
 62
    18
420
        0
370
    25
100
AcDbLine
 10
160.4134151033512
 20
-2.34811112425194
 30
0.0
 11
178.4134151033511
 21
-2.34811112425194
 31
0.0
  0
LINE
  5
E0
330
70
100
AcDbEntity
  8
CK_LEVEL_1
 62
    18
420
        0
370
    25
100
AcDbLine
 10
159.8134151033511
 20
21.10188887574777
 30
0.0
 11
159.8134151033511
 21
20.45150662514812
 31
0.0
  0
LINE
  5
E1
330
70
100
AcDbEntity
  8
CK_LEVEL_1
 62
    18
420
        0
370
    25
100
AcDbLine
 10
158.3866482712512
 20
22.26099986734806
 30
0.0
 11
156.1134151033507
 21
21.65188887574762
 31
0.0
  0
SPLINE
  5
E2
330
70
100
AcDbEntity
  8
CK_LEVEL_1
 62
    18
420
        0
370
    25
100
AcDbSpline
210
0.0
220
0.0
230
1.0
 70
     8
 71
     3
 72
     8
 73
     4
 74
     0
 42
0.0000000001
 43
0.0000000001
 40
0.0
 40
0.0
 40
0.0
 40
0.0
 40
1.0
 40
1.0
 40
1.0
 40
1.0
 10
159.5963975564975
 20
19.76321490152689
 30
0.0
 10
159.7376485280299
 20
19.96494219497017
 30
0.0
 10
159.8134151033511
 20
20.20524307145213
 30
0.0
 10
159.8134151033511
 20
20.45150662514812
 30
0.0
  0
SPLINE
  5
E3
330
70
100
AcDbEntity
  8
CK_LEVEL_1
 62
    18
420
        0
370
    25
100
AcDbSpline
210
0.0
220
0.0
230
1.0
 70
     8
 71
     3
 72
     8
 73
     4
 74
     0
 42
0.0000000001
 43
0.0000000001
 40
0.0
 40
0.0
 40
0.0
 40
0.0
 40
1.0
 40
1.0
 40
1.0
 40
1.0
 10
158.6553231143393
 20
22.30115686857244
 30
0.0
 10
158.5645335210457
 20
22.29798425719716
 30
0.0
 10
158.4743978118926
 20
22.28451228585196
 30
0.0
 10
158.3866482712281
 20
22.26099986729479
 30
0.0
  0
SPLINE
  5
E4
330
70
100
AcDbEntity
  8
CK_LEVEL_1
 62
    18
420
        0
370
    25
100
AcDbSpline
210
0.0
220
0.0
230
1.0
 70
     8
 71
     3
 72
     8
 73
     4
 74
     0
 42
0.0000000001
 43
0.0000000001
 40
0.0
 40
0.0
 40
0.0
 40
0.0
 40
1.0
 40
1.0
 40
1.0
 40
1.0
 10
159.8134151033511
 20
21.10188887574777
 30
0.0
 10
159.8134151033511
 20
21.74831973501088
 30
0.0
 10
159.3013596469368
 20
22.27858134226545
 30
0.0
 10
158.6553231143631
 20
22.30115686857244
 30
0.0
  0
SPLINE
  5
E5
330
70
100
AcDbEntity
  8
CK_LEVEL_1
 62
    18
420
        0
370
    25
100
AcDbSpline
210
0.0
220
0.0
230
1.0
 70
     8
 71
     3
 72
     8
 73
     4
 74
     0
 42
0.0000000001
 43
0.0000000001
 40
0.0
 40
0.0
 40
0.0
 40
0.0
 40
1.0
 40
1.0
 40
1.0
 40
1.0
 10
158.6553231143631
 20
71.0026208829236
 30
0.0
 10
158.9358999619669
 20
71.01242554517549
 30
0.0
 10
159.2041578204391
 20
71.12029628099652
 30
0.0
 10
159.4134151033511
 20
71.30746168474839
 30
0.0
  0
SPLINE
  5
E6
330
70
100
AcDbEntity
  8
CK_LEVEL_1
 62
    18
420
        0
370
    25
100
AcDbSpline
210
0.0
220
0.0
230
1.0
 70
     8
 71
     3
 72
     8
 73
     4
 74
     0
 42
0.0000000001
 43
0.0000000001
 40
0.0
 40
0.0
 40
0.0
 40
0.0
 40
1.0
 40
1.0
 40
1.0
 40
1.0
 10
158.3866482712281
 20
71.04277788420093
 30
0.0
 10
158.4743978118926
 20
71.01926546564377
 30
0.0
 10
158.5645335210457
 20
71.00579349429825
 30
0.0
 10
158.6553231143393
 20
71.0026208829236
 30
0.0
  0
SPLINE
  5
E7
330
70
100
AcDbEntity
  8
CK_LEVEL_1
 62
    18
420
        0
370
    25
100
AcDbSpline
210
0.0
220
0.0
230
1.0
 70
     8
 71
     3
 72
     8
 73
     4
 74
     0
 42
0.0000000001
 43
0.0000000001
 40
0.0
 40
0.0
 40
0.0
 40
0.0
 40
1.0
 40
1.0
 40
1.0
 40
1.0
 10
159.4134151033511
 20
71.30746168474839
 30
0.0
 10
159.6679354100456
 20
71.53511156771727
 30
0.0
 10
159.8134151033511
 20
71.86041405129464
 30
0.0
 10
159.8134151033511
 20
72.20188887574797
 30
0.0
  0
SPLINE
  5
E8
330
70
100
AcDbEntity
  8
CK_LEVEL_1
 62
    18
420
        0
370
    25
100
AcDbSpline
210
0.0
220
0.0
230
1.0
 70
     8
 71
     3
 72
     8
 73
     4
 74
     0
 42
0.0000000001
 43
0.0000000001
 40
0.0
 40
0.0
 40
0.0
 40
0.0
 40
1.0
 40
1.0
 40
1.0
 40
1.0
 10
159.8134151033511
 20
72.85227112644803
 30
0.0
 10
159.8134151033511
 20
73.0985346801437
 30
0.0
 10
159.7376485280299
 20
73.33883555662534
 30
0.0
 10
159.5963975564975
 20
73.54056285006926
 30
0.0
  0
LINE
  5
E9
330
70
100
AcDbEntity
  8
CK_LEVEL_1
 62
    18
420
        0
370
    25
100
AcDbLine
 10
158.3866482712512
 20
71.04277788424777
 30
0.0
 11
156.1134151033507
 21
71.65188887574778
 31
0.0
  0
LINE
  5
EA
330
70
100
AcDbEntity
  8
CK_LEVEL_1
 62
    18
420
        0
370
    25
100
AcDbLine
 10
159.4134151033511
 20
73.80188887574802
 30
0.0
 11
159.5963975565508
 21
73.54056285004777
 31
0.0
  0
LINE
  5
EB
330
70
100
AcDbEntity
  8
CK_LEVEL_1
 62
    18
420
        0
370
    25
100
AcDbLine
 10
159.8134151033511
 20
72.20188887574797
 30
0.0
 11
159.8134151033511
 21
72.85227112644803
 31
0.0
  0
LINE
  5
EC
330
70
100
AcDbEntity
  8
CK_LEVEL_1
 62
    18
420
        0
370
    25
100
AcDbLine
 10
159.4134151033511
 20
19.50188887574771
 30
0.0
 11
159.5963975565508
 21
19.76321490154807
 31
0.0
  0
LINE
  5
ED
330
70
100
AcDbEntity
  8
CK_LEVEL_1
 62
    18
420
        0
370
    25
100
AcDbLine
 10
132.0134151033508
 20
66.65188887574792
 30
0.0
 11
131.4134151033508
 21
66.65188887574792
 31
0.0
  0
LINE
  5
EE
330
70
100
AcDbEntity
  8
CK_LEVEL_1
 62
    18
420
        0
370
    25
100
AcDbLine
 10
132.0134151033508
 20
66.65188887574792
 30
0.0
 11
133.5012830690508
 21
65.1640209101481
 31
0.0
  0
SPLINE
  5
EF
330
70
100
AcDbEntity
  8
CK_LEVEL_1
 62
    18
420
        0
370
    25
100
AcDbSpline
210
0.0
220
0.0
230
1.0
 70
     8
 71
     3
 72
     8
 73
     4
 74
     0
 42
0.0000000001
 43
0.0000000001
 40
0.0
 40
0.0
 40
0.0
 40
0.0
 40
1.0
 40
1.0
 40
1.0
 40
1.0
 10
133.5012830689949
 20
65.16402091009195
 30
0.0
 10
133.6184403565201
 20
65.04686362256641
 30
0.0
 10
133.8083898501816
 20
65.04686362256641
 30
0.0
 10
133.9255471377068
 20
65.16402091009195
 30
0.0
  0
LINE
  5
F0
330
70
100
AcDbEntity
  8
CK_LEVEL_1
 62
    18
420
        0
370
    25
100
AcDbLine
 10
135.4134151033509
 20
66.65188887574792
 30
0.0
 11
133.9255471377511
 21
65.1640209101481
 31
0.0
  0
LINE
  5
F1
330
70
100
AcDbEntity
  8
CK_LEVEL_1
 62
    18
420
        0
370
    25
100
AcDbLine
 10
136.013415103351
 20
66.65188887574792
 30
0.0
 11
135.4134151033509
 21
66.65188887574792
 31
0.0
  0
LINE
  5
F2
330
70
100
AcDbEntity
  8
CK_LEVEL_1
 62
    18
420
        0
370
    25
100
AcDbLine
 10
136.013415103351
 20
66.65188887574792
 30
0.0
 11
137.5012830690509
 21
65.1640209101481
 31
0.0
  0
SPLINE
  5
F3
330
70
100
AcDbEntity
  8
CK_LEVEL_1
 62
    18
420
        0
370
    25
100
AcDbSpline
210
0.0
220
0.0
230
1.0
 70
     8
 71
     3
 72
     8
 73
     4
 74
     0
 42
0.0000000001
 43
0.0000000001
 40
0.0
 40
0.0
 40
0.0
 40
0.0
 40
1.0
 40
1.0
 40
1.0
 40
1.0
 10
137.5012830689951
 20
65.16402091009195
 30
0.0
 10
137.6184403565203
 20
65.04686362256641
 30
0.0
 10
137.8083898501818
 20
65.04686362256641
 30
0.0
 10
137.925547137707
 20
65.16402091009195
 30
0.0
  0
LINE
  5
F4
330
70
100
AcDbEntity
  8
CK_LEVEL_1
 62
    18
420
        0
370
    25
100
AcDbLine
 10
140.0134151033511
 20
66.65188887574792
 30
0.0
 11
139.4134151033511
 21
66.65188887574792
 31
0.0
  0
LINE
  5
F5
330
70
100
AcDbEntity
  8
CK_LEVEL_1
 62
    18
420
        0
370
    25
100
AcDbLine
 10
139.4134151033511
 20
66.65188887574792
 30
0.0
 11
137.9255471377512
 21
65.1640209101481
 31
0.0
  0
LINE
  5
F6
330
70
100
AcDbEntity
  8
CK_LEVEL_1
 62
    18
420
        0
370
    25
100
AcDbLine
 10
140.0134151033511
 20
66.65188887574792
 30
0.0
 11
141.501283069051
 21
65.1640209101481
 31
0.0
  0
SPLINE
  5
F7
330
70
100
AcDbEntity
  8
CK_LEVEL_1
 62
    18
420
        0
370
    25
100
AcDbSpline
210
0.0
220
0.0
230
1.0
 70
     8
 71
     3
 72
     8
 73
     4
 74
     0
 42
0.0000000001
 43
0.0000000001
 40
0.0
 40
0.0
 40
0.0
 40
0.0
 40
1.0
 40
1.0
 40
1.0
 40
1.0
 10
141.5012830689952
 20
65.16402091009195
 30
0.0
 10
141.6184403565204
 20
65.04686362256641
 30
0.0
 10
141.8083898501819
 20
65.04686362256641
 30
0.0
 10
141.9255471377071
 20
65.16402091009195
 30
0.0
  0
LINE
  5
F8
330
70
100
AcDbEntity
  8
CK_LEVEL_1
 62
    18
420
        0
370
    25
100
AcDbLine
 10
143.4134151033512
 20
66.65188887574792
 30
0.0
 11
141.9255471377507
 21
65.1640209101481
 31
0.0
  0
LINE
  5
F9
330
70
100
AcDbEntity
  8
CK_LEVEL_1
 62
    18
420
        0
370
    25
100
AcDbLine
 10
144.0134151033512
 20
66.65188887574792
 30
0.0
 11
143.4134151033512
 21
66.65188887574792
 31
0.0
  0
LINE
  5
FA
330
70
100
AcDbEntity
  8
CK_LEVEL_1
 62
    18
420
        0
370
    25
100
AcDbLine
 10
144.0134151033512
 20
66.65188887574792
 30
0.0
 11
145.5012830690512
 21
65.1640209101481
 31
0.0
  0
SPLINE
  5
FB
330
70
100
AcDbEntity
  8
CK_LEVEL_1
 62
    18
420
        0
370
    25
100
AcDbSpline
210
0.0
220
0.0
230
1.0
 70
     8
 71
     3
 72
     8
 73
     4
 74
     0
 42
0.0000000001
 43
0.0000000001
 40
0.0
 40
0.0
 40
0.0
 40
0.0
 40
1.0
 40
1.0
 40
1.0
 40
1.0
 10
145.5012830689954
 20
65.16402091009195
 30
0.0
 10
145.6184403565206
 20
65.04686362256641
 30
0.0
 10
145.8083898501814
 20
65.04686362256641
 30
0.0
 10
145.9255471377072
 20
65.16402091009195
 30
0.0
  0
LINE
  5
FC
330
70
100
AcDbEntity
  8
CK_LEVEL_1
 62
    18
420
        0
370
    25
100
AcDbLine
 10
147.4134151033507
 20
66.65188887574792
 30
0.0
 11
145.9255471377509
 21
65.1640209101481
 31
0.0
  0
LINE
  5
FD
330
70
100
AcDbEntity
  8
CK_LEVEL_1
 62
    18
420
        0
370
    25
100
AcDbLine
 10
96.01341510335085
 20
66.65188887574792
 30
0.0
 11
95.41341510335083
 21
66.65188887574792
 31
0.0
  0
LINE
  5
FE
330
70
100
AcDbEntity
  8
CK_LEVEL_1
 62
    18
420
        0
370
    25
100
AcDbLine
 10
100.013415103351
 20
66.65188887574792
 30
0.0
 11
101.5012830690509
 21
65.1640209101481
 31
0.0
  0
SPLINE
  5
FF
330
70
100
AcDbEntity
  8
CK_LEVEL_1
 62
    18
420
        0
370
    25
100
AcDbSpline
210
0.0
220
0.0
230
1.0
 70
     8
 71
     3
 72
     8
 73
     4
 74
     0
 42
0.0000000001
 43
0.0000000001
 40
0.0
 40
0.0
 40
0.0
 40
0.0
 40
1.0
 40
1.0
 40
1.0
 40
1.0
 10
101.5012830689951
 20
65.16402091009195
 30
0.0
 10
101.6184403565203
 20
65.04686362256641
 30
0.0
 10
101.8083898501818
 20
65.04686362256641
 30
0.0
 10
101.925547137707
 20
65.16402091009195
 30
0.0
  0
LINE
  5
100
330
70
100
AcDbEntity
  8
CK_LEVEL_1
 62
    18
420
        0
370
    25
100
AcDbLine
 10
104.0134151033511
 20
66.65188887574792
 30
0.0
 11
103.4134151033511
 21
66.65188887574792
 31
0.0
  0
LINE
  5
101
330
70
100
AcDbEntity
  8
CK_LEVEL_1
 62
    18
420
        0
370
    25
100
AcDbLine
 10
103.4134151033511
 20
66.65188887574792
 30
0.0
 11
101.9255471377512
 21
65.1640209101481
 31
0.0
  0
LINE
  5
102
330
70
100
AcDbEntity
  8
CK_LEVEL_1
 62
    18
420
        0
370
    25
100
AcDbLine
 10
112.0134151033507
 20
66.65188887574792
 30
0.0
 11
111.4134151033507
 21
66.65188887574792
 31
0.0
  0
LINE
  5
103
330
70
100
AcDbEntity
  8
CK_LEVEL_1
 62
    18
420
        0
370
    25
100
AcDbLine
 10
108.0134151033512
 20
66.65188887574792
 30
0.0
 11
107.4134151033512
 21
66.65188887574792
 31
0.0
  0
LINE
  5
104
330
70
100
AcDbEntity
  8
CK_LEVEL_1
 62
    18
420
        0
370
    25
100
AcDbLine
 10
104.0134151033511
 20
66.65188887574792
 30
0.0
 11
105.501283069051
 21
65.1640209101481
 31
0.0
  0
SPLINE
  5
105
330
70
100
AcDbEntity
  8
CK_LEVEL_1
 62
    18
420
        0
370
    25
100
AcDbSpline
210
0.0
220
0.0
230
1.0
 70
     8
 71
     3
 72
     8
 73
     4
 74
     0
 42
0.0000000001
 43
0.0000000001
 40
0.0
 40
0.0
 40
0.0
 40
0.0
 40
1.0
 40
1.0
 40
1.0
 40
1.0
 10
105.5012830689952
 20
65.16402091009195
 30
0.0
 10
105.6184403565204
 20
65.04686362256641
 30
0.0
 10
105.8083898501819
 20
65.04686362256641
 30
0.0
 10
105.9255471377071
 20
65.16402091009195
 30
0.0
  0
LINE
  5
106
330
70
100
AcDbEntity
  8
CK_LEVEL_1
 62
    18
420
        0
370
    25
100
AcDbLine
 10
107.4134151033512
 20
66.65188887574792
 30
0.0
 11
105.9255471377507
 21
65.1640209101481
 31
0.0
  0
LINE
  5
107
330
70
100
AcDbEntity
  8
CK_LEVEL_1
 62
    18
420
        0
370
    25
100
AcDbLine
 10
108.0134151033512
 20
66.65188887574792
 30
0.0
 11
109.5012830690512
 21
65.1640209101481
 31
0.0
  0
SPLINE
  5
108
330
70
100
AcDbEntity
  8
CK_LEVEL_1
 62
    18
420
        0
370
    25
100
AcDbSpline
210
0.0
220
0.0
230
1.0
 70
     8
 71
     3
 72
     8
 73
     4
 74
     0
 42
0.0000000001
 43
0.0000000001
 40
0.0
 40
0.0
 40
0.0
 40
0.0
 40
1.0
 40
1.0
 40
1.0
 40
1.0
 10
109.5012830689954
 20
65.16402091009195
 30
0.0
 10
109.6184403565205
 20
65.04686362256641
 30
0.0
 10
109.8083898501814
 20
65.04686362256641
 30
0.0
 10
109.9255471377073
 20
65.16402091009195
 30
0.0
  0
LINE
  5
109
330
70
100
AcDbEntity
  8
CK_LEVEL_1
 62
    18
420
        0
370
    25
100
AcDbLine
 10
111.4134151033507
 20
66.65188887574792
 30
0.0
 11
109.9255471377509
 21
65.1640209101481
 31
0.0
  0
LINE
  5
10A
330
70
100
AcDbEntity
  8
CK_LEVEL_1
 62
    18
420
        0
370
    25
100
AcDbLine
 10
112.0134151033507
 20
66.65188887574792
 30
0.0
 11
113.5012830690513
 21
65.1640209101481
 31
0.0
  0
SPLINE
  5
10B
330
70
100
AcDbEntity
  8
CK_LEVEL_1
 62
    18
420
        0
370
    25
100
AcDbSpline
210
0.0
220
0.0
230
1.0
 70
     8
 71
     3
 72
     8
 73
     4
 74
     0
 42
0.0000000001
 43
0.0000000001
 40
0.0
 40
0.0
 40
0.0
 40
0.0
 40
1.0
 40
1.0
 40
1.0
 40
1.0
 10
113.5012830689948
 20
65.16402091009195
 30
0.0
 10
113.6184403565207
 20
65.04686362256641
 30
0.0
 10
113.8083898501816
 20
65.04686362256641
 30
0.0
 10
113.9255471377067
 20
65.16402091009195
 30
0.0
  0
LINE
  5
10C
330
70
100
AcDbEntity
  8
CK_LEVEL_1
 62
    18
420
        0
370
    25
100
AcDbLine
 10
116.0134151033509
 20
66.65188887574792
 30
0.0
 11
115.4134151033509
 21
66.65188887574792
 31
0.0
  0
LINE
  5
10D
330
70
100
AcDbEntity
  8
CK_LEVEL_1
 62
    18
420
        0
370
    25
100
AcDbLine
 10
115.4134151033509
 20
66.65188887574792
 30
0.0
 11
113.925547137751
 21
65.1640209101481
 31
0.0
  0
LINE
  5
10E
330
70
100
AcDbEntity
  8
CK_LEVEL_1
 62
    18
420
        0
370
    25
100
AcDbLine
 10
100.013415103351
 20
66.65188887574792
 30
0.0
 11
84.41341510335108
 21
66.65188887574792
 31
0.0
  0
LINE
  5
10F
330
70
100
AcDbEntity
  8
CK_LEVEL_1
 62
    18
420
        0
370
    25
100
AcDbLine
 10
131.4134151033508
 20
66.65188887574792
 30
0.0
 11
129.9255471377509
 21
65.1640209101481
 31
0.0
  0
SPLINE
  5
110
330
70
100
AcDbEntity
  8
CK_LEVEL_1
 62
    18
420
        0
370
    25
100
AcDbSpline
210
0.0
220
0.0
230
1.0
 70
     8
 71
     3
 72
     8
 73
     4
 74
     0
 42
0.0000000001
 43
0.0000000001
 40
0.0
 40
0.0
 40
0.0
 40
0.0
 40
1.0
 40
1.0
 40
1.0
 40
1.0
 10
129.5012830689948
 20
65.16402091009195
 30
0.0
 10
129.6184403565206
 20
65.04686362256641
 30
0.0
 10
129.8083898501815
 20
65.04686362256641
 30
0.0
 10
129.9255471377073
 20
65.16402091009195
 30
0.0
  0
LINE
  5
111
330
70
100
AcDbEntity
  8
CK_LEVEL_1
 62
    18
420
        0
370
    25
100
AcDbLine
 10
128.0134151033507
 20
66.65188887574792
 30
0.0
 11
129.5012830690513
 21
65.1640209101481
 31
0.0
  0
LINE
  5
112
330
70
100
AcDbEntity
  8
CK_LEVEL_1
 62
    18
420
        0
370
    25
100
AcDbLine
 10
128.0134151033507
 20
66.65188887574792
 30
0.0
 11
127.4134151033513
 21
66.65188887574792
 31
0.0
  0
LINE
  5
113
330
70
100
AcDbEntity
  8
CK_LEVEL_1
 62
    18
420
        0
370
    25
100
AcDbLine
 10
124.0134151033512
 20
66.65188887574792
 30
0.0
 11
123.4134151033511
 21
66.65188887574792
 31
0.0
  0
LINE
  5
114
330
70
100
AcDbEntity
  8
CK_LEVEL_1
 62
    18
420
        0
370
    25
100
AcDbLine
 10
120.013415103351
 20
66.65188887574792
 30
0.0
 11
119.413415103351
 21
66.65188887574792
 31
0.0
  0
LINE
  5
115
330
70
100
AcDbEntity
  8
CK_LEVEL_1
 62
    18
420
        0
370
    25
100
AcDbLine
 10
116.0134151033509
 20
66.65188887574792
 30
0.0
 11
117.5012830690508
 21
65.1640209101481
 31
0.0
  0
SPLINE
  5
116
330
70
100
AcDbEntity
  8
CK_LEVEL_1
 62
    18
420
        0
370
    25
100
AcDbSpline
210
0.0
220
0.0
230
1.0
 70
     8
 71
     3
 72
     8
 73
     4
 74
     0
 42
0.0000000001
 43
0.0000000001
 40
0.0
 40
0.0
 40
0.0
 40
0.0
 40
1.0
 40
1.0
 40
1.0
 40
1.0
 10
117.501283068995
 20
65.16402091009195
 30
0.0
 10
117.6184403565202
 20
65.04686362256641
 30
0.0
 10
117.8083898501817
 20
65.04686362256641
 30
0.0
 10
117.9255471377069
 20
65.16402091009195
 30
0.0
  0
LINE
  5
117
330
70
100
AcDbEntity
  8
CK_LEVEL_1
 62
    18
420
        0
370
    25
100
AcDbLine
 10
119.413415103351
 20
66.65188887574792
 30
0.0
 11
117.9255471377512
 21
65.1640209101481
 31
0.0
  0
LINE
  5
118
330
70
100
AcDbEntity
  8
CK_LEVEL_1
 62
    18
420
        0
370
    25
100
AcDbLine
 10
127.4134151033513
 20
66.65188887574792
 30
0.0
 11
125.9255471377508
 21
65.1640209101481
 31
0.0
  0
SPLINE
  5
119
330
70
100
AcDbEntity
  8
CK_LEVEL_1
 62
    18
420
        0
370
    25
100
AcDbSpline
210
0.0
220
0.0
230
1.0
 70
     8
 71
     3
 72
     8
 73
     4
 74
     0
 42
0.0000000001
 43
0.0000000001
 40
0.0
 40
0.0
 40
0.0
 40
0.0
 40
1.0
 40
1.0
 40
1.0
 40
1.0
 10
125.5012830689953
 20
65.16402091009195
 30
0.0
 10
125.6184403565205
 20
65.04686362256641
 30
0.0
 10
125.8083898501813
 20
65.04686362256641
 30
0.0
 10
125.9255471377072
 20
65.16402091009195
 30
0.0
  0
LINE
  5
11A
330
70
100
AcDbEntity
  8
CK_LEVEL_1
 62
    18
420
        0
370
    25
100
AcDbLine
 10
120.013415103351
 20
66.65188887574792
 30
0.0
 11
121.501283069051
 21
65.1640209101481
 31
0.0
  0
SPLINE
  5
11B
330
70
100
AcDbEntity
  8
CK_LEVEL_1
 62
    18
420
        0
370
    25
100
AcDbSpline
210
0.0
220
0.0
230
1.0
 70
     8
 71
     3
 72
     8
 73
     4
 74
     0
 42
0.0000000001
 43
0.0000000001
 40
0.0
 40
0.0
 40
0.0
 40
0.0
 40
1.0
 40
1.0
 40
1.0
 40
1.0
 10
121.5012830689951
 20
65.16402091009195
 30
0.0
 10
121.6184403565203
 20
65.04686362256641
 30
0.0
 10
121.8083898501818
 20
65.04686362256641
 30
0.0
 10
121.925547137707
 20
65.16402091009195
 30
0.0
  0
LINE
  5
11C
330
70
100
AcDbEntity
  8
CK_LEVEL_1
 62
    18
420
        0
370
    25
100
AcDbLine
 10
123.4134151033511
 20
66.65188887574792
 30
0.0
 11
121.9255471377513
 21
65.1640209101481
 31
0.0
  0
LINE
  5
11D
330
70
100
AcDbEntity
  8
CK_LEVEL_1
 62
    18
420
        0
370
    25
100
AcDbLine
 10
124.0134151033512
 20
66.65188887574792
 30
0.0
 11
125.5012830690511
 21
65.1640209101481
 31
0.0
  0
LINE
  5
11E
330
70
100
AcDbEntity
  8
CK_LEVEL_1
 62
    18
420
        0
370
    25
100
AcDbLine
 10
151.4134151033508
 20
66.65188887574792
 30
0.0
 11
151.4134151033508
 21
71.65188887574778
 31
0.0
  0
LINE
  5
11F
330
70
100
AcDbEntity
  8
CK_LEVEL_1
 62
    18
420
        0
370
    25
100
AcDbLine
 10
151.4134151033508
 20
66.65188887574792
 30
0.0
 11
147.4134151033507
 21
66.65188887574792
 31
0.0
  0
LINE
  5
120
330
70
100
AcDbEntity
  8
CK_LEVEL_1
 62
    18
420
        0
370
    25
100
AcDbLine
 10
81.41341510335097
 20
22.4557364530476
 30
0.0
 11
84.41341510335108
 21
21.65188887574762
 31
0.0
  0
LINE
  5
121
330
70
100
AcDbEntity
  8
CK_LEVEL_1
 62
    18
420
        0
370
    25
100
AcDbLine
 10
81.41341510335097
 20
22.4557364530476
 30
0.0
 11
81.41341510335097
 21
65.84804129844795
 31
0.0
  0
LINE
  5
122
330
70
100
AcDbEntity
  8
CK_LEVEL_1
 62
    18
420
        0
370
    25
100
AcDbLine
 10
156.1134151033507
 20
21.65188887574762
 30
0.0
 11
84.41341510335108
 21
21.65188887574762
 31
0.0
  0
LINE
  5
123
330
70
100
AcDbEntity
  8
CK_LEVEL_1
 62
    18
420
        0
370
    25
100
AcDbLine
 10
156.1134151033507
 20
71.65188887574778
 30
0.0
 11
151.4134151033508
 21
71.65188887574778
 31
0.0
  0
LINE
  5
124
330
70
100
AcDbEntity
  8
CK_LEVEL_1
 62
    18
420
        0
370
    25
100
AcDbLine
 10
159.4134151033511
 20
-1.348111124251904
 30
0.0
 11
159.4134151033511
 21
19.50188887574771
 31
0.0
  0
LINE
  5
125
330
70
100
AcDbEntity
  8
CK_LEVEL_1
 62
    18
420
        0
370
    25
100
AcDbLine
 10
159.4134151033511
 20
73.80188887574802
 30
0.0
 11
159.4134151033511
 21
80.65188887574779
 31
0.0
  0
LINE
  5
126
330
70
100
AcDbEntity
  8
CK_LEVEL_1
 62
    18
420
        0
370
    25
100
AcDbLine
 10
84.41341510335108
 20
21.65188887574762
 30
0.0
 11
84.41341510335108
 21
66.65188887574792
 31
0.0
  0
LINE
  5
127
330
70
100
AcDbEntity
  8
CK_LEVEL_1
 62
    18
420
        0
370
    25
100
AcDbLine
 10
81.41341510335097
 20
65.84804129844795
 30
0.0
 11
84.41341510335108
 21
66.65188887574792
 31
0.0
  0
LINE
  5
128
330
70
100
AcDbEntity
  8
CK_LEVEL_1
 62
    18
420
        0
370
    25
100
AcDbLine
 10
159.4134151033511
 20
21.99631606674798
 30
0.0
 11
159.4134151033511
 21
71.30746168474775
 31
0.0
  0
LINE
  5
129
330
70
100
AcDbEntity
  8
CK_LEVEL_1
 62
    18
420
        0
370
    25
100
AcDbLine
 10
160.4134151033512
 20
-2.34811112425194
 30
0.0
 11
160.4134151033512
 21
81.65188887574782
 31
0.0
  0
LINE
  5
12A
330
70
100
AcDbEntity
  8
CK_LEVEL_1
 62
    18
420
        0
370
    25
100
AcDbLine
 10
178.4134151033511
 20
-2.34811112425194
 30
0.0
 11
178.4134151033511
 21
81.65188887574782
 31
0.0
  0
MTEXT
  5
12B
330
70
100
AcDbEntity
  8
CK_LEVEL_1
100
AcDbMText
 10
56.99695161878028
 20
45.16862537526384
 30
0.0
 40
0.2
 41
0.0
 46
0.0
 71
     7
 72
     1
  1
\C4;\c16776960;\FMyriad Pro|b0|i0|c1;\H3.500000;\W1.000000;VDI50
 73
     1
 44
1.0
  0
INSERT
  5
12D
330
70
100
AcDbEntity
  8
CK_LEVEL_1
100
AcDbBlockReference
  2
Block_2
 10
0.0
 20
0.0
 30
0.0
  0
INSERT
  5
139
330
70
100
AcDbEntity
  8
CK_LEVEL_1
100
AcDbBlockReference
  2
Block_3
 10
0.0
 20
0.0
 30
0.0
  0
INSERT
  5
145
330
70
100
AcDbEntity
  8
CK_LEVEL_1
100
AcDbBlockReference
  2
Block_4
 10
0.0
 20
0.0
 30
0.0
  0
LINE
  5
150
330
70
100
AcDbEntity
  8
CK_LEVEL_1
  6
AI-Linetype-2
 62
     1
420
 16711680
370
    25
100
AcDbLine
 10
182.5548726860512
 20
46.65188887574786
 30
0.0
 11
76.74879048445084
 21
46.65188887574786
 31
0.0
  0
INSERT
  5
153
330
70
100
AcDbEntity
  8
CK_LEVEL_1
100
AcDbBlockReference
  2
Block_5
 10
0.0
 20
0.0
 30
0.0
  0
ENDSEC
  0
SECTION
  2
OBJECTS
  0
DICTIONARY
  5
C
330
0
100
AcDbDictionary
281
     1
  3
ACAD_COLOR
350
63
  3
ACAD_DETAILVIEWSTYLE
350
6A
  3
ACAD_GROUP
350
D
  3
ACAD_LAYOUT
350
62
  3
ACAD_MATERIAL
350
10
  3
ACAD_MLEADERSTYLE
350
66
  3
ACAD_MLINESTYLE
350
5F
  3
ACAD_PLOTSETTINGS
350
61
  3
ACAD_PLOTSTYLENAME
350
E
  3
ACAD_SCALELIST
350
42
  3
ACAD_SECTIONVIEWSTYLE
350
68
  3
ACAD_TABLESTYLE
350
64
  3
ACAD_VISUALSTYLE
350
29
  3
ACDB_RECOMPOSE_DATA
350
168
  3
AcDbVariableDictionary
350
15E
  0
DICTIONARY
  5
63
102
{ACAD_REACTORS
330
C
102
}
330
C
100
AcDbDictionary
281
     1
  0
DICTIONARY
  5
6A
102
{ACAD_REACTORS
330
C
102
}
330
C
100
AcDbDictionary
281
     1
  3
Imperial24
350
6B
  0
DICTIONARY
  5
D
102
{ACAD_REACTORS
330
C
102
}
330
C
100
AcDbDictionary
281
     1
  0
DICTIONARY
  5
62
102
{ACAD_REACTORS
330
C
102
}
330
C
100
AcDbDictionary
281
     1
  3
Layout1
350
6F
  3
Layout2
350
77
  3
Model
350
73
  0
DICTIONARY
  5
10
102
{ACAD_REACTORS
330
C
102
}
330
C
100
AcDbDictionary
281
     1
  3
ByBlock
350
19
  3
ByLayer
350
11
  3
Global
350
21
  0
DICTIONARY
  5
66
102
{ACAD_REACTORS
330
C
102
}
330
C
100
AcDbDictionary
281
     1
  3
Standard
350
67
  0
DICTIONARY
  5
5F
102
{ACAD_REACTORS
330
C
102
}
330
C
100
AcDbDictionary
281
     1
  3
Standard
350
60
  0
DICTIONARY
  5
61
102
{ACAD_REACTORS
330
C
102
}
330
C
100
AcDbDictionary
281
     1
  0
ACDBDICTIONARYWDFLT
  5
E
102
{ACAD_REACTORS
330
C
102
}
330
C
100
AcDbDictionary
281
     1
  3
Normal
350
F
100
AcDbDictionaryWithDefault
340
F
  0
DICTIONARY
  5
42
102
{ACAD_REACTORS
330
C
102
}
330
C
100
AcDbDictionary
281
     1
  3
A0
350
43
  3
A1
350
44
  3
A2
350
45
  3
A3
350
46
  3
A4
350
47
  3
A5
350
48
  3
A6
350
49
  3
A7
350
4A
  3
A8
350
4B
  3
A9
350
4C
  3
B0
350
4D
  3
B1
350
4E
  3
B2
350
4F
  3
B3
350
50
  3
B4
350
51
  3
B5
350
52
  3
B6
350
53
  0
DICTIONARY
  5
68
102
{ACAD_REACTORS
330
C
102
}
330
C
100
AcDbDictionary
281
     1
  3
Imperial24
350
69
  0
DICTIONARY
  5
64
102
{ACAD_REACTORS
330
C
102
}
330
C
100
AcDbDictionary
281
     1
  3
Standard
350
65
  0
DICTIONARY
  5
29
102
{ACAD_REACTORS
330
C
102
}
330
C
100
AcDbDictionary
281
     1
  3
2dWireframe
350
2F
  3
Basic
350
2E
  3
Brighten
350
35
  3
ColorChange
350
39
  3
Conceptual
350
32
  3
Dim
350
34
  3
EdgeColorOff
350
41
  3
Facepattern
350
38
  3
Flat
350
2A
  3
FlatWithEdges
350
2B
  3
Gouraud
350
2C
  3
GouraudWithEdges
350
2D
  3
Hidden
350
31
  3
JitterOff
350
3F
  3
Linepattern
350
37
  3
OverhangOff
350
40
  3
Realistic
350
33
  3
Shaded
350
3E
  3
Shaded with edges
350
3D
  3
Shades of Gray
350
3A
  3
Sketchy
350
3B
  3
Thicken
350
36
  3
Wireframe
350
30
  3
X-Ray
350
3C
  0
XRECORD
  5
168
102
{ACAD_REACTORS
330
C
102
}
330
C
100
AcDbXrecord
280
     1
 90
        1
330
65
  0
DICTIONARY
  5
15E
102
{ACAD_REACTORS
330
C
102
}
330
C
100
AcDbDictionary
281
     1
  3
CANNOSCALE
350
163
  3
CMLEADERSTYLE
350
160
  3
CTABLESTYLE
350
15F
  3
CVIEWDETAILSTYLE
350
161
  3
CVIEWSECTIONSTYLE
350
162
  0
ACDBDETAILVIEWSTYLE
  5
6B
102
{ACAD_XDICTIONARY
360
19D
102
}
102
{ACAD_REACTORS
330
6A
102
}
330
6A
100
AcDbModelDocViewStyle
 70
     0
  3
Imperial24
290
     0
100
AcDbDetailViewStyle
 70
     0
 71
     0
 90
        3
 71
     1
340
55
 62
   256
 40
0.24
340
0
 62
   256
 40
0.24
300

 40
0.36
280
     3
 71
     2
340
5D
 90
       25
 62
   256
 71
     3
340
55
 62
   256
 40
0.24
 90
        1
 40
0.75
 90
        1
300
%<\AcVar ViewType \f "%tc1">% %<\AcVar ViewDetailId>%\PSCALE %<\AcVar ViewScale \f "%sn">%
 71
     4
340
5D
 90
       25
 62
   256
340
5D
 90
       25
 62
   256
280
     0
  0
LAYOUT
  5
6F
102
{ACAD_REACTORS
330
62
102
}
330
62
100
AcDbPlotSettings
  1

  2

  4

  6

 40
0.0
 41
0.0
 42
0.0
 43
0.0
 44
0.0
 45
0.0
 46
0.0
 47
0.0
 48
0.0
 49
0.0
140
0.0
141
0.0
142
1.0
143
1.0
 70
   688
 72
     0
 73
     0
 74
     5
  7

 75
    16
147
1.0
 76
     0
 77
     2
 78
   300
148
0.0
149
0.0
100
AcDbLayout
  1
Layout1
 70
     1
 71
     1
 10
0.0
 20
0.0
 11
12.0
 21
9.0
 12
0.0
 22
0.0
 32
0.0
 14
0.0
 24
0.0
 34
0.0
 15
0.0
 25
0.0
 35
0.0
146
0.0
 13
0.0
 23
0.0
 33
0.0
 16
1.0
 26
0.0
 36
0.0
 17
0.0
 27
1.0
 37
0.0
 76
     0
330
6C
  0
LAYOUT
  5
77
102
{ACAD_REACTORS
330
62
102
}
330
62
100
AcDbPlotSettings
  1

  2

  4

  6

 40
0.0
 41
0.0
 42
0.0
 43
0.0
 44
0.0
 45
0.0
 46
0.0
 47
0.0
 48
0.0
 49
0.0
140
0.0
141
0.0
142
1.0
143
1.0
 70
   688
 72
     0
 73
     0
 74
     5
  7

 75
    16
147
1.0
 76
     0
 77
     2
 78
   300
148
0.0
149
0.0
100
AcDbLayout
  1
Layout2
 70
     1
 71
     2
 10
0.0
 20
0.0
 11
12.0
 21
9.0
 12
0.0
 22
0.0
 32
0.0
 14
0.0
 24
0.0
 34
0.0
 15
0.0
 25
0.0
 35
0.0
146
0.0
 13
0.0
 23
0.0
 33
0.0
 16
1.0
 26
0.0
 36
0.0
 17
0.0
 27
1.0
 37
0.0
 76
     0
330
74
  0
LAYOUT
  5
73
102
{ACAD_REACTORS
330
62
102
}
330
62
100
AcDbPlotSettings
  1

  2

  4

  6

 40
0.0
 41
0.0
 42
0.0
 43
0.0
 44
0.0
 45
0.0
 46
0.0
 47
0.0
 48
0.0
 49
0.0
140
0.0
141
0.0
142
1.0
143
1.0
 70
  1712
 72
     0
 73
     0
 74
     0
  7

 75
     0
147
1.0
 76
     0
 77
     2
 78
   300
148
0.0
149
0.0
100
AcDbLayout
  1
Model
 70
     1
 71
     0
 10
0.0
 20
0.0
 11
12.0
 21
9.0
 12
0.0
 22
0.0
 32
0.0
 14
0.0
 24
0.0
 34
0.0
 15
0.0
 25
0.0
 35
0.0
146
0.0
 13
0.0
 23
0.0
 33
0.0
 16
1.0
 26
0.0
 36
0.0
 17
0.0
 27
1.0
 37
0.0
 76
     0
330
70
  0
MATERIAL
  5
19
102
{ACAD_XDICTIONARY
360
1A
102
}
102
{ACAD_REACTORS
330
10
102
}
330
10
100
AcDbMaterial
  1
ByBlock
 72
     0
 43
0.0208333333333333
 43
0.0
 43
0.0
 43
0.0
 43
0.0
 43
0.0208333333333333
 43
0.0
 43
0.0
 43
0.0
 43
0.0
 43
1.0
 43
0.0
 43
0.0
 43
0.0
 43
0.0
 43
1.0
 77
     0
 47
0.0208333333333333
 47
0.0
 47
0.0
 47
0.0
 47
0.0
 47
0.0208333333333333
 47
0.0
 47
0.0
 47
0.0
 47
0.0
 47
1.0
 47
0.0
 47
0.0
 47
0.0
 47
0.0
 47
1.0
171
     0
 49
0.0208333333333333
 49
0.0
 49
0.0
 49
0.0
 49
0.0
 49
0.0208333333333333
 49
0.0
 49
0.0
 49
0.0
 49
0.0
 49
1.0
 49
0.0
 49
0.0
 49
0.0
 49
0.0
 49
1.0
175
     0
142
0.0208333333333333
142
0.0
142
0.0
142
0.0
142
0.0
142
0.0208333333333333
142
0.0
142
0.0
142
0.0
142
0.0
142
1.0
142
0.0
142
0.0
142
0.0
142
0.0
142
1.0
179
     0
144
0.0208333333333333
144
0.0
144
0.0
144
0.0
144
0.0
144
0.0208333333333333
144
0.0
144
0.0
144
0.0
144
0.0
144
1.0
144
0.0
144
0.0
144
0.0
144
0.0
144
1.0
147
0.0208333333333333
147
0.0
147
0.0
147
0.0
147
0.0
147
0.0208333333333333
147
0.0
147
0.0
147
0.0
147
0.0
147
1.0
147
0.0
147
0.0
147
0.0
147
0.0
147
1.0
  0
MATERIAL
  5
11
102
{ACAD_XDICTIONARY
360
12
102
}
102
{ACAD_REACTORS
330
10
102
}
330
10
100
AcDbMaterial
  1
ByLayer
 72
     0
 43
0.0208333333333333
 43
0.0
 43
0.0
 43
0.0
 43
0.0
 43
0.0208333333333333
 43
0.0
 43
0.0
 43
0.0
 43
0.0
 43
1.0
 43
0.0
 43
0.0
 43
0.0
 43
0.0
 43
1.0
 77
     0
 47
0.0208333333333333
 47
0.0
 47
0.0
 47
0.0
 47
0.0
 47
0.0208333333333333
 47
0.0
 47
0.0
 47
0.0
 47
0.0
 47
1.0
 47
0.0
 47
0.0
 47
0.0
 47
0.0
 47
1.0
171
     0
 49
0.0208333333333333
 49
0.0
 49
0.0
 49
0.0
 49
0.0
 49
0.0208333333333333
 49
0.0
 49
0.0
 49
0.0
 49
0.0
 49
1.0
 49
0.0
 49
0.0
 49
0.0
 49
0.0
 49
1.0
175
     0
142
0.0208333333333333
142
0.0
142
0.0
142
0.0
142
0.0
142
0.0208333333333333
142
0.0
142
0.0
142
0.0
142
0.0
142
1.0
142
0.0
142
0.0
142
0.0
142
0.0
142
1.0
179
     0
144
0.0208333333333333
144
0.0
144
0.0
144
0.0
144
0.0
144
0.0208333333333333
144
0.0
144
0.0
144
0.0
144
0.0
144
1.0
144
0.0
144
0.0
144
0.0
144
0.0
144
1.0
147
0.0208333333333333
147
0.0
147
0.0
147
0.0
147
0.0
147
0.0208333333333333
147
0.0
147
0.0
147
0.0
147
0.0
147
1.0
147
0.0
147
0.0
147
0.0
147
0.0
147
1.0
  0
MATERIAL
  5
21
102
{ACAD_XDICTIONARY
360
22
102
}
102
{ACAD_REACTORS
330
10
102
}
330
10
100
AcDbMaterial
  1
Global
 72
     0
 43
0.0208333333333333
 43
0.0
 43
0.0
 43
0.0
 43
0.0
 43
0.0208333333333333
 43
0.0
 43
0.0
 43
0.0
 43
0.0
 43
1.0
 43
0.0
 43
0.0
 43
0.0
 43
0.0
 43
1.0
 77
     0
 47
0.0208333333333333
 47
0.0
 47
0.0
 47
0.0
 47
0.0
 47
0.0208333333333333
 47
0.0
 47
0.0
 47
0.0
 47
0.0
 47
1.0
 47
0.0
 47
0.0
 47
0.0
 47
0.0
 47
1.0
171
     0
 49
0.0208333333333333
 49
0.0
 49
0.0
 49
0.0
 49
0.0
 49
0.0208333333333333
 49
0.0
 49
0.0
 49
0.0
 49
0.0
 49
1.0
 49
0.0
 49
0.0
 49
0.0
 49
0.0
 49
1.0
175
     0
142
0.0208333333333333
142
0.0
142
0.0
142
0.0
142
0.0
142
0.0208333333333333
142
0.0
142
0.0
142
0.0
142
0.0
142
1.0
142
0.0
142
0.0
142
0.0
142
0.0
142
1.0
179
     0
144
0.0208333333333333
144
0.0
144
0.0
144
0.0
144
0.0
144
0.0208333333333333
144
0.0
144
0.0
144
0.0
144
0.0
144
1.0
144
0.0
144
0.0
144
0.0
144
0.0
144
1.0
147
0.0208333333333333
147
0.0
147
0.0
147
0.0
147
0.0
147
0.0208333333333333
147
0.0
147
0.0
147
0.0
147
0.0
147
1.0
147
0.0
147
0.0
147
0.0
147
0.0
147
1.0
  0
MLEADERSTYLE
  5
67
102
{ACAD_XDICTIONARY
360
199
102
}
102
{ACAD_REACTORS
330
66
102
}
330
66
100
AcDbMLeaderStyle
179
     2
170
     2
171
     1
172
     0
 90
        2
 40
0.0
 41
0.0
173
     1
 91
-1056964608
340
5B
 92
       -2
290
     1
 42
0.09
291
     1
 43
0.36
  3
Standard
 44
0.18
300

342
55
174
     1
178
     6
175
     1
176
     0
 93
-1056964608
 45
0.18
292
     0
297
     0
 46
0.18
 94
-1056964608
 47
1.0
 49
1.0
140
1.0
293
     1
141
0.0
294
     1
177
     0
142
1.0
295
     0
296
     0
143
0.125
271
     0
272
     9
273
     9
  0
MLINESTYLE
  5
60
102
{ACAD_REACTORS
330
5F
102
}
330
5F
100
AcDbMlineStyle
  2
STANDARD
 70
     0
  3

 62
   256
 51
90.0
 52
90.0
 71
     2
 49
0.5
 62
   256
  6
BYLAYER
 49
-0.5
 62
   256
  6
BYLAYER
  0
ACDBPLACEHOLDER
  5
F
102
{ACAD_REACTORS
330
E
102
}
330
E
  0
SCALE
  5
43
102
{ACAD_REACTORS
330
42
102
}
330
42
100
AcDbScale
 70
     0
300
1:1
140
1.0
141
1.0
290
     1
  0
SCALE
  5
44
102
{ACAD_REACTORS
330
42
102
}
330
42
100
AcDbScale
 70
     0
300
1/128" = 1'-0"
140
0.0078125
141
12.0
290
     0
  0
SCALE
  5
45
102
{ACAD_REACTORS
330
42
102
}
330
42
100
AcDbScale
 70
     0
300
1/64" = 1'-0"
140
0.015625
141
12.0
290
     0
  0
SCALE
  5
46
102
{ACAD_REACTORS
330
42
102
}
330
42
100
AcDbScale
 70
     0
300
1/32" = 1'-0"
140
0.03125
141
12.0
290
     0
  0
SCALE
  5
47
102
{ACAD_REACTORS
330
42
102
}
330
42
100
AcDbScale
 70
     0
300
1/16" = 1'-0"
140
0.0625
141
12.0
290
     0
  0
SCALE
  5
48
102
{ACAD_REACTORS
330
42
102
}
330
42
100
AcDbScale
 70
     0
300
3/32" = 1'-0"
140
0.09375
141
12.0
290
     0
  0
SCALE
  5
49
102
{ACAD_REACTORS
330
42
102
}
330
42
100
AcDbScale
 70
     0
300
1/8" = 1'-0"
140
0.125
141
12.0
290
     0
  0
SCALE
  5
4A
102
{ACAD_REACTORS
330
42
102
}
330
42
100
AcDbScale
 70
     0
300
3/16" = 1'-0"
140
0.1875
141
12.0
290
     0
  0
SCALE
  5
4B
102
{ACAD_REACTORS
330
42
102
}
330
42
100
AcDbScale
 70
     0
300
1/4" = 1'-0"
140
0.25
141
12.0
290
     0
  0
SCALE
  5
4C
102
{ACAD_REACTORS
330
42
102
}
330
42
100
AcDbScale
 70
     0
300
3/8" = 1'-0"
140
0.375
141
12.0
290
     0
  0
SCALE
  5
4D
102
{ACAD_REACTORS
330
42
102
}
330
42
100
AcDbScale
 70
     0
300
1/2" = 1'-0"
140
0.5
141
12.0
290
     0
  0
SCALE
  5
4E
102
{ACAD_REACTORS
330
42
102
}
330
42
100
AcDbScale
 70
     0
300
3/4" = 1'-0"
140
0.75
141
12.0
290
     0
  0
SCALE
  5
4F
102
{ACAD_REACTORS
330
42
102
}
330
42
100
AcDbScale
 70
     0
300
1" = 1'-0"
140
1.0
141
12.0
290
     0
  0
SCALE
  5
50
102
{ACAD_REACTORS
330
42
102
}
330
42
100
AcDbScale
 70
     0
300
1-1/2" = 1'-0"
140
1.5
141
12.0
290
     0
  0
SCALE
  5
51
102
{ACAD_REACTORS
330
42
102
}
330
42
100
AcDbScale
 70
     0
300
3" = 1'-0"
140
3.0
141
12.0
290
     0
  0
SCALE
  5
52
102
{ACAD_REACTORS
330
42
102
}
330
42
100
AcDbScale
 70
     0
300
6" = 1'-0"
140
6.0
141
12.0
290
     0
  0
SCALE
  5
53
102
{ACAD_REACTORS
330
42
102
}
330
42
100
AcDbScale
 70
     0
300
1'-0" = 1'-0"
140
12.0
141
12.0
290
     0
  0
ACDBSECTIONVIEWSTYLE
  5
69
102
{ACAD_XDICTIONARY
360
19B
102
}
102
{ACAD_REACTORS
330
68
102
}
330
68
100
AcDbModelDocViewStyle
 70
     0
  3
Imperial24
290
     0
100
AcDbSectionViewStyle
 70
     0
 71
     0
 90
       78
 71
     1
340
55
 62
   256
 40
0.24
340
0
340
0
 62
   256
 40
0.24
300
I, O, Q, S, X, Z
 40
0.48
 90
        3
 40
0.18
 90
        1
 71
     2
340
5D
 90
       25
 62
   256
340
5D
 90
       50
 62
   256
 40
0.24
 40
0.0
 40
0.24
 71
     3
340
55
 62
   256
 40
0.24
 90
        1
 40
0.75
 90
        1
300
%<\AcVar ViewType \f "%tc1">% %<\AcVar ViewSectionStartId>%-%<\AcVar ViewSectionEndId>%\PSCALE %<\AcVar ViewScale \f "%sn">%
 71
     4
 62
   256
 62
   257
300
ANSI31
 40
1.0
 90
        0
290
     0
290
     0
 90
        6
 40
0.0
 40
1.570796326794896
 40
0.2617993877991494
 40
1.308996938995747
 40
-0.2617993877991494
 40
1.832595714594046
  0
TABLESTYLE
  5
65
102
{ACAD_XDICTIONARY
360
164
102
}
102
{ACAD_REACTORS
330
64
102
}
330
64
100
AcDbTableStyle
280
     0
  3
Standard
 70
     0
 71
     0
 40
0.06
 41
0.06
280
     0
281
     0
  7
Standard
140
0.18
170
     2
 62
     0
 63
     7
283
     0
 90
      512
 91
        0
  1

274
    -2
284
     1
 64
     0
275
    -2
285
     1
 65
     0
276
    -2
286
     1
 66
     0
277
    -2
287
     1
 67
     0
278
    -2
288
     1
 68
     0
279
    -2
289
     1
 69
     0
  7
Standard
140
0.25
170
     5
 62
     0
 63
     7
283
     0
 90
      512
 91
        0
  1

274
    -2
284
     1
 64
     0
275
    -2
285
     1
 65
     0
276
    -2
286
     1
 66
     0
277
    -2
287
     1
 67
     0
278
    -2
288
     1
 68
     0
279
    -2
289
     1
 69
     0
  7
Standard
140
0.18
170
     5
 62
     0
 63
     7
283
     0
 90
      512
 91
        0
  1

274
    -2
284
     1
 64
     0
275
    -2
285
     1
 65
     0
276
    -2
286
     1
 66
     0
277
    -2
287
     1
 67
     0
278
    -2
288
     1
 68
     0
279
    -2
289
     1
 69
     0
  0
VISUALSTYLE
  5
2F
102
{ACAD_XDICTIONARY
360
173
102
}
102
{ACAD_REACTORS
330
29
102
}
330
29
100
AcDbVisualStyle
  2
2dWireframe
 70
     4
177
     2
291
     0
 71
     0
176
     1
 72
     2
176
     1
 73
     0
176
     1
 90
        0
176
     1
 40
0.6
176
     1
 41
30.0
176
     1
 63
     7
421
 16777215
176
     1
 74
     1
176
     1
 91
        4
176
     1
 64
     7
176
     1
 65
   257
176
     1
 75
     1
176
     1
175
     1
176
     1
 42
1.0
176
     1
 92
        0
176
     1
 66
   257
176
     1
 43
1.0
176
     1
 76
     1
176
     1
 77
     6
176
     1
 78
     2
176
     1
 67
     7
176
     1
 79
     5
176
     1
170
     0
176
     1
171
     0
176
     1
290
     0
176
     1
 93
        1
176
     1
 44
0.0
176
     1
173
     0
176
     1
1001
ACAD
1000
AcDbSavedByObjectVersion
1070
     0
  0
VISUALSTYLE
  5
2E
102
{ACAD_XDICTIONARY
360
171
102
}
102
{ACAD_REACTORS
330
29
102
}
330
29
100
AcDbVisualStyle
  2
Basic
 70
     7
177
     2
291
     1
 71
     1
176
     1
 72
     0
176
     1
 73
     1
176
     1
 90
        0
176
     1
 40
0.6
176
     1
 41
30.0
176
     1
 63
     7
421
 16777215
176
     1
 74
     0
176
     1
 91
        4
176
     1
 64
     7
176
     1
 65
   257
176
     1
 75
     1
176
     1
175
     1
176
     1
 42
1.0
176
     1
 92
        8
176
     1
 66
     7
176
     1
 43
1.0
176
     1
 76
     1
176
     1
 77
     6
176
     1
 78
     2
176
     1
 67
     7
176
     1
 79
     5
176
     1
170
     0
176
     1
171
     0
176
     1
290
     0
176
     1
 93
        1
176
     1
 44
0.0
176
     1
173
     0
176
     1
1001
ACAD
1000
AcDbSavedByObjectVersion
1070
     0
  0
VISUALSTYLE
  5
35
102
{ACAD_XDICTIONARY
360
17F
102
}
102
{ACAD_REACTORS
330
29
102
}
330
29
100
AcDbVisualStyle
  2
Brighten
 70
    12
177
     2
291
     1
 71
     2
176
     1
 72
     2
176
     1
 73
     0
176
     1
 90
        0
176
     1
 40
0.6
176
     1
 41
30.0
176
     1
 63
     7
421
 16777215
176
     1
 74
     1
176
     1
 91
        4
176
     1
 64
     7
176
     1
 65
   257
176
     1
 75
     1
176
     1
175
     1
176
     1
 42
1.0
176
     1
 92
        8
176
     1
 66
     7
176
     1
 43
1.0
176
     1
 76
     1
176
     1
 77
     6
176
     1
 78
     2
176
     1
 67
     7
176
     1
 79
     5
176
     1
170
     0
176
     1
171
     0
176
     1
290
     0
176
     1
 93
        1
176
     1
 44
50.0
176
     1
173
     0
176
     1
1001
ACAD
1000
AcDbSavedByObjectVersion
1070
     0
  0
VISUALSTYLE
  5
39
102
{ACAD_XDICTIONARY
360
187
102
}
102
{ACAD_REACTORS
330
29
102
}
330
29
100
AcDbVisualStyle
  2
ColorChange
 70
    16
177
     2
291
     1
 71
     2
176
     1
 72
     2
176
     1
 73
     3
176
     1
 90
        0
176
     1
 40
0.6
176
     1
 41
30.0
176
     1
 63
     8
421
  8421504
176
     1
 74
     1
176
     1
 91
        4
176
     1
 64
     7
176
     1
 65
   257
176
     1
 75
     1
176
     1
175
     1
176
     1
 42
1.0
176
     1
 92
        8
176
     1
 66
     8
424
  8421504
176
     1
 43
1.0
176
     1
 76
     1
176
     1
 77
     6
176
     1
 78
     2
176
     1
 67
     7
176
     1
 79
     5
176
     1
170
     0
176
     1
171
     0
176
     1
290
     0
176
     1
 93
        1
176
     1
 44
0.0
176
     1
173
     0
176
     1
1001
ACAD
1000
AcDbSavedByObjectVersion
1070
     0
  0
VISUALSTYLE
  5
32
102
{ACAD_XDICTIONARY
360
179
102
}
102
{ACAD_REACTORS
330
29
102
}
330
29
100
AcDbVisualStyle
  2
Conceptual
 70
     9
177
     2
291
     0
 71
     3
176
     1
 72
     2
176
     1
 73
     0
176
     1
 90
        0
176
     1
 40
0.6
176
     1
 41
30.0
176
     1
 63
     7
421
 16777215
176
     1
 74
     2
176
     1
 91
        2
176
     1
 64
     7
176
     1
 65
   257
176
     1
 75
     1
176
     1
175
     1
176
     1
 42
179.0
176
     1
 92
        8
176
     1
 66
     7
176
     1
 43
1.0
176
     1
 76
     1
176
     1
 77
     6
176
     1
 78
     2
176
     1
 67
     7
176
     1
 79
     3
176
     1
170
     0
176
     1
171
     0
176
     1
290
     0
176
     1
 93
        1
176
     1
 44
0.0
176
     1
173
     0
176
     1
1001
ACAD
1000
AcDbSavedByObjectVersion
1070
     0
  0
VISUALSTYLE
  5
34
102
{ACAD_XDICTIONARY
360
17D
102
}
102
{ACAD_REACTORS
330
29
102
}
330
29
100
AcDbVisualStyle
  2
Dim
 70
    11
177
     2
291
     1
 71
     2
176
     1
 72
     2
176
     1
 73
     0
176
     1
 90
        0
176
     1
 40
0.6
176
     1
 41
30.0
176
     1
 63
     7
421
 16777215
176
     1
 74
     1
176
     1
 91
        4
176
     1
 64
     7
176
     1
 65
   257
176
     1
 75
     1
176
     1
175
     1
176
     1
 42
1.0
176
     1
 92
        8
176
     1
 66
     7
176
     1
 43
1.0
176
     1
 76
     1
176
     1
 77
     6
176
     1
 78
     2
176
     1
 67
     7
176
     1
 79
     5
176
     1
170
     0
176
     1
171
     0
176
     1
290
     0
176
     1
 93
        1
176
     1
 44
-50.0
176
     1
173
     0
176
     1
1001
ACAD
1000
AcDbSavedByObjectVersion
1070
     0
  0
VISUALSTYLE
  5
41
102
{ACAD_XDICTIONARY
360
197
102
}
102
{ACAD_REACTORS
330
29
102
}
330
29
100
AcDbVisualStyle
  2
EdgeColorOff
 70
    22
177
     2
291
     1
 71
     2
176
     0
 72
     2
176
     0
 73
     0
176
     0
 90
        0
176
     0
 40
0.6
176
     0
 41
30.0
176
     0
 63
     7
421
 16777215
176
     0
 74
     1
176
     0
 91
        4
176
     0
 64
     7
176
     0
 65
   257
176
     0
 75
     1
176
     0
175
     1
176
     0
 42
1.0
176
     0
 92
        8
176
     2
 66
     7
176
     0
 43
1.0
176
     0
 76
     1
176
     0
 77
     6
176
     0
 78
     2
176
     0
 67
     7
176
     0
 79
     5
176
     0
170
     0
176
     0
171
     0
176
     0
290
     0
176
     0
 93
        1
176
     0
 44
0.0
176
     0
173
     0
176
     0
1001
ACAD
1000
AcDbSavedByObjectVersion
1070
     0
  0
VISUALSTYLE
  5
38
102
{ACAD_XDICTIONARY
360
185
102
}
102
{ACAD_REACTORS
330
29
102
}
330
29
100
AcDbVisualStyle
  2
Facepattern
 70
    15
177
     2
291
     1
 71
     2
176
     1
 72
     2
176
     1
 73
     0
176
     1
 90
        0
176
     1
 40
0.6
176
     1
 41
30.0
176
     1
 63
     7
421
 16777215
176
     1
 74
     1
176
     1
 91
        4
176
     1
 64
     7
176
     1
 65
   257
176
     1
 75
     1
176
     1
175
     1
176
     1
 42
1.0
176
     1
 92
        8
176
     1
 66
     7
176
     1
 43
1.0
176
     1
 76
     1
176
     1
 77
     6
176
     1
 78
     2
176
     1
 67
     7
176
     1
 79
     5
176
     1
170
     0
176
     1
171
     0
176
     1
290
     0
176
     1
 93
        1
176
     1
 44
0.0
176
     1
173
     0
176
     1
1001
ACAD
1000
AcDbSavedByObjectVersion
1070
     0
  0
VISUALSTYLE
  5
2A
102
{ACAD_XDICTIONARY
360
169
102
}
102
{ACAD_REACTORS
330
29
102
}
330
29
100
AcDbVisualStyle
  2
Flat
 70
     0
177
     2
291
     1
 71
     2
176
     1
 72
     1
176
     1
 73
     1
176
     1
 90
        2
176
     1
 40
0.6
176
     1
 41
30.0
176
     1
 63
     7
421
 16777215
176
     1
 74
     0
176
     1
 91
        0
176
     1
 64
     7
176
     1
 65
   257
176
     1
 75
     1
176
     1
175
     1
176
     1
 42
1.0
176
     1
 92
        8
176
     1
 66
     7
176
     1
 43
1.0
176
     1
 76
     1
176
     1
 77
     6
176
     1
 78
     2
176
     1
 67
     7
176
     1
 79
     5
176
     1
170
     0
176
     1
171
     0
176
     1
290
     0
176
     1
 93
       13
176
     1
 44
0.0
176
     1
173
     0
176
     1
1001
ACAD
1000
AcDbSavedByObjectVersion
1070
     0
  0
VISUALSTYLE
  5
2B
102
{ACAD_XDICTIONARY
360
16B
102
}
102
{ACAD_REACTORS
330
29
102
}
330
29
100
AcDbVisualStyle
  2
FlatWithEdges
 70
     1
177
     2
291
     1
 71
     2
176
     1
 72
     1
176
     1
 73
     1
176
     1
 90
        2
176
     1
 40
0.6
176
     1
 41
30.0
176
     1
 63
     7
421
 16777215
176
     1
 74
     1
176
     1
 91
        0
176
     1
 64
     7
176
     1
 65
   257
176
     1
 75
     1
176
     1
175
     1
176
     1
 42
1.0
176
     1
 92
        0
176
     1
 66
   257
176
     1
 43
1.0
176
     1
 76
     1
176
     1
 77
     6
176
     1
 78
     2
176
     1
 67
     7
176
     1
 79
     5
176
     1
170
     0
176
     1
171
     0
176
     1
290
     0
176
     1
 93
       13
176
     1
 44
0.0
176
     1
173
     0
176
     1
1001
ACAD
1000
AcDbSavedByObjectVersion
1070
     0
  0
VISUALSTYLE
  5
2C
102
{ACAD_XDICTIONARY
360
16D
102
}
102
{ACAD_REACTORS
330
29
102
}
330
29
100
AcDbVisualStyle
  2
Gouraud
 70
     2
177
     2
291
     1
 71
     2
176
     1
 72
     2
176
     1
 73
     1
176
     1
 90
        2
176
     1
 40
0.6
176
     1
 41
30.0
176
     1
 63
     7
421
 16777215
176
     1
 74
     0
176
     1
 91
        0
176
     1
 64
     7
176
     1
 65
   257
176
     1
 75
     1
176
     1
175
     1
176
     1
 42
1.0
176
     1
 92
        0
176
     1
 66
     7
176
     1
 43
1.0
176
     1
 76
     1
176
     1
 77
     6
176
     1
 78
     2
176
     1
 67
     7
176
     1
 79
     5
176
     1
170
     0
176
     1
171
     0
176
     1
290
     0
176
     1
 93
       13
176
     1
 44
0.0
176
     1
173
     0
176
     1
1001
ACAD
1000
AcDbSavedByObjectVersion
1070
     0
  0
VISUALSTYLE
  5
2D
102
{ACAD_XDICTIONARY
360
16F
102
}
102
{ACAD_REACTORS
330
29
102
}
330
29
100
AcDbVisualStyle
  2
GouraudWithEdges
 70
     3
177
     2
291
     1
 71
     2
176
     1
 72
     2
176
     1
 73
     1
176
     1
 90
        2
176
     1
 40
0.6
176
     1
 41
30.0
176
     1
 63
     7
421
 16777215
176
     1
 74
     1
176
     1
 91
        0
176
     1
 64
     7
176
     1
 65
   257
176
     1
 75
     1
176
     1
175
     1
176
     1
 42
1.0
176
     1
 92
        0
176
     1
 66
   257
176
     1
 43
1.0
176
     1
 76
     1
176
     1
 77
     6
176
     1
 78
     2
176
     1
 67
     7
176
     1
 79
     5
176
     1
170
     0
176
     1
171
     0
176
     1
290
     0
176
     1
 93
       13
176
     1
 44
0.0
176
     1
173
     0
176
     1
1001
ACAD
1000
AcDbSavedByObjectVersion
1070
     0
  0
VISUALSTYLE
  5
31
102
{ACAD_XDICTIONARY
360
177
102
}
102
{ACAD_REACTORS
330
29
102
}
330
29
100
AcDbVisualStyle
  2
Hidden
 70
     6
177
     2
291
     0
 71
     1
176
     1
 72
     2
176
     1
 73
     2
176
     1
 90
        0
176
     1
 40
0.6
176
     1
 41
30.0
176
     1
 63
     7
421
 16777215
176
     1
 74
     2
176
     1
 91
        2
176
     1
 64
     7
176
     1
 65
   257
176
     1
 75
     2
176
     1
175
     1
176
     1
 42
40.0
176
     1
 92
        0
176
     1
 66
   257
176
     1
 43
1.0
176
     1
 76
     1
176
     1
 77
     6
176
     1
 78
     2
176
     1
 67
     7
176
     1
 79
     3
176
     1
170
     0
176
     1
171
     0
176
     1
290
     0
176
     1
 93
        1
176
     1
 44
0.0
176
     1
173
     0
176
     1
1001
ACAD
1000
AcDbSavedByObjectVersion
1070
     0
  0
VISUALSTYLE
  5
3F
102
{ACAD_XDICTIONARY
360
193
102
}
102
{ACAD_REACTORS
330
29
102
}
330
29
100
AcDbVisualStyle
  2
JitterOff
 70
    20
177
     2
291
     1
 71
     2
176
     0
 72
     2
176
     0
 73
     0
176
     0
 90
        0
176
     0
 40
0.6
176
     0
 41
30.0
176
     0
 63
     7
421
 16777215
176
     0
 74
     1
176
     0
 91
        4
176
     0
 64
     7
176
     0
 65
   257
176
     0
 75
     1
176
     0
175
     1
176
     0
 42
1.0
176
     0
 92
       10
176
     2
 66
     7
176
     0
 43
1.0
176
     0
 76
     1
176
     0
 77
     6
176
     0
 78
     2
176
     0
 67
     7
176
     0
 79
     5
176
     0
170
     0
176
     0
171
     0
176
     0
290
     0
176
     0
 93
        1
176
     0
 44
0.0
176
     0
173
     0
176
     0
1001
ACAD
1000
AcDbSavedByObjectVersion
1070
     0
  0
VISUALSTYLE
  5
37
102
{ACAD_XDICTIONARY
360
183
102
}
102
{ACAD_REACTORS
330
29
102
}
330
29
100
AcDbVisualStyle
  2
Linepattern
 70
    14
177
     2
291
     1
 71
     2
176
     1
 72
     2
176
     1
 73
     0
176
     1
 90
        0
176
     1
 40
0.6
176
     1
 41
30.0
176
     1
 63
     7
421
 16777215
176
     1
 74
     1
176
     1
 91
        4
176
     1
 64
     7
176
     1
 65
   257
176
     1
 75
     7
176
     1
175
     7
176
     1
 42
1.0
176
     1
 92
        8
176
     1
 66
     7
176
     1
 43
1.0
176
     1
 76
     1
176
     1
 77
     6
176
     1
 78
     2
176
     1
 67
     7
176
     1
 79
     5
176
     1
170
     0
176
     1
171
     0
176
     1
290
     0
176
     1
 93
        1
176
     1
 44
0.0
176
     1
173
     0
176
     1
1001
ACAD
1000
AcDbSavedByObjectVersion
1070
     0
  0
VISUALSTYLE
  5
40
102
{ACAD_XDICTIONARY
360
195
102
}
102
{ACAD_REACTORS
330
29
102
}
330
29
100
AcDbVisualStyle
  2
OverhangOff
 70
    21
177
     2
291
     1
 71
     2
176
     0
 72
     2
176
     0
 73
     0
176
     0
 90
        0
176
     0
 40
0.6
176
     0
 41
30.0
176
     0
 63
     7
421
 16777215
176
     0
 74
     1
176
     0
 91
        4
176
     0
 64
     7
176
     0
 65
   257
176
     0
 75
     1
176
     0
175
     1
176
     0
 42
1.0
176
     0
 92
        9
176
     2
 66
     7
176
     0
 43
1.0
176
     0
 76
     1
176
     0
 77
     6
176
     0
 78
     2
176
     0
 67
     7
176
     0
 79
     5
176
     0
170
     0
176
     0
171
     0
176
     0
290
     0
176
     0
 93
        1
176
     0
 44
0.0
176
     0
173
     0
176
     0
1001
ACAD
1000
AcDbSavedByObjectVersion
1070
     0
  0
VISUALSTYLE
  5
33
102
{ACAD_XDICTIONARY
360
17B
102
}
102
{ACAD_REACTORS
330
29
102
}
330
29
100
AcDbVisualStyle
  2
Realistic
 70
     8
177
     2
291
     0
 71
     2
176
     1
 72
     3
176
     1
 73
     0
176
     1
 90
        2
176
     1
 40
0.6
176
     1
 41
30.0
176
     1
 63
     7
421
 16777215
176
     1
 74
     0
176
     1
 91
        0
176
     1
 64
     7
176
     1
 65
   257
176
     1
 75
     1
176
     1
175
     1
176
     1
 42
1.0
176
     1
 92
        8
176
     1
 66
   257
176
     1
 43
1.0
176
     1
 76
     1
176
     1
 77
     6
176
     1
 78
     2
176
     1
 67
     7
176
     1
 79
     3
176
     1
170
     0
176
     1
171
     0
176
     1
290
     0
176
     1
 93
       13
176
     1
 44
0.0
176
     1
173
     0
176
     1
1001
ACAD
1000
AcDbSavedByObjectVersion
1070
     0
  0
VISUALSTYLE
  5
3E
102
{ACAD_XDICTIONARY
360
191
102
}
102
{ACAD_REACTORS
330
29
102
}
330
29
100
AcDbVisualStyle
  2
Shaded
 70
    27
177
     2
291
     0
 71
     2
176
     1
 72
     2
176
     1
 73
     1
176
     1
 90
        2
176
     1
 40
0.6
176
     1
 41
30.0
176
     1
 63
     7
421
 16777215
176
     1
 74
     0
176
     1
 91
        4
176
     1
 64
     7
176
     1
 65
   257
176
     1
 75
     1
176
     1
175
     1
176
     1
 42
1.0
176
     1
 92
        8
176
     1
 66
   257
176
     1
 43
1.0
176
     1
 76
     1
176
     1
 77
     6
176
     1
 78
     2
176
     1
 67
     8
425
  7895160
176
     1
 79
     3
176
     1
170
     0
176
     1
171
     0
176
     1
290
     0
176
     1
 93
        5
176
     1
 44
0.0
176
     1
173
     0
176
     1
1001
ACAD
1000
AcDbSavedByObjectVersion
1070
     0
  0
VISUALSTYLE
  5
3D
102
{ACAD_XDICTIONARY
360
18F
102
}
102
{ACAD_REACTORS
330
29
102
}
330
29
100
AcDbVisualStyle
  2
Shaded with edges
 70
    26
177
     2
291
     0
 71
     2
176
     1
 72
     2
176
     1
 73
     1
176
     1
 90
        2
176
     1
 40
0.6
176
     1
 41
30.0
176
     1
 63
     7
421
 16777215
176
     1
 74
     1
176
     1
 91
        2
176
     1
 64
     7
176
     1
 65
   257
176
     1
 75
     2
176
     1
175
     1
176
     1
 42
1.0
176
     1
 92
        8
176
     1
 66
   257
176
     1
 43
1.0
176
     1
 76
     1
176
     1
 77
     6
176
     1
 78
     2
176
     1
 67
     7
176
     1
 79
     3
176
     1
170
     0
176
     1
171
     0
176
     1
290
     0
176
     1
 93
        5
176
     1
 44
0.0
176
     1
173
     0
176
     1
1001
ACAD
1000
AcDbSavedByObjectVersion
1070
     0
  0
VISUALSTYLE
  5
3A
102
{ACAD_XDICTIONARY
360
189
102
}
102
{ACAD_REACTORS
330
29
102
}
330
29
100
AcDbVisualStyle
  2
Shades of Gray
 70
    23
177
     2
291
     0
 71
     2
176
     1
 72
     2
176
     1
 73
     3
176
     1
 90
        0
176
     1
 40
0.6
176
     1
 41
30.0
176
     1
 63
     7
421
 16777215
176
     1
 74
     2
176
     1
 91
        2
176
     1
 64
     7
176
     1
 65
     7
176
     1
 75
     1
176
     1
175
     1
176
     1
 42
40.0
176
     1
 92
        8
176
     1
 66
     7
176
     1
 43
1.0
176
     1
 76
     1
176
     1
 77
     6
176
     1
 78
     2
176
     1
 67
     7
176
     1
 79
     3
176
     1
170
     0
176
     1
171
     0
176
     1
290
     0
176
     1
 93
        1
176
     1
 44
0.0
176
     1
173
     0
176
     1
1001
ACAD
1000
AcDbSavedByObjectVersion
1070
     0
  0
VISUALSTYLE
  5
3B
102
{ACAD_XDICTIONARY
360
18B
102
}
102
{ACAD_REACTORS
330
29
102
}
330
29
100
AcDbVisualStyle
  2
Sketchy
 70
    24
177
     2
291
     0
 71
     1
176
     1
 72
     2
176
     1
 73
     2
176
     1
 90
        0
176
     1
 40
0.6
176
     1
 41
30.0
176
     1
 63
     7
421
 16777215
176
     1
 74
     2
176
     1
 91
        2
176
     1
 64
     7
176
     1
 65
     7
176
     1
 75
     1
176
     1
175
     1
176
     1
 42
40.0
176
     1
 92
       11
176
     1
 66
     7
176
     1
 43
1.0
176
     1
 76
     1
176
     1
 77
     6
176
     1
 78
     2
176
     1
 67
     7
176
     1
 79
     6
176
     1
170
     0
176
     1
171
     0
176
     1
290
     0
176
     1
 93
        1
176
     1
 44
0.0
176
     1
173
     0
176
     1
1001
ACAD
1000
AcDbSavedByObjectVersion
1070
     0
  0
VISUALSTYLE
  5
36
102
{ACAD_XDICTIONARY
360
181
102
}
102
{ACAD_REACTORS
330
29
102
}
330
29
100
AcDbVisualStyle
  2
Thicken
 70
    13
177
     2
291
     1
 71
     2
176
     1
 72
     2
176
     1
 73
     0
176
     1
 90
        0
176
     1
 40
0.6
176
     1
 41
30.0
176
     1
 63
     7
421
 16777215
176
     1
 74
     1
176
     1
 91
        4
176
     1
 64
     7
176
     1
 65
   257
176
     1
 75
     1
176
     1
175
     1
176
     1
 42
1.0
176
     1
 92
       12
176
     1
 66
     7
176
     1
 43
1.0
176
     1
 76
     1
176
     1
 77
     6
176
     1
 78
     2
176
     1
 67
     7
176
     1
 79
     5
176
     1
170
     0
176
     1
171
     0
176
     1
290
     0
176
     1
 93
        1
176
     1
 44
0.0
176
     1
173
     0
176
     1
1001
ACAD
1000
AcDbSavedByObjectVersion
1070
     0
  0
VISUALSTYLE
  5
30
102
{ACAD_XDICTIONARY
360
175
102
}
102
{ACAD_REACTORS
330
29
102
}
330
29
100
AcDbVisualStyle
  2
Wireframe
 70
     5
177
     2
291
     0
 71
     0
176
     1
 72
     2
176
     1
 73
     0
176
     1
 90
        0
176
     1
 40
0.6
176
     1
 41
30.0
176
     1
 63
     7
421
 16777215
176
     1
 74
     1
176
     1
 91
        4
176
     1
 64
     7
176
     1
 65
   257
176
     1
 75
     1
176
     1
175
     1
176
     1
 42
1.0
176
     1
 92
        0
176
     1
 66
   257
176
     1
 43
1.0
176
     1
 76
     1
176
     1
 77
     6
176
     1
 78
     2
176
     1
 67
     7
176
     1
 79
     3
176
     1
170
     0
176
     1
171
     0
176
     1
290
     0
176
     1
 93
        1
176
     1
 44
0.0
176
     1
173
     0
176
     1
1001
ACAD
1000
AcDbSavedByObjectVersion
1070
     0
  0
VISUALSTYLE
  5
3C
102
{ACAD_XDICTIONARY
360
18D
102
}
102
{ACAD_REACTORS
330
29
102
}
330
29
100
AcDbVisualStyle
  2
X-Ray
 70
    25
177
     2
291
     0
 71
     2
176
     1
 72
     2
176
     1
 73
     1
176
     1
 90
        1
176
     1
 40
0.5
176
     1
 41
30.0
176
     1
 63
     7
421
 16777215
176
     1
 74
     1
176
     1
 91
        0
176
     1
 64
     7
176
     1
 65
   257
176
     1
 75
     1
176
     1
175
     1
176
     1
 42
1.0
176
     1
 92
        8
176
     1
 66
     7
176
     1
 43
1.0
176
     1
 76
     1
176
     1
 77
     6
176
     1
 78
     2
176
     1
 67
     7
176
     1
 79
     3
176
     1
170
     0
176
     1
171
     0
176
     1
290
     0
176
     1
 93
       13
176
     1
 44
0.0
176
     1
173
     0
176
     1
1001
ACAD
1000
AcDbSavedByObjectVersion
1070
     0
  0
DICTIONARYVAR
  5
163
102
{ACAD_REACTORS
330
15E
102
}
330
15E
100
DictionaryVariables
280
     0
  1
1:1
  0
DICTIONARYVAR
  5
160
102
{ACAD_REACTORS
330
15E
102
}
330
15E
100
DictionaryVariables
280
     0
  1
STANDARD
  0
DICTIONARYVAR
  5
15F
102
{ACAD_REACTORS
330
15E
102
}
330
15E
100
DictionaryVariables
280
     0
  1
STANDARD
  0
DICTIONARYVAR
  5
161
102
{ACAD_REACTORS
330
15E
102
}
330
15E
100
DictionaryVariables
280
     0
  1
Imperial24
  0
DICTIONARYVAR
  5
162
102
{ACAD_REACTORS
330
15E
102
}
330
15E
100
DictionaryVariables
280
     0
  1
Imperial24
  0
DICTIONARY
  5
19D
330
6B
100
AcDbDictionary
280
     1
281
     1
  3
ACAD_XREC_ROUNDTRIP
360
19E
  0
DICTIONARY
  5
1A
330
19
100
AcDbDictionary
280
     1
281
     1
  3
BUMPTILE
360
1C
  3
DIFFUSETILE
360
1B
  3
OPACITYTILE
360
1F
  3
REFLECTIONTILE
360
1E
  3
REFRACTIONTILE
360
20
  3
SPECULARTILE
360
1D
  0
DICTIONARY
  5
12
330
11
100
AcDbDictionary
280
     1
281
     1
  3
BUMPTILE
360
14
  3
DIFFUSETILE
360
13
  3
OPACITYTILE
360
17
  3
REFLECTIONTILE
360
16
  3
REFRACTIONTILE
360
18
  3
SPECULARTILE
360
15
  0
DICTIONARY
  5
22
330
21
100
AcDbDictionary
280
     1
281
     1
  3
BUMPTILE
360
24
  3
DIFFUSETILE
360
23
  3
OPACITYTILE
360
27
  3
REFLECTIONTILE
360
26
  3
REFRACTIONTILE
360
28
  3
SPECULARTILE
360
25
  0
DICTIONARY
  5
199
330
67
100
AcDbDictionary
280
     1
281
     1
  3
ACAD_XREC_ROUNDTRIP
360
19A
  0
DICTIONARY
  5
19B
330
69
100
AcDbDictionary
280
     1
281
     1
  3
ACAD_XREC_ROUNDTRIP
360
19C
  0
DICTIONARY
  5
164
330
65
100
AcDbDictionary
280
     1
281
     1
  3
ACAD_ROUNDTRIP_2008_TABLESTYLE_CELLSTYLEMAP
360
165
  0
DICTIONARY
  5
173
330
2F
100
AcDbDictionary
280
     1
281
     1
  3
ACAD_XREC_ROUNDTRIP
360
174
  0
DICTIONARY
  5
171
330
2E
100
AcDbDictionary
280
     1
281
     1
  3
ACAD_XREC_ROUNDTRIP
360
172
  0
DICTIONARY
  5
17F
330
35
100
AcDbDictionary
280
     1
281
     1
  3
ACAD_XREC_ROUNDTRIP
360
180
  0
DICTIONARY
  5
187
330
39
100
AcDbDictionary
280
     1
281
     1
  3
ACAD_XREC_ROUNDTRIP
360
188
  0
DICTIONARY
  5
179
330
32
100
AcDbDictionary
280
     1
281
     1
  3
ACAD_XREC_ROUNDTRIP
360
17A
  0
DICTIONARY
  5
17D
330
34
100
AcDbDictionary
280
     1
281
     1
  3
ACAD_XREC_ROUNDTRIP
360
17E
  0
DICTIONARY
  5
197
330
41
100
AcDbDictionary
280
     1
281
     1
  3
ACAD_XREC_ROUNDTRIP
360
198
  0
DICTIONARY
  5
185
330
38
100
AcDbDictionary
280
     1
281
     1
  3
ACAD_XREC_ROUNDTRIP
360
186
  0
DICTIONARY
  5
169
330
2A
100
AcDbDictionary
280
     1
281
     1
  3
ACAD_XREC_ROUNDTRIP
360
16A
  0
DICTIONARY
  5
16B
330
2B
100
AcDbDictionary
280
     1
281
     1
  3
ACAD_XREC_ROUNDTRIP
360
16C
  0
DICTIONARY
  5
16D
330
2C
100
AcDbDictionary
280
     1
281
     1
  3
ACAD_XREC_ROUNDTRIP
360
16E
  0
DICTIONARY
  5
16F
330
2D
100
AcDbDictionary
280
     1
281
     1
  3
ACAD_XREC_ROUNDTRIP
360
170
  0
DICTIONARY
  5
177
330
31
100
AcDbDictionary
280
     1
281
     1
  3
ACAD_XREC_ROUNDTRIP
360
178
  0
DICTIONARY
  5
193
330
3F
100
AcDbDictionary
280
     1
281
     1
  3
ACAD_XREC_ROUNDTRIP
360
194
  0
DICTIONARY
  5
183
330
37
100
AcDbDictionary
280
     1
281
     1
  3
ACAD_XREC_ROUNDTRIP
360
184
  0
DICTIONARY
  5
195
330
40
100
AcDbDictionary
280
     1
281
     1
  3
ACAD_XREC_ROUNDTRIP
360
196
  0
DICTIONARY
  5
17B
330
33
100
AcDbDictionary
280
     1
281
     1
  3
ACAD_XREC_ROUNDTRIP
360
17C
  0
DICTIONARY
  5
191
330
3E
100
AcDbDictionary
280
     1
281
     1
  3
ACAD_XREC_ROUNDTRIP
360
192
  0
DICTIONARY
  5
18F
330
3D
100
AcDbDictionary
280
     1
281
     1
  3
ACAD_XREC_ROUNDTRIP
360
190
  0
DICTIONARY
  5
189
330
3A
100
AcDbDictionary
280
     1
281
     1
  3
ACAD_XREC_ROUNDTRIP
360
18A
  0
DICTIONARY
  5
18B
330
3B
100
AcDbDictionary
280
     1
281
     1
  3
ACAD_XREC_ROUNDTRIP
360
18C
  0
DICTIONARY
  5
181
330
36
100
AcDbDictionary
280
     1
281
     1
  3
ACAD_XREC_ROUNDTRIP
360
182
  0
DICTIONARY
  5
175
330
30
100
AcDbDictionary
280
     1
281
     1
  3
ACAD_XREC_ROUNDTRIP
360
176
  0
DICTIONARY
  5
18D
330
3C
100
AcDbDictionary
280
     1
281
     1
  3
ACAD_XREC_ROUNDTRIP
360
18E
  0
XRECORD
  5
19E
102
{ACAD_REACTORS
330
19D
102
}
330
19D
100
AcDbXrecord
280
     1
102
DISPLAYNAME
  1
Imperial24
102
FLAGS
 90
        0
  0
XRECORD
  5
1C
102
{ACAD_REACTORS
330
1A
102
}
330
1A
100
AcDbXrecord
280
     1
270
     1
271
     1
  0
XRECORD
  5
1B
102
{ACAD_REACTORS
330
1A
102
}
330
1A
100
AcDbXrecord
280
     1
270
     1
271
     1
  0
XRECORD
  5
1F
102
{ACAD_REACTORS
330
1A
102
}
330
1A
100
AcDbXrecord
280
     1
270
     1
271
     1
  0
XRECORD
  5
1E
102
{ACAD_REACTORS
330
1A
102
}
330
1A
100
AcDbXrecord
280
     1
270
     1
271
     1
  0
XRECORD
  5
20
102
{ACAD_REACTORS
330
1A
102
}
330
1A
100
AcDbXrecord
280
     1
270
     1
271
     1
  0
XRECORD
  5
1D
102
{ACAD_REACTORS
330
1A
102
}
330
1A
100
AcDbXrecord
280
     1
270
     1
271
     1
  0
XRECORD
  5
14
102
{ACAD_REACTORS
330
12
102
}
330
12
100
AcDbXrecord
280
     1
270
     1
271
     1
  0
XRECORD
  5
13
102
{ACAD_REACTORS
330
12
102
}
330
12
100
AcDbXrecord
280
     1
270
     1
271
     1
  0
XRECORD
  5
17
102
{ACAD_REACTORS
330
12
102
}
330
12
100
AcDbXrecord
280
     1
270
     1
271
     1
  0
XRECORD
  5
16
102
{ACAD_REACTORS
330
12
102
}
330
12
100
AcDbXrecord
280
     1
270
     1
271
     1
  0
XRECORD
  5
18
102
{ACAD_REACTORS
330
12
102
}
330
12
100
AcDbXrecord
280
     1
270
     1
271
     1
  0
XRECORD
  5
15
102
{ACAD_REACTORS
330
12
102
}
330
12
100
AcDbXrecord
280
     1
270
     1
271
     1
  0
XRECORD
  5
24
102
{ACAD_REACTORS
330
22
102
}
330
22
100
AcDbXrecord
280
     1
270
     1
271
     1
  0
XRECORD
  5
23
102
{ACAD_REACTORS
330
22
102
}
330
22
100
AcDbXrecord
280
     1
270
     1
271
     1
  0
XRECORD
  5
27
102
{ACAD_REACTORS
330
22
102
}
330
22
100
AcDbXrecord
280
     1
270
     1
271
     1
  0
XRECORD
  5
26
102
{ACAD_REACTORS
330
22
102
}
330
22
100
AcDbXrecord
280
     1
270
     1
271
     1
  0
XRECORD
  5
28
102
{ACAD_REACTORS
330
22
102
}
330
22
100
AcDbXrecord
280
     1
270
     1
271
     1
  0
XRECORD
  5
25
102
{ACAD_REACTORS
330
22
102
}
330
22
100
AcDbXrecord
280
     1
270
     1
271
     1
  0
XRECORD
  5
19A
102
{ACAD_REACTORS
330
199
102
}
330
199
100
AcDbXrecord
280
     1
102
ACAD_ROUNDTRIP_2012_MLEADER_STYLE
298
     1
  0
XRECORD
  5
19C
102
{ACAD_REACTORS
330
19B
102
}
330
19B
100
AcDbXrecord
280
     1
102
DISPLAYNAME
  1
Imperial24
102
FLAGS
 90
        0
  0
CELLSTYLEMAP
  5
165
102
{ACAD_REACTORS
330
164
102
}
330
164
100
AcDbCellStyleMap
 90
        3
300
CELLSTYLE
  1
TABLEFORMAT_BEGIN
 90
        5
170
     1
 91
        0
 92
    32768
 62
   257
 93
        1
300
CONTENTFORMAT
  1
CONTENTFORMAT_BEGIN
 90
        0
 91
        0
 92
      512
 93
        0
300

 40
0.0
140
1.0
 94
        5
 62
     0
340
55
144
0.25
309
CONTENTFORMAT_END
171
     0
 94
        0
309
TABLEFORMAT_END
  1
CELLSTYLE_BEGIN
 90
        1
 91
        1
300
_TITLE
309
CELLSTYLE_END
300
CELLSTYLE
  1
TABLEFORMAT_BEGIN
 90
        5
170
     1
 91
        0
 92
        0
 62
   257
 93
        1
300
CONTENTFORMAT
  1
CONTENTFORMAT_BEGIN
 90
        0
 91
        0
 92
      512
 93
        0
300

 40
0.0
140
1.0
 94
        5
 62
     0
340
55
144
0.18
309
CONTENTFORMAT_END
171
     0
 94
        0
309
TABLEFORMAT_END
  1
CELLSTYLE_BEGIN
 90
        2
 91
        1
300
_HEADER
309
CELLSTYLE_END
300
CELLSTYLE
  1
TABLEFORMAT_BEGIN
 90
        5
170
     1
 91
        0
 92
        0
 62
   257
 93
        1
300
CONTENTFORMAT
  1
CONTENTFORMAT_BEGIN
 90
        0
 91
        0
 92
      512
 93
        0
300

 40
0.0
140
1.0
 94
        2
 62
     0
340
55
144
0.18
309
CONTENTFORMAT_END
171
     0
 94
        0
309
TABLEFORMAT_END
  1
CELLSTYLE_BEGIN
 90
        3
 91
        2
300
_DATA
309
CELLSTYLE_END
  0
XRECORD
  5
174
102
{ACAD_REACTORS
330
173
102
}
330
173
100
AcDbXrecord
280
     1
102
RTVSPost2010Prop28
280
     1
102
RTVSPost2010PropOp28
 70
     1
102
RTVSPost2010Prop29
280
     1
102
RTVSPost2010PropOp29
 70
     1
102
RTVSPost2010Prop30
280
     0
102
RTVSPost2010PropOp30
 70
     1
102
RTVSPost2010Prop31
280
     0
102
RTVSPost2010PropOp31
 70
     1
102
RTVSPost2010Prop32
280
     0
102
RTVSPost2010PropOp32
 70
     1
102
RTVSPost2010Prop33
280
     0
102
RTVSPost2010PropOp33
 70
     1
102
RTVSPost2010Prop34
280
     0
102
RTVSPost2010PropOp34
 70
     1
102
RTVSPost2010Prop35
280
     0
102
RTVSPost2010PropOp35
 70
     1
102
RTVSPost2010Prop36
280
     0
102
RTVSPost2010PropOp36
 70
     1
102
RTVSPost2010Prop37
 90
       50
102
RTVSPost2010PropOp37
 70
     1
102
RTVSPost2010Prop38
140
0.0
102
RTVSPost2010PropOp38
 70
     1
102
RTVSPost2010Prop39
140
1.0
102
RTVSPost2010PropOp39
 70
     1
102
RTVSPost2010Prop40
 90
        0
102
RTVSPost2010PropOp40
 70
     1
102
RTVSPost2010Prop41ColorIndex
 90
       18
102
RTVSPost2010Prop41ColorRGB
 90
        0
102
RTVSPost2010PropOp41
 70
     1
102
RTVSPost2010Prop42
 90
       50
102
RTVSPost2010PropOp42
 70
     1
102
RTVSPost2010Prop43
 90
        3
102
RTVSPost2010PropOp43
 70
     1
102
RTVSPost2010Prop44ColorIndex
 90
        5
102
RTVSPost2010Prop44ColorRGB
 90
      255
102
RTVSPost2010PropOp44
 70
     1
102
RTVSPost2010Prop45
280
     0
102
RTVSPost2010PropOp45
 70
     1
102
RTVSPost2010Prop46
 90
       50
102
RTVSPost2010PropOp46
 70
     1
102
RTVSPost2010Prop47
 90
       50
102
RTVSPost2010PropOp47
 70
     1
102
RTVSPost2010Prop48
 90
       50
102
RTVSPost2010PropOp48
 70
     1
102
RTVSPost2010Prop49
280
     0
102
RTVSPost2010PropOp49
 70
     1
102
RTVSPost2010Prop50
 90
       50
102
RTVSPost2010PropOp50
 70
     1
102
RTVSPost2010Prop51ColorIndex
 90
      256
102
RTVSPost2010Prop51ColorRGB
 90
-16777216
102
RTVSPost2010PropOp51
 70
     0
102
RTVSPost2010Prop52
140
1.0
102
RTVSPost2010PropOp52
 70
     0
102
RTVSPost2010Prop53
 90
        2
102
RTVSPost2010PropOp53
 70
     1
102
RTVSPost2010Prop54
  1
strokes_ogs.tif
102
RTVSPost2010PropOp54
 70
     1
102
RTVSPost2010Prop55
280
     0
102
RTVSPost2010PropOp55
 70
     1
102
RTVSPost2010Prop56
140
1.0
102
RTVSPost2010PropOp56
 70
     1
102
RTVSPost2010Prop57
140
1.0
102
RTVSPost2010PropOp57
 70
     1
  0
XRECORD
  5
172
102
{ACAD_REACTORS
330
171
102
}
330
171
100
AcDbXrecord
280
     1
102
RTVSPost2010Prop28
280
     0
102
RTVSPost2010PropOp28
 70
     1
102
RTVSPost2010Prop29
280
     1
102
RTVSPost2010PropOp29
 70
     1
102
RTVSPost2010Prop30
280
     1
102
RTVSPost2010PropOp30
 70
     1
102
RTVSPost2010Prop31
280
     0
102
RTVSPost2010PropOp31
 70
     1
102
RTVSPost2010Prop32
280
     0
102
RTVSPost2010PropOp32
 70
     1
102
RTVSPost2010Prop33
280
     0
102
RTVSPost2010PropOp33
 70
     1
102
RTVSPost2010Prop34
280
     0
102
RTVSPost2010PropOp34
 70
     1
102
RTVSPost2010Prop35
280
     0
102
RTVSPost2010PropOp35
 70
     1
102
RTVSPost2010Prop36
280
     0
102
RTVSPost2010PropOp36
 70
     1
102
RTVSPost2010Prop37
 90
       50
102
RTVSPost2010PropOp37
 70
     1
102
RTVSPost2010Prop38
140
0.0
102
RTVSPost2010PropOp38
 70
     1
102
RTVSPost2010Prop39
140
1.0
102
RTVSPost2010PropOp39
 70
     1
102
RTVSPost2010Prop40
 90
        0
102
RTVSPost2010PropOp40
 70
     1
102
RTVSPost2010Prop41ColorIndex
 90
       18
102
RTVSPost2010Prop41ColorRGB
 90
        0
102
RTVSPost2010PropOp41
 70
     1
102
RTVSPost2010Prop42
 90
       50
102
RTVSPost2010PropOp42
 70
     1
102
RTVSPost2010Prop43
 90
        3
102
RTVSPost2010PropOp43
 70
     1
102
RTVSPost2010Prop44ColorIndex
 90
        5
102
RTVSPost2010Prop44ColorRGB
 90
      255
102
RTVSPost2010PropOp44
 70
     1
102
RTVSPost2010Prop45
280
     0
102
RTVSPost2010PropOp45
 70
     1
102
RTVSPost2010Prop46
 90
       50
102
RTVSPost2010PropOp46
 70
     1
102
RTVSPost2010Prop47
 90
       50
102
RTVSPost2010PropOp47
 70
     1
102
RTVSPost2010Prop48
 90
       50
102
RTVSPost2010PropOp48
 70
     1
102
RTVSPost2010Prop49
280
     0
102
RTVSPost2010PropOp49
 70
     1
102
RTVSPost2010Prop50
 90
       50
102
RTVSPost2010PropOp50
 70
     1
102
RTVSPost2010Prop51ColorIndex
 90
      256
102
RTVSPost2010Prop51ColorRGB
 90
-16777216
102
RTVSPost2010PropOp51
 70
     0
102
RTVSPost2010Prop52
140
1.0
102
RTVSPost2010PropOp52
 70
     0
102
RTVSPost2010Prop53
 90
        2
102
RTVSPost2010PropOp53
 70
     1
102
RTVSPost2010Prop54
  1
strokes_ogs.tif
102
RTVSPost2010PropOp54
 70
     1
102
RTVSPost2010Prop55
280
     0
102
RTVSPost2010PropOp55
 70
     1
102
RTVSPost2010Prop56
140
1.0
102
RTVSPost2010PropOp56
 70
     1
102
RTVSPost2010Prop57
140
1.0
102
RTVSPost2010PropOp57
 70
     1
  0
XRECORD
  5
180
102
{ACAD_REACTORS
330
17F
102
}
330
17F
100
AcDbXrecord
280
     1
102
RTVSPost2010Prop28
280
     0
102
RTVSPost2010PropOp28
 70
     1
102
RTVSPost2010Prop29
280
     1
102
RTVSPost2010PropOp29
 70
     1
102
RTVSPost2010Prop30
280
     1
102
RTVSPost2010PropOp30
 70
     1
102
RTVSPost2010Prop31
280
     0
102
RTVSPost2010PropOp31
 70
     1
102
RTVSPost2010Prop32
280
     0
102
RTVSPost2010PropOp32
 70
     1
102
RTVSPost2010Prop33
280
     0
102
RTVSPost2010PropOp33
 70
     1
102
RTVSPost2010Prop34
280
     0
102
RTVSPost2010PropOp34
 70
     1
102
RTVSPost2010Prop35
280
     0
102
RTVSPost2010PropOp35
 70
     1
102
RTVSPost2010Prop36
280
     0
102
RTVSPost2010PropOp36
 70
     1
102
RTVSPost2010Prop37
 90
       50
102
RTVSPost2010PropOp37
 70
     1
102
RTVSPost2010Prop38
140
0.0
102
RTVSPost2010PropOp38
 70
     1
102
RTVSPost2010Prop39
140
1.0
102
RTVSPost2010PropOp39
 70
     1
102
RTVSPost2010Prop40
 90
        0
102
RTVSPost2010PropOp40
 70
     1
102
RTVSPost2010Prop41ColorIndex
 90
       18
102
RTVSPost2010Prop41ColorRGB
 90
        0
102
RTVSPost2010PropOp41
 70
     1
102
RTVSPost2010Prop42
 90
       50
102
RTVSPost2010PropOp42
 70
     1
102
RTVSPost2010Prop43
 90
        3
102
RTVSPost2010PropOp43
 70
     1
102
RTVSPost2010Prop44ColorIndex
 90
        5
102
RTVSPost2010Prop44ColorRGB
 90
      255
102
RTVSPost2010PropOp44
 70
     1
102
RTVSPost2010Prop45
280
     0
102
RTVSPost2010PropOp45
 70
     1
102
RTVSPost2010Prop46
 90
       50
102
RTVSPost2010PropOp46
 70
     1
102
RTVSPost2010Prop47
 90
       50
102
RTVSPost2010PropOp47
 70
     1
102
RTVSPost2010Prop48
 90
       50
102
RTVSPost2010PropOp48
 70
     1
102
RTVSPost2010Prop49
280
     0
102
RTVSPost2010PropOp49
 70
     1
102
RTVSPost2010Prop50
 90
       50
102
RTVSPost2010PropOp50
 70
     1
102
RTVSPost2010Prop51ColorIndex
 90
      256
102
RTVSPost2010Prop51ColorRGB
 90
-16777216
102
RTVSPost2010PropOp51
 70
     0
102
RTVSPost2010Prop52
140
1.0
102
RTVSPost2010PropOp52
 70
     0
102
RTVSPost2010Prop53
 90
        2
102
RTVSPost2010PropOp53
 70
     1
102
RTVSPost2010Prop54
  1
strokes_ogs.tif
102
RTVSPost2010PropOp54
 70
     1
102
RTVSPost2010Prop55
280
     0
102
RTVSPost2010PropOp55
 70
     1
102
RTVSPost2010Prop56
140
1.0
102
RTVSPost2010PropOp56
 70
     1
102
RTVSPost2010Prop57
140
1.0
102
RTVSPost2010PropOp57
 70
     1
  0
XRECORD
  5
188
102
{ACAD_REACTORS
330
187
102
}
330
187
100
AcDbXrecord
280
     1
102
RTVSPost2010Prop28
280
     0
102
RTVSPost2010PropOp28
 70
     1
102
RTVSPost2010Prop29
280
     1
102
RTVSPost2010PropOp29
 70
     1
102
RTVSPost2010Prop30
280
     1
102
RTVSPost2010PropOp30
 70
     1
102
RTVSPost2010Prop31
280
     0
102
RTVSPost2010PropOp31
 70
     1
102
RTVSPost2010Prop32
280
     0
102
RTVSPost2010PropOp32
 70
     1
102
RTVSPost2010Prop33
280
     0
102
RTVSPost2010PropOp33
 70
     1
102
RTVSPost2010Prop34
280
     0
102
RTVSPost2010PropOp34
 70
     1
102
RTVSPost2010Prop35
280
     0
102
RTVSPost2010PropOp35
 70
     1
102
RTVSPost2010Prop36
280
     0
102
RTVSPost2010PropOp36
 70
     1
102
RTVSPost2010Prop37
 90
       50
102
RTVSPost2010PropOp37
 70
     1
102
RTVSPost2010Prop38
140
0.0
102
RTVSPost2010PropOp38
 70
     1
102
RTVSPost2010Prop39
140
1.0
102
RTVSPost2010PropOp39
 70
     1
102
RTVSPost2010Prop40
 90
        0
102
RTVSPost2010PropOp40
 70
     1
102
RTVSPost2010Prop41ColorIndex
 90
       18
102
RTVSPost2010Prop41ColorRGB
 90
        0
102
RTVSPost2010PropOp41
 70
     1
102
RTVSPost2010Prop42
 90
       50
102
RTVSPost2010PropOp42
 70
     1
102
RTVSPost2010Prop43
 90
        3
102
RTVSPost2010PropOp43
 70
     1
102
RTVSPost2010Prop44ColorIndex
 90
        5
102
RTVSPost2010Prop44ColorRGB
 90
      255
102
RTVSPost2010PropOp44
 70
     1
102
RTVSPost2010Prop45
280
     0
102
RTVSPost2010PropOp45
 70
     1
102
RTVSPost2010Prop46
 90
       50
102
RTVSPost2010PropOp46
 70
     1
102
RTVSPost2010Prop47
 90
       50
102
RTVSPost2010PropOp47
 70
     1
102
RTVSPost2010Prop48
 90
       50
102
RTVSPost2010PropOp48
 70
     1
102
RTVSPost2010Prop49
280
     0
102
RTVSPost2010PropOp49
 70
     1
102
RTVSPost2010Prop50
 90
       50
102
RTVSPost2010PropOp50
 70
     1
102
RTVSPost2010Prop51ColorIndex
 90
      256
102
RTVSPost2010Prop51ColorRGB
 90
-16777216
102
RTVSPost2010PropOp51
 70
     0
102
RTVSPost2010Prop52
140
1.0
102
RTVSPost2010PropOp52
 70
     0
102
RTVSPost2010Prop53
 90
        2
102
RTVSPost2010PropOp53
 70
     1
102
RTVSPost2010Prop54
  1
strokes_ogs.tif
102
RTVSPost2010PropOp54
 70
     1
102
RTVSPost2010Prop55
280
     0
102
RTVSPost2010PropOp55
 70
     1
102
RTVSPost2010Prop56
140
1.0
102
RTVSPost2010PropOp56
 70
     1
102
RTVSPost2010Prop57
140
1.0
102
RTVSPost2010PropOp57
 70
     1
  0
XRECORD
  5
17A
102
{ACAD_REACTORS
330
179
102
}
330
179
100
AcDbXrecord
280
     1
102
RTVSPost2010Prop28
280
     0
102
RTVSPost2010PropOp28
 70
     1
102
RTVSPost2010Prop29
280
     1
102
RTVSPost2010PropOp29
 70
     1
102
RTVSPost2010Prop30
280
     1
102
RTVSPost2010PropOp30
 70
     1
102
RTVSPost2010Prop31
280
     0
102
RTVSPost2010PropOp31
 70
     1
102
RTVSPost2010Prop32
280
     0
102
RTVSPost2010PropOp32
 70
     1
102
RTVSPost2010Prop33
280
     0
102
RTVSPost2010PropOp33
 70
     1
102
RTVSPost2010Prop34
280
     0
102
RTVSPost2010PropOp34
 70
     1
102
RTVSPost2010Prop35
280
     0
102
RTVSPost2010PropOp35
 70
     1
102
RTVSPost2010Prop36
280
     0
102
RTVSPost2010PropOp36
 70
     1
102
RTVSPost2010Prop37
 90
       50
102
RTVSPost2010PropOp37
 70
     1
102
RTVSPost2010Prop38
140
0.0
102
RTVSPost2010PropOp38
 70
     1
102
RTVSPost2010Prop39
140
1.0
102
RTVSPost2010PropOp39
 70
     1
102
RTVSPost2010Prop40
 90
        0
102
RTVSPost2010PropOp40
 70
     1
102
RTVSPost2010Prop41ColorIndex
 90
       18
102
RTVSPost2010Prop41ColorRGB
 90
        0
102
RTVSPost2010PropOp41
 70
     1
102
RTVSPost2010Prop42
 90
       50
102
RTVSPost2010PropOp42
 70
     1
102
RTVSPost2010Prop43
 90
        3
102
RTVSPost2010PropOp43
 70
     1
102
RTVSPost2010Prop44ColorIndex
 90
        5
102
RTVSPost2010Prop44ColorRGB
 90
      255
102
RTVSPost2010PropOp44
 70
     1
102
RTVSPost2010Prop45
280
     0
102
RTVSPost2010PropOp45
 70
     1
102
RTVSPost2010Prop46
 90
       50
102
RTVSPost2010PropOp46
 70
     1
102
RTVSPost2010Prop47
 90
       50
102
RTVSPost2010PropOp47
 70
     1
102
RTVSPost2010Prop48
 90
       50
102
RTVSPost2010PropOp48
 70
     1
102
RTVSPost2010Prop49
280
     0
102
RTVSPost2010PropOp49
 70
     1
102
RTVSPost2010Prop50
 90
       50
102
RTVSPost2010PropOp50
 70
     1
102
RTVSPost2010Prop51ColorIndex
 90
      256
102
RTVSPost2010Prop51ColorRGB
 90
-16777216
102
RTVSPost2010PropOp51
 70
     0
102
RTVSPost2010Prop52
140
1.0
102
RTVSPost2010PropOp52
 70
     0
102
RTVSPost2010Prop53
 90
        2
102
RTVSPost2010PropOp53
 70
     1
102
RTVSPost2010Prop54
  1
strokes_ogs.tif
102
RTVSPost2010PropOp54
 70
     1
102
RTVSPost2010Prop55
280
     0
102
RTVSPost2010PropOp55
 70
     1
102
RTVSPost2010Prop56
140
1.0
102
RTVSPost2010PropOp56
 70
     1
102
RTVSPost2010Prop57
140
1.0
102
RTVSPost2010PropOp57
 70
     1
  0
XRECORD
  5
17E
102
{ACAD_REACTORS
330
17D
102
}
330
17D
100
AcDbXrecord
280
     1
102
RTVSPost2010Prop28
280
     0
102
RTVSPost2010PropOp28
 70
     1
102
RTVSPost2010Prop29
280
     1
102
RTVSPost2010PropOp29
 70
     1
102
RTVSPost2010Prop30
280
     1
102
RTVSPost2010PropOp30
 70
     1
102
RTVSPost2010Prop31
280
     0
102
RTVSPost2010PropOp31
 70
     1
102
RTVSPost2010Prop32
280
     0
102
RTVSPost2010PropOp32
 70
     1
102
RTVSPost2010Prop33
280
     0
102
RTVSPost2010PropOp33
 70
     1
102
RTVSPost2010Prop34
280
     0
102
RTVSPost2010PropOp34
 70
     1
102
RTVSPost2010Prop35
280
     0
102
RTVSPost2010PropOp35
 70
     1
102
RTVSPost2010Prop36
280
     0
102
RTVSPost2010PropOp36
 70
     1
102
RTVSPost2010Prop37
 90
       50
102
RTVSPost2010PropOp37
 70
     1
102
RTVSPost2010Prop38
140
0.0
102
RTVSPost2010PropOp38
 70
     1
102
RTVSPost2010Prop39
140
1.0
102
RTVSPost2010PropOp39
 70
     1
102
RTVSPost2010Prop40
 90
        0
102
RTVSPost2010PropOp40
 70
     1
102
RTVSPost2010Prop41ColorIndex
 90
       18
102
RTVSPost2010Prop41ColorRGB
 90
        0
102
RTVSPost2010PropOp41
 70
     1
102
RTVSPost2010Prop42
 90
       50
102
RTVSPost2010PropOp42
 70
     1
102
RTVSPost2010Prop43
 90
        3
102
RTVSPost2010PropOp43
 70
     1
102
RTVSPost2010Prop44ColorIndex
 90
        5
102
RTVSPost2010Prop44ColorRGB
 90
      255
102
RTVSPost2010PropOp44
 70
     1
102
RTVSPost2010Prop45
280
     0
102
RTVSPost2010PropOp45
 70
     1
102
RTVSPost2010Prop46
 90
       50
102
RTVSPost2010PropOp46
 70
     1
102
RTVSPost2010Prop47
 90
       50
102
RTVSPost2010PropOp47
 70
     1
102
RTVSPost2010Prop48
 90
       50
102
RTVSPost2010PropOp48
 70
     1
102
RTVSPost2010Prop49
280
     0
102
RTVSPost2010PropOp49
 70
     1
102
RTVSPost2010Prop50
 90
       50
102
RTVSPost2010PropOp50
 70
     1
102
RTVSPost2010Prop51ColorIndex
 90
      256
102
RTVSPost2010Prop51ColorRGB
 90
-16777216
102
RTVSPost2010PropOp51
 70
     0
102
RTVSPost2010Prop52
140
1.0
102
RTVSPost2010PropOp52
 70
     0
102
RTVSPost2010Prop53
 90
        2
102
RTVSPost2010PropOp53
 70
     1
102
RTVSPost2010Prop54
  1
strokes_ogs.tif
102
RTVSPost2010PropOp54
 70
     1
102
RTVSPost2010Prop55
280
     0
102
RTVSPost2010PropOp55
 70
     1
102
RTVSPost2010Prop56
140
1.0
102
RTVSPost2010PropOp56
 70
     1
102
RTVSPost2010Prop57
140
1.0
102
RTVSPost2010PropOp57
 70
     1
  0
XRECORD
  5
198
102
{ACAD_REACTORS
330
197
102
}
330
197
100
AcDbXrecord
280
     1
102
RTVSPost2010Prop28
280
     0
102
RTVSPost2010PropOp28
 70
     0
102
RTVSPost2010Prop29
280
     1
102
RTVSPost2010PropOp29
 70
     0
102
RTVSPost2010Prop30
280
     1
102
RTVSPost2010PropOp30
 70
     0
102
RTVSPost2010Prop31
280
     0
102
RTVSPost2010PropOp31
 70
     0
102
RTVSPost2010Prop32
280
     0
102
RTVSPost2010PropOp32
 70
     0
102
RTVSPost2010Prop33
280
     0
102
RTVSPost2010PropOp33
 70
     0
102
RTVSPost2010Prop34
280
     0
102
RTVSPost2010PropOp34
 70
     0
102
RTVSPost2010Prop35
280
     0
102
RTVSPost2010PropOp35
 70
     0
102
RTVSPost2010Prop36
280
     0
102
RTVSPost2010PropOp36
 70
     0
102
RTVSPost2010Prop37
 90
       50
102
RTVSPost2010PropOp37
 70
     0
102
RTVSPost2010Prop38
140
0.0
102
RTVSPost2010PropOp38
 70
     0
102
RTVSPost2010Prop39
140
1.0
102
RTVSPost2010PropOp39
 70
     0
102
RTVSPost2010Prop40
 90
        0
102
RTVSPost2010PropOp40
 70
     0
102
RTVSPost2010Prop41ColorIndex
 90
       18
102
RTVSPost2010Prop41ColorRGB
 90
        0
102
RTVSPost2010PropOp41
 70
     0
102
RTVSPost2010Prop42
 90
       50
102
RTVSPost2010PropOp42
 70
     0
102
RTVSPost2010Prop43
 90
        3
102
RTVSPost2010PropOp43
 70
     0
102
RTVSPost2010Prop44ColorIndex
 90
        5
102
RTVSPost2010Prop44ColorRGB
 90
      255
102
RTVSPost2010PropOp44
 70
     0
102
RTVSPost2010Prop45
280
     0
102
RTVSPost2010PropOp45
 70
     0
102
RTVSPost2010Prop46
 90
       50
102
RTVSPost2010PropOp46
 70
     0
102
RTVSPost2010Prop47
 90
       50
102
RTVSPost2010PropOp47
 70
     0
102
RTVSPost2010Prop48
 90
       50
102
RTVSPost2010PropOp48
 70
     0
102
RTVSPost2010Prop49
280
     0
102
RTVSPost2010PropOp49
 70
     0
102
RTVSPost2010Prop50
 90
       50
102
RTVSPost2010PropOp50
 70
     0
102
RTVSPost2010Prop51ColorIndex
 90
      256
102
RTVSPost2010Prop51ColorRGB
 90
-16777216
102
RTVSPost2010PropOp51
 70
     0
102
RTVSPost2010Prop52
140
1.0
102
RTVSPost2010PropOp52
 70
     0
102
RTVSPost2010Prop53
 90
        2
102
RTVSPost2010PropOp53
 70
     0
102
RTVSPost2010Prop54
  1
strokes_ogs.tif
102
RTVSPost2010PropOp54
 70
     0
102
RTVSPost2010Prop55
280
     0
102
RTVSPost2010PropOp55
 70
     0
102
RTVSPost2010Prop56
140
1.0
102
RTVSPost2010PropOp56
 70
     0
102
RTVSPost2010Prop57
140
1.0
102
RTVSPost2010PropOp57
 70
     0
  0
XRECORD
  5
186
102
{ACAD_REACTORS
330
185
102
}
330
185
100
AcDbXrecord
280
     1
102
RTVSPost2010Prop28
280
     0
102
RTVSPost2010PropOp28
 70
     1
102
RTVSPost2010Prop29
280
     1
102
RTVSPost2010PropOp29
 70
     1
102
RTVSPost2010Prop30
280
     1
102
RTVSPost2010PropOp30
 70
     1
102
RTVSPost2010Prop31
280
     0
102
RTVSPost2010PropOp31
 70
     1
102
RTVSPost2010Prop32
280
     0
102
RTVSPost2010PropOp32
 70
     1
102
RTVSPost2010Prop33
280
     0
102
RTVSPost2010PropOp33
 70
     1
102
RTVSPost2010Prop34
280
     0
102
RTVSPost2010PropOp34
 70
     1
102
RTVSPost2010Prop35
280
     0
102
RTVSPost2010PropOp35
 70
     1
102
RTVSPost2010Prop36
280
     0
102
RTVSPost2010PropOp36
 70
     1
102
RTVSPost2010Prop37
 90
       50
102
RTVSPost2010PropOp37
 70
     1
102
RTVSPost2010Prop38
140
0.0
102
RTVSPost2010PropOp38
 70
     1
102
RTVSPost2010Prop39
140
1.0
102
RTVSPost2010PropOp39
 70
     1
102
RTVSPost2010Prop40
 90
        0
102
RTVSPost2010PropOp40
 70
     1
102
RTVSPost2010Prop41ColorIndex
 90
       18
102
RTVSPost2010Prop41ColorRGB
 90
        0
102
RTVSPost2010PropOp41
 70
     1
102
RTVSPost2010Prop42
 90
       50
102
RTVSPost2010PropOp42
 70
     1
102
RTVSPost2010Prop43
 90
        3
102
RTVSPost2010PropOp43
 70
     1
102
RTVSPost2010Prop44ColorIndex
 90
        5
102
RTVSPost2010Prop44ColorRGB
 90
      255
102
RTVSPost2010PropOp44
 70
     1
102
RTVSPost2010Prop45
280
     0
102
RTVSPost2010PropOp45
 70
     1
102
RTVSPost2010Prop46
 90
       50
102
RTVSPost2010PropOp46
 70
     1
102
RTVSPost2010Prop47
 90
       50
102
RTVSPost2010PropOp47
 70
     1
102
RTVSPost2010Prop48
 90
       50
102
RTVSPost2010PropOp48
 70
     1
102
RTVSPost2010Prop49
280
     0
102
RTVSPost2010PropOp49
 70
     1
102
RTVSPost2010Prop50
 90
       50
102
RTVSPost2010PropOp50
 70
     1
102
RTVSPost2010Prop51ColorIndex
 90
      256
102
RTVSPost2010Prop51ColorRGB
 90
-16777216
102
RTVSPost2010PropOp51
 70
     0
102
RTVSPost2010Prop52
140
1.0
102
RTVSPost2010PropOp52
 70
     0
102
RTVSPost2010Prop53
 90
        2
102
RTVSPost2010PropOp53
 70
     1
102
RTVSPost2010Prop54
  1
strokes_ogs.tif
102
RTVSPost2010PropOp54
 70
     1
102
RTVSPost2010Prop55
280
     0
102
RTVSPost2010PropOp55
 70
     1
102
RTVSPost2010Prop56
140
1.0
102
RTVSPost2010PropOp56
 70
     1
102
RTVSPost2010Prop57
140
1.0
102
RTVSPost2010PropOp57
 70
     1
  0
XRECORD
  5
16A
102
{ACAD_REACTORS
330
169
102
}
330
169
100
AcDbXrecord
280
     1
102
RTVSPost2010Prop28
280
     0
102
RTVSPost2010PropOp28
 70
     1
102
RTVSPost2010Prop29
280
     1
102
RTVSPost2010PropOp29
 70
     1
102
RTVSPost2010Prop30
280
     1
102
RTVSPost2010PropOp30
 70
     1
102
RTVSPost2010Prop31
280
     0
102
RTVSPost2010PropOp31
 70
     1
102
RTVSPost2010Prop32
280
     0
102
RTVSPost2010PropOp32
 70
     1
102
RTVSPost2010Prop33
280
     0
102
RTVSPost2010PropOp33
 70
     1
102
RTVSPost2010Prop34
280
     0
102
RTVSPost2010PropOp34
 70
     1
102
RTVSPost2010Prop35
280
     0
102
RTVSPost2010PropOp35
 70
     1
102
RTVSPost2010Prop36
280
     0
102
RTVSPost2010PropOp36
 70
     1
102
RTVSPost2010Prop37
 90
       50
102
RTVSPost2010PropOp37
 70
     1
102
RTVSPost2010Prop38
140
0.0
102
RTVSPost2010PropOp38
 70
     1
102
RTVSPost2010Prop39
140
1.0
102
RTVSPost2010PropOp39
 70
     1
102
RTVSPost2010Prop40
 90
        0
102
RTVSPost2010PropOp40
 70
     1
102
RTVSPost2010Prop41ColorIndex
 90
       18
102
RTVSPost2010Prop41ColorRGB
 90
        0
102
RTVSPost2010PropOp41
 70
     1
102
RTVSPost2010Prop42
 90
       50
102
RTVSPost2010PropOp42
 70
     1
102
RTVSPost2010Prop43
 90
        3
102
RTVSPost2010PropOp43
 70
     1
102
RTVSPost2010Prop44ColorIndex
 90
        5
102
RTVSPost2010Prop44ColorRGB
 90
      255
102
RTVSPost2010PropOp44
 70
     1
102
RTVSPost2010Prop45
280
     0
102
RTVSPost2010PropOp45
 70
     1
102
RTVSPost2010Prop46
 90
       50
102
RTVSPost2010PropOp46
 70
     1
102
RTVSPost2010Prop47
 90
       50
102
RTVSPost2010PropOp47
 70
     1
102
RTVSPost2010Prop48
 90
       50
102
RTVSPost2010PropOp48
 70
     1
102
RTVSPost2010Prop49
280
     0
102
RTVSPost2010PropOp49
 70
     1
102
RTVSPost2010Prop50
 90
       50
102
RTVSPost2010PropOp50
 70
     1
102
RTVSPost2010Prop51ColorIndex
 90
      256
102
RTVSPost2010Prop51ColorRGB
 90
-16777216
102
RTVSPost2010PropOp51
 70
     0
102
RTVSPost2010Prop52
140
1.0
102
RTVSPost2010PropOp52
 70
     0
102
RTVSPost2010Prop53
 90
        2
102
RTVSPost2010PropOp53
 70
     1
102
RTVSPost2010Prop54
  1
strokes_ogs.tif
102
RTVSPost2010PropOp54
 70
     1
102
RTVSPost2010Prop55
280
     0
102
RTVSPost2010PropOp55
 70
     1
102
RTVSPost2010Prop56
140
1.0
102
RTVSPost2010PropOp56
 70
     1
102
RTVSPost2010Prop57
140
1.0
102
RTVSPost2010PropOp57
 70
     1
  0
XRECORD
  5
16C
102
{ACAD_REACTORS
330
16B
102
}
330
16B
100
AcDbXrecord
280
     1
102
RTVSPost2010Prop28
280
     0
102
RTVSPost2010PropOp28
 70
     1
102
RTVSPost2010Prop29
280
     1
102
RTVSPost2010PropOp29
 70
     1
102
RTVSPost2010Prop30
280
     1
102
RTVSPost2010PropOp30
 70
     1
102
RTVSPost2010Prop31
280
     0
102
RTVSPost2010PropOp31
 70
     1
102
RTVSPost2010Prop32
280
     0
102
RTVSPost2010PropOp32
 70
     1
102
RTVSPost2010Prop33
280
     0
102
RTVSPost2010PropOp33
 70
     1
102
RTVSPost2010Prop34
280
     0
102
RTVSPost2010PropOp34
 70
     1
102
RTVSPost2010Prop35
280
     0
102
RTVSPost2010PropOp35
 70
     1
102
RTVSPost2010Prop36
280
     0
102
RTVSPost2010PropOp36
 70
     1
102
RTVSPost2010Prop37
 90
       50
102
RTVSPost2010PropOp37
 70
     1
102
RTVSPost2010Prop38
140
0.0
102
RTVSPost2010PropOp38
 70
     1
102
RTVSPost2010Prop39
140
1.0
102
RTVSPost2010PropOp39
 70
     1
102
RTVSPost2010Prop40
 90
        0
102
RTVSPost2010PropOp40
 70
     1
102
RTVSPost2010Prop41ColorIndex
 90
       18
102
RTVSPost2010Prop41ColorRGB
 90
        0
102
RTVSPost2010PropOp41
 70
     1
102
RTVSPost2010Prop42
 90
       50
102
RTVSPost2010PropOp42
 70
     1
102
RTVSPost2010Prop43
 90
        3
102
RTVSPost2010PropOp43
 70
     1
102
RTVSPost2010Prop44ColorIndex
 90
        5
102
RTVSPost2010Prop44ColorRGB
 90
      255
102
RTVSPost2010PropOp44
 70
     1
102
RTVSPost2010Prop45
280
     0
102
RTVSPost2010PropOp45
 70
     1
102
RTVSPost2010Prop46
 90
       50
102
RTVSPost2010PropOp46
 70
     1
102
RTVSPost2010Prop47
 90
       50
102
RTVSPost2010PropOp47
 70
     1
102
RTVSPost2010Prop48
 90
       50
102
RTVSPost2010PropOp48
 70
     1
102
RTVSPost2010Prop49
280
     0
102
RTVSPost2010PropOp49
 70
     1
102
RTVSPost2010Prop50
 90
       50
102
RTVSPost2010PropOp50
 70
     1
102
RTVSPost2010Prop51ColorIndex
 90
      256
102
RTVSPost2010Prop51ColorRGB
 90
-16777216
102
RTVSPost2010PropOp51
 70
     0
102
RTVSPost2010Prop52
140
1.0
102
RTVSPost2010PropOp52
 70
     0
102
RTVSPost2010Prop53
 90
        2
102
RTVSPost2010PropOp53
 70
     1
102
RTVSPost2010Prop54
  1
strokes_ogs.tif
102
RTVSPost2010PropOp54
 70
     1
102
RTVSPost2010Prop55
280
     0
102
RTVSPost2010PropOp55
 70
     1
102
RTVSPost2010Prop56
140
1.0
102
RTVSPost2010PropOp56
 70
     1
102
RTVSPost2010Prop57
140
1.0
102
RTVSPost2010PropOp57
 70
     1
  0
XRECORD
  5
16E
102
{ACAD_REACTORS
330
16D
102
}
330
16D
100
AcDbXrecord
280
     1
102
RTVSPost2010Prop28
280
     0
102
RTVSPost2010PropOp28
 70
     1
102
RTVSPost2010Prop29
280
     1
102
RTVSPost2010PropOp29
 70
     1
102
RTVSPost2010Prop30
280
     1
102
RTVSPost2010PropOp30
 70
     1
102
RTVSPost2010Prop31
280
     0
102
RTVSPost2010PropOp31
 70
     1
102
RTVSPost2010Prop32
280
     0
102
RTVSPost2010PropOp32
 70
     1
102
RTVSPost2010Prop33
280
     0
102
RTVSPost2010PropOp33
 70
     1
102
RTVSPost2010Prop34
280
     0
102
RTVSPost2010PropOp34
 70
     1
102
RTVSPost2010Prop35
280
     0
102
RTVSPost2010PropOp35
 70
     1
102
RTVSPost2010Prop36
280
     0
102
RTVSPost2010PropOp36
 70
     1
102
RTVSPost2010Prop37
 90
       50
102
RTVSPost2010PropOp37
 70
     1
102
RTVSPost2010Prop38
140
0.0
102
RTVSPost2010PropOp38
 70
     1
102
RTVSPost2010Prop39
140
1.0
102
RTVSPost2010PropOp39
 70
     1
102
RTVSPost2010Prop40
 90
        0
102
RTVSPost2010PropOp40
 70
     1
102
RTVSPost2010Prop41ColorIndex
 90
       18
102
RTVSPost2010Prop41ColorRGB
 90
        0
102
RTVSPost2010PropOp41
 70
     1
102
RTVSPost2010Prop42
 90
       50
102
RTVSPost2010PropOp42
 70
     1
102
RTVSPost2010Prop43
 90
        3
102
RTVSPost2010PropOp43
 70
     1
102
RTVSPost2010Prop44ColorIndex
 90
        5
102
RTVSPost2010Prop44ColorRGB
 90
      255
102
RTVSPost2010PropOp44
 70
     1
102
RTVSPost2010Prop45
280
     0
102
RTVSPost2010PropOp45
 70
     1
102
RTVSPost2010Prop46
 90
       50
102
RTVSPost2010PropOp46
 70
     1
102
RTVSPost2010Prop47
 90
       50
102
RTVSPost2010PropOp47
 70
     1
102
RTVSPost2010Prop48
 90
       50
102
RTVSPost2010PropOp48
 70
     1
102
RTVSPost2010Prop49
280
     0
102
RTVSPost2010PropOp49
 70
     1
102
RTVSPost2010Prop50
 90
       50
102
RTVSPost2010PropOp50
 70
     1
102
RTVSPost2010Prop51ColorIndex
 90
      256
102
RTVSPost2010Prop51ColorRGB
 90
-16777216
102
RTVSPost2010PropOp51
 70
     0
102
RTVSPost2010Prop52
140
1.0
102
RTVSPost2010PropOp52
 70
     0
102
RTVSPost2010Prop53
 90
        2
102
RTVSPost2010PropOp53
 70
     1
102
RTVSPost2010Prop54
  1
strokes_ogs.tif
102
RTVSPost2010PropOp54
 70
     1
102
RTVSPost2010Prop55
280
     0
102
RTVSPost2010PropOp55
 70
     1
102
RTVSPost2010Prop56
140
1.0
102
RTVSPost2010PropOp56
 70
     1
102
RTVSPost2010Prop57
140
1.0
102
RTVSPost2010PropOp57
 70
     1
  0
XRECORD
  5
170
102
{ACAD_REACTORS
330
16F
102
}
330
16F
100
AcDbXrecord
280
     1
102
RTVSPost2010Prop28
280
     0
102
RTVSPost2010PropOp28
 70
     1
102
RTVSPost2010Prop29
280
     1
102
RTVSPost2010PropOp29
 70
     1
102
RTVSPost2010Prop30
280
     1
102
RTVSPost2010PropOp30
 70
     1
102
RTVSPost2010Prop31
280
     0
102
RTVSPost2010PropOp31
 70
     1
102
RTVSPost2010Prop32
280
     0
102
RTVSPost2010PropOp32
 70
     1
102
RTVSPost2010Prop33
280
     0
102
RTVSPost2010PropOp33
 70
     1
102
RTVSPost2010Prop34
280
     0
102
RTVSPost2010PropOp34
 70
     1
102
RTVSPost2010Prop35
280
     0
102
RTVSPost2010PropOp35
 70
     1
102
RTVSPost2010Prop36
280
     0
102
RTVSPost2010PropOp36
 70
     1
102
RTVSPost2010Prop37
 90
       50
102
RTVSPost2010PropOp37
 70
     1
102
RTVSPost2010Prop38
140
0.0
102
RTVSPost2010PropOp38
 70
     1
102
RTVSPost2010Prop39
140
1.0
102
RTVSPost2010PropOp39
 70
     1
102
RTVSPost2010Prop40
 90
        0
102
RTVSPost2010PropOp40
 70
     1
102
RTVSPost2010Prop41ColorIndex
 90
       18
102
RTVSPost2010Prop41ColorRGB
 90
        0
102
RTVSPost2010PropOp41
 70
     1
102
RTVSPost2010Prop42
 90
       50
102
RTVSPost2010PropOp42
 70
     1
102
RTVSPost2010Prop43
 90
        3
102
RTVSPost2010PropOp43
 70
     1
102
RTVSPost2010Prop44ColorIndex
 90
        5
102
RTVSPost2010Prop44ColorRGB
 90
      255
102
RTVSPost2010PropOp44
 70
     1
102
RTVSPost2010Prop45
280
     0
102
RTVSPost2010PropOp45
 70
     1
102
RTVSPost2010Prop46
 90
       50
102
RTVSPost2010PropOp46
 70
     1
102
RTVSPost2010Prop47
 90
       50
102
RTVSPost2010PropOp47
 70
     1
102
RTVSPost2010Prop48
 90
       50
102
RTVSPost2010PropOp48
 70
     1
102
RTVSPost2010Prop49
280
     0
102
RTVSPost2010PropOp49
 70
     1
102
RTVSPost2010Prop50
 90
       50
102
RTVSPost2010PropOp50
 70
     1
102
RTVSPost2010Prop51ColorIndex
 90
      256
102
RTVSPost2010Prop51ColorRGB
 90
-16777216
102
RTVSPost2010PropOp51
 70
     0
102
RTVSPost2010Prop52
140
1.0
102
RTVSPost2010PropOp52
 70
     0
102
RTVSPost2010Prop53
 90
        2
102
RTVSPost2010PropOp53
 70
     1
102
RTVSPost2010Prop54
  1
strokes_ogs.tif
102
RTVSPost2010PropOp54
 70
     1
102
RTVSPost2010Prop55
280
     0
102
RTVSPost2010PropOp55
 70
     1
102
RTVSPost2010Prop56
140
1.0
102
RTVSPost2010PropOp56
 70
     1
102
RTVSPost2010Prop57
140
1.0
102
RTVSPost2010PropOp57
 70
     1
  0
XRECORD
  5
178
102
{ACAD_REACTORS
330
177
102
}
330
177
100
AcDbXrecord
280
     1
102
RTVSPost2010Prop28
280
     0
102
RTVSPost2010PropOp28
 70
     1
102
RTVSPost2010Prop29
280
     1
102
RTVSPost2010PropOp29
 70
     1
102
RTVSPost2010Prop30
280
     1
102
RTVSPost2010PropOp30
 70
     1
102
RTVSPost2010Prop31
280
     0
102
RTVSPost2010PropOp31
 70
     1
102
RTVSPost2010Prop32
280
     0
102
RTVSPost2010PropOp32
 70
     1
102
RTVSPost2010Prop33
280
     0
102
RTVSPost2010PropOp33
 70
     1
102
RTVSPost2010Prop34
280
     0
102
RTVSPost2010PropOp34
 70
     1
102
RTVSPost2010Prop35
280
     0
102
RTVSPost2010PropOp35
 70
     1
102
RTVSPost2010Prop36
280
     0
102
RTVSPost2010PropOp36
 70
     1
102
RTVSPost2010Prop37
 90
       50
102
RTVSPost2010PropOp37
 70
     1
102
RTVSPost2010Prop38
140
0.0
102
RTVSPost2010PropOp38
 70
     1
102
RTVSPost2010Prop39
140
1.0
102
RTVSPost2010PropOp39
 70
     1
102
RTVSPost2010Prop40
 90
        0
102
RTVSPost2010PropOp40
 70
     1
102
RTVSPost2010Prop41ColorIndex
 90
       18
102
RTVSPost2010Prop41ColorRGB
 90
        0
102
RTVSPost2010PropOp41
 70
     1
102
RTVSPost2010Prop42
 90
       50
102
RTVSPost2010PropOp42
 70
     1
102
RTVSPost2010Prop43
 90
        3
102
RTVSPost2010PropOp43
 70
     1
102
RTVSPost2010Prop44ColorIndex
 90
        5
102
RTVSPost2010Prop44ColorRGB
 90
      255
102
RTVSPost2010PropOp44
 70
     1
102
RTVSPost2010Prop45
280
     0
102
RTVSPost2010PropOp45
 70
     1
102
RTVSPost2010Prop46
 90
       50
102
RTVSPost2010PropOp46
 70
     1
102
RTVSPost2010Prop47
 90
       50
102
RTVSPost2010PropOp47
 70
     1
102
RTVSPost2010Prop48
 90
       50
102
RTVSPost2010PropOp48
 70
     1
102
RTVSPost2010Prop49
280
     0
102
RTVSPost2010PropOp49
 70
     1
102
RTVSPost2010Prop50
 90
       50
102
RTVSPost2010PropOp50
 70
     1
102
RTVSPost2010Prop51ColorIndex
 90
      256
102
RTVSPost2010Prop51ColorRGB
 90
-16777216
102
RTVSPost2010PropOp51
 70
     0
102
RTVSPost2010Prop52
140
1.0
102
RTVSPost2010PropOp52
 70
     0
102
RTVSPost2010Prop53
 90
        2
102
RTVSPost2010PropOp53
 70
     1
102
RTVSPost2010Prop54
  1
strokes_ogs.tif
102
RTVSPost2010PropOp54
 70
     1
102
RTVSPost2010Prop55
280
     0
102
RTVSPost2010PropOp55
 70
     1
102
RTVSPost2010Prop56
140
1.0
102
RTVSPost2010PropOp56
 70
     1
102
RTVSPost2010Prop57
140
1.0
102
RTVSPost2010PropOp57
 70
     1
  0
XRECORD
  5
194
102
{ACAD_REACTORS
330
193
102
}
330
193
100
AcDbXrecord
280
     1
102
RTVSPost2010Prop28
280
     0
102
RTVSPost2010PropOp28
 70
     0
102
RTVSPost2010Prop29
280
     1
102
RTVSPost2010PropOp29
 70
     0
102
RTVSPost2010Prop30
280
     1
102
RTVSPost2010PropOp30
 70
     0
102
RTVSPost2010Prop31
280
     0
102
RTVSPost2010PropOp31
 70
     0
102
RTVSPost2010Prop32
280
     0
102
RTVSPost2010PropOp32
 70
     0
102
RTVSPost2010Prop33
280
     0
102
RTVSPost2010PropOp33
 70
     0
102
RTVSPost2010Prop34
280
     0
102
RTVSPost2010PropOp34
 70
     0
102
RTVSPost2010Prop35
280
     0
102
RTVSPost2010PropOp35
 70
     0
102
RTVSPost2010Prop36
280
     0
102
RTVSPost2010PropOp36
 70
     0
102
RTVSPost2010Prop37
 90
       50
102
RTVSPost2010PropOp37
 70
     0
102
RTVSPost2010Prop38
140
0.0
102
RTVSPost2010PropOp38
 70
     0
102
RTVSPost2010Prop39
140
1.0
102
RTVSPost2010PropOp39
 70
     0
102
RTVSPost2010Prop40
 90
        0
102
RTVSPost2010PropOp40
 70
     0
102
RTVSPost2010Prop41ColorIndex
 90
       18
102
RTVSPost2010Prop41ColorRGB
 90
        0
102
RTVSPost2010PropOp41
 70
     0
102
RTVSPost2010Prop42
 90
       50
102
RTVSPost2010PropOp42
 70
     0
102
RTVSPost2010Prop43
 90
        3
102
RTVSPost2010PropOp43
 70
     0
102
RTVSPost2010Prop44ColorIndex
 90
        5
102
RTVSPost2010Prop44ColorRGB
 90
      255
102
RTVSPost2010PropOp44
 70
     0
102
RTVSPost2010Prop45
280
     0
102
RTVSPost2010PropOp45
 70
     0
102
RTVSPost2010Prop46
 90
       50
102
RTVSPost2010PropOp46
 70
     0
102
RTVSPost2010Prop47
 90
       50
102
RTVSPost2010PropOp47
 70
     0
102
RTVSPost2010Prop48
 90
       50
102
RTVSPost2010PropOp48
 70
     0
102
RTVSPost2010Prop49
280
     0
102
RTVSPost2010PropOp49
 70
     0
102
RTVSPost2010Prop50
 90
       50
102
RTVSPost2010PropOp50
 70
     0
102
RTVSPost2010Prop51ColorIndex
 90
      256
102
RTVSPost2010Prop51ColorRGB
 90
-16777216
102
RTVSPost2010PropOp51
 70
     0
102
RTVSPost2010Prop52
140
1.0
102
RTVSPost2010PropOp52
 70
     0
102
RTVSPost2010Prop53
 90
        2
102
RTVSPost2010PropOp53
 70
     0
102
RTVSPost2010Prop54
  1
strokes_ogs.tif
102
RTVSPost2010PropOp54
 70
     0
102
RTVSPost2010Prop55
280
     0
102
RTVSPost2010PropOp55
 70
     0
102
RTVSPost2010Prop56
140
1.0
102
RTVSPost2010PropOp56
 70
     0
102
RTVSPost2010Prop57
140
1.0
102
RTVSPost2010PropOp57
 70
     0
  0
XRECORD
  5
184
102
{ACAD_REACTORS
330
183
102
}
330
183
100
AcDbXrecord
280
     1
102
RTVSPost2010Prop28
280
     0
102
RTVSPost2010PropOp28
 70
     1
102
RTVSPost2010Prop29
280
     1
102
RTVSPost2010PropOp29
 70
     1
102
RTVSPost2010Prop30
280
     1
102
RTVSPost2010PropOp30
 70
     1
102
RTVSPost2010Prop31
280
     0
102
RTVSPost2010PropOp31
 70
     1
102
RTVSPost2010Prop32
280
     0
102
RTVSPost2010PropOp32
 70
     1
102
RTVSPost2010Prop33
280
     0
102
RTVSPost2010PropOp33
 70
     1
102
RTVSPost2010Prop34
280
     0
102
RTVSPost2010PropOp34
 70
     1
102
RTVSPost2010Prop35
280
     0
102
RTVSPost2010PropOp35
 70
     1
102
RTVSPost2010Prop36
280
     0
102
RTVSPost2010PropOp36
 70
     1
102
RTVSPost2010Prop37
 90
       50
102
RTVSPost2010PropOp37
 70
     1
102
RTVSPost2010Prop38
140
0.0
102
RTVSPost2010PropOp38
 70
     1
102
RTVSPost2010Prop39
140
1.0
102
RTVSPost2010PropOp39
 70
     1
102
RTVSPost2010Prop40
 90
        0
102
RTVSPost2010PropOp40
 70
     1
102
RTVSPost2010Prop41ColorIndex
 90
       18
102
RTVSPost2010Prop41ColorRGB
 90
        0
102
RTVSPost2010PropOp41
 70
     1
102
RTVSPost2010Prop42
 90
       50
102
RTVSPost2010PropOp42
 70
     1
102
RTVSPost2010Prop43
 90
        3
102
RTVSPost2010PropOp43
 70
     1
102
RTVSPost2010Prop44ColorIndex
 90
        5
102
RTVSPost2010Prop44ColorRGB
 90
      255
102
RTVSPost2010PropOp44
 70
     1
102
RTVSPost2010Prop45
280
     0
102
RTVSPost2010PropOp45
 70
     1
102
RTVSPost2010Prop46
 90
       50
102
RTVSPost2010PropOp46
 70
     1
102
RTVSPost2010Prop47
 90
       50
102
RTVSPost2010PropOp47
 70
     1
102
RTVSPost2010Prop48
 90
       50
102
RTVSPost2010PropOp48
 70
     1
102
RTVSPost2010Prop49
280
     0
102
RTVSPost2010PropOp49
 70
     1
102
RTVSPost2010Prop50
 90
       50
102
RTVSPost2010PropOp50
 70
     1
102
RTVSPost2010Prop51ColorIndex
 90
      256
102
RTVSPost2010Prop51ColorRGB
 90
-16777216
102
RTVSPost2010PropOp51
 70
     0
102
RTVSPost2010Prop52
140
1.0
102
RTVSPost2010PropOp52
 70
     0
102
RTVSPost2010Prop53
 90
        2
102
RTVSPost2010PropOp53
 70
     1
102
RTVSPost2010Prop54
  1
strokes_ogs.tif
102
RTVSPost2010PropOp54
 70
     1
102
RTVSPost2010Prop55
280
     0
102
RTVSPost2010PropOp55
 70
     1
102
RTVSPost2010Prop56
140
1.0
102
RTVSPost2010PropOp56
 70
     1
102
RTVSPost2010Prop57
140
1.0
102
RTVSPost2010PropOp57
 70
     1
  0
XRECORD
  5
196
102
{ACAD_REACTORS
330
195
102
}
330
195
100
AcDbXrecord
280
     1
102
RTVSPost2010Prop28
280
     0
102
RTVSPost2010PropOp28
 70
     0
102
RTVSPost2010Prop29
280
     1
102
RTVSPost2010PropOp29
 70
     0
102
RTVSPost2010Prop30
280
     1
102
RTVSPost2010PropOp30
 70
     0
102
RTVSPost2010Prop31
280
     0
102
RTVSPost2010PropOp31
 70
     0
102
RTVSPost2010Prop32
280
     0
102
RTVSPost2010PropOp32
 70
     0
102
RTVSPost2010Prop33
280
     0
102
RTVSPost2010PropOp33
 70
     0
102
RTVSPost2010Prop34
280
     0
102
RTVSPost2010PropOp34
 70
     0
102
RTVSPost2010Prop35
280
     0
102
RTVSPost2010PropOp35
 70
     0
102
RTVSPost2010Prop36
280
     0
102
RTVSPost2010PropOp36
 70
     0
102
RTVSPost2010Prop37
 90
       50
102
RTVSPost2010PropOp37
 70
     0
102
RTVSPost2010Prop38
140
0.0
102
RTVSPost2010PropOp38
 70
     0
102
RTVSPost2010Prop39
140
1.0
102
RTVSPost2010PropOp39
 70
     0
102
RTVSPost2010Prop40
 90
        0
102
RTVSPost2010PropOp40
 70
     0
102
RTVSPost2010Prop41ColorIndex
 90
       18
102
RTVSPost2010Prop41ColorRGB
 90
        0
102
RTVSPost2010PropOp41
 70
     0
102
RTVSPost2010Prop42
 90
       50
102
RTVSPost2010PropOp42
 70
     0
102
RTVSPost2010Prop43
 90
        3
102
RTVSPost2010PropOp43
 70
     0
102
RTVSPost2010Prop44ColorIndex
 90
        5
102
RTVSPost2010Prop44ColorRGB
 90
      255
102
RTVSPost2010PropOp44
 70
     0
102
RTVSPost2010Prop45
280
     0
102
RTVSPost2010PropOp45
 70
     0
102
RTVSPost2010Prop46
 90
       50
102
RTVSPost2010PropOp46
 70
     0
102
RTVSPost2010Prop47
 90
       50
102
RTVSPost2010PropOp47
 70
     0
102
RTVSPost2010Prop48
 90
       50
102
RTVSPost2010PropOp48
 70
     0
102
RTVSPost2010Prop49
280
     0
102
RTVSPost2010PropOp49
 70
     0
102
RTVSPost2010Prop50
 90
       50
102
RTVSPost2010PropOp50
 70
     0
102
RTVSPost2010Prop51ColorIndex
 90
      256
102
RTVSPost2010Prop51ColorRGB
 90
-16777216
102
RTVSPost2010PropOp51
 70
     0
102
RTVSPost2010Prop52
140
1.0
102
RTVSPost2010PropOp52
 70
     0
102
RTVSPost2010Prop53
 90
        2
102
RTVSPost2010PropOp53
 70
     0
102
RTVSPost2010Prop54
  1
strokes_ogs.tif
102
RTVSPost2010PropOp54
 70
     0
102
RTVSPost2010Prop55
280
     0
102
RTVSPost2010PropOp55
 70
     0
102
RTVSPost2010Prop56
140
1.0
102
RTVSPost2010PropOp56
 70
     0
102
RTVSPost2010Prop57
140
1.0
102
RTVSPost2010PropOp57
 70
     0
  0
XRECORD
  5
17C
102
{ACAD_REACTORS
330
17B
102
}
330
17B
100
AcDbXrecord
280
     1
102
RTVSPost2010Prop28
280
     0
102
RTVSPost2010PropOp28
 70
     1
102
RTVSPost2010Prop29
280
     1
102
RTVSPost2010PropOp29
 70
     1
102
RTVSPost2010Prop30
280
     1
102
RTVSPost2010PropOp30
 70
     1
102
RTVSPost2010Prop31
280
     0
102
RTVSPost2010PropOp31
 70
     1
102
RTVSPost2010Prop32
280
     0
102
RTVSPost2010PropOp32
 70
     1
102
RTVSPost2010Prop33
280
     0
102
RTVSPost2010PropOp33
 70
     1
102
RTVSPost2010Prop34
280
     0
102
RTVSPost2010PropOp34
 70
     1
102
RTVSPost2010Prop35
280
     0
102
RTVSPost2010PropOp35
 70
     1
102
RTVSPost2010Prop36
280
     0
102
RTVSPost2010PropOp36
 70
     1
102
RTVSPost2010Prop37
 90
       50
102
RTVSPost2010PropOp37
 70
     1
102
RTVSPost2010Prop38
140
0.0
102
RTVSPost2010PropOp38
 70
     1
102
RTVSPost2010Prop39
140
1.0
102
RTVSPost2010PropOp39
 70
     1
102
RTVSPost2010Prop40
 90
        0
102
RTVSPost2010PropOp40
 70
     1
102
RTVSPost2010Prop41ColorIndex
 90
       18
102
RTVSPost2010Prop41ColorRGB
 90
        0
102
RTVSPost2010PropOp41
 70
     1
102
RTVSPost2010Prop42
 90
       50
102
RTVSPost2010PropOp42
 70
     1
102
RTVSPost2010Prop43
 90
        3
102
RTVSPost2010PropOp43
 70
     1
102
RTVSPost2010Prop44ColorIndex
 90
        5
102
RTVSPost2010Prop44ColorRGB
 90
      255
102
RTVSPost2010PropOp44
 70
     1
102
RTVSPost2010Prop45
280
     0
102
RTVSPost2010PropOp45
 70
     1
102
RTVSPost2010Prop46
 90
       50
102
RTVSPost2010PropOp46
 70
     1
102
RTVSPost2010Prop47
 90
       50
102
RTVSPost2010PropOp47
 70
     1
102
RTVSPost2010Prop48
 90
       50
102
RTVSPost2010PropOp48
 70
     1
102
RTVSPost2010Prop49
280
     0
102
RTVSPost2010PropOp49
 70
     1
102
RTVSPost2010Prop50
 90
       50
102
RTVSPost2010PropOp50
 70
     1
102
RTVSPost2010Prop51ColorIndex
 90
      256
102
RTVSPost2010Prop51ColorRGB
 90
-16777216
102
RTVSPost2010PropOp51
 70
     0
102
RTVSPost2010Prop52
140
1.0
102
RTVSPost2010PropOp52
 70
     0
102
RTVSPost2010Prop53
 90
        2
102
RTVSPost2010PropOp53
 70
     1
102
RTVSPost2010Prop54
  1
strokes_ogs.tif
102
RTVSPost2010PropOp54
 70
     1
102
RTVSPost2010Prop55
280
     0
102
RTVSPost2010PropOp55
 70
     1
102
RTVSPost2010Prop56
140
1.0
102
RTVSPost2010PropOp56
 70
     1
102
RTVSPost2010Prop57
140
1.0
102
RTVSPost2010PropOp57
 70
     1
  0
XRECORD
  5
192
102
{ACAD_REACTORS
330
191
102
}
330
191
100
AcDbXrecord
280
     1
102
RTVSPost2010Prop28
280
     0
102
RTVSPost2010PropOp28
 70
     1
102
RTVSPost2010Prop29
280
     1
102
RTVSPost2010PropOp29
 70
     1
102
RTVSPost2010Prop30
280
     1
102
RTVSPost2010PropOp30
 70
     1
102
RTVSPost2010Prop31
280
     0
102
RTVSPost2010PropOp31
 70
     1
102
RTVSPost2010Prop32
280
     0
102
RTVSPost2010PropOp32
 70
     1
102
RTVSPost2010Prop33
280
     0
102
RTVSPost2010PropOp33
 70
     1
102
RTVSPost2010Prop34
280
     0
102
RTVSPost2010PropOp34
 70
     1
102
RTVSPost2010Prop35
280
     0
102
RTVSPost2010PropOp35
 70
     1
102
RTVSPost2010Prop36
280
     0
102
RTVSPost2010PropOp36
 70
     1
102
RTVSPost2010Prop37
 90
       50
102
RTVSPost2010PropOp37
 70
     1
102
RTVSPost2010Prop38
140
0.0
102
RTVSPost2010PropOp38
 70
     1
102
RTVSPost2010Prop39
140
1.0
102
RTVSPost2010PropOp39
 70
     1
102
RTVSPost2010Prop40
 90
        0
102
RTVSPost2010PropOp40
 70
     1
102
RTVSPost2010Prop41ColorIndex
 90
       18
102
RTVSPost2010Prop41ColorRGB
 90
        0
102
RTVSPost2010PropOp41
 70
     1
102
RTVSPost2010Prop42
 90
       50
102
RTVSPost2010PropOp42
 70
     1
102
RTVSPost2010Prop43
 90
        3
102
RTVSPost2010PropOp43
 70
     1
102
RTVSPost2010Prop44ColorIndex
 90
        5
102
RTVSPost2010Prop44ColorRGB
 90
      255
102
RTVSPost2010PropOp44
 70
     1
102
RTVSPost2010Prop45
280
     0
102
RTVSPost2010PropOp45
 70
     1
102
RTVSPost2010Prop46
 90
       50
102
RTVSPost2010PropOp46
 70
     1
102
RTVSPost2010Prop47
 90
       50
102
RTVSPost2010PropOp47
 70
     1
102
RTVSPost2010Prop48
 90
       50
102
RTVSPost2010PropOp48
 70
     1
102
RTVSPost2010Prop49
280
     0
102
RTVSPost2010PropOp49
 70
     1
102
RTVSPost2010Prop50
 90
       50
102
RTVSPost2010PropOp50
 70
     1
102
RTVSPost2010Prop51ColorIndex
 90
      256
102
RTVSPost2010Prop51ColorRGB
 90
-16777216
102
RTVSPost2010PropOp51
 70
     0
102
RTVSPost2010Prop52
140
1.0
102
RTVSPost2010PropOp52
 70
     0
102
RTVSPost2010Prop53
 90
        2
102
RTVSPost2010PropOp53
 70
     1
102
RTVSPost2010Prop54
  1
strokes_ogs.tif
102
RTVSPost2010PropOp54
 70
     1
102
RTVSPost2010Prop55
280
     0
102
RTVSPost2010PropOp55
 70
     1
102
RTVSPost2010Prop56
140
1.0
102
RTVSPost2010PropOp56
 70
     1
102
RTVSPost2010Prop57
140
1.0
102
RTVSPost2010PropOp57
 70
     1
  0
XRECORD
  5
190
102
{ACAD_REACTORS
330
18F
102
}
330
18F
100
AcDbXrecord
280
     1
102
RTVSPost2010Prop28
280
     0
102
RTVSPost2010PropOp28
 70
     1
102
RTVSPost2010Prop29
280
     1
102
RTVSPost2010PropOp29
 70
     1
102
RTVSPost2010Prop30
280
     1
102
RTVSPost2010PropOp30
 70
     1
102
RTVSPost2010Prop31
280
     0
102
RTVSPost2010PropOp31
 70
     1
102
RTVSPost2010Prop32
280
     0
102
RTVSPost2010PropOp32
 70
     1
102
RTVSPost2010Prop33
280
     0
102
RTVSPost2010PropOp33
 70
     1
102
RTVSPost2010Prop34
280
     0
102
RTVSPost2010PropOp34
 70
     1
102
RTVSPost2010Prop35
280
     0
102
RTVSPost2010PropOp35
 70
     1
102
RTVSPost2010Prop36
280
     0
102
RTVSPost2010PropOp36
 70
     1
102
RTVSPost2010Prop37
 90
       50
102
RTVSPost2010PropOp37
 70
     1
102
RTVSPost2010Prop38
140
0.0
102
RTVSPost2010PropOp38
 70
     1
102
RTVSPost2010Prop39
140
1.0
102
RTVSPost2010PropOp39
 70
     1
102
RTVSPost2010Prop40
 90
        0
102
RTVSPost2010PropOp40
 70
     1
102
RTVSPost2010Prop41ColorIndex
 90
       18
102
RTVSPost2010Prop41ColorRGB
 90
        0
102
RTVSPost2010PropOp41
 70
     1
102
RTVSPost2010Prop42
 90
       50
102
RTVSPost2010PropOp42
 70
     1
102
RTVSPost2010Prop43
 90
        3
102
RTVSPost2010PropOp43
 70
     1
102
RTVSPost2010Prop44ColorIndex
 90
        5
102
RTVSPost2010Prop44ColorRGB
 90
      255
102
RTVSPost2010PropOp44
 70
     1
102
RTVSPost2010Prop45
280
     0
102
RTVSPost2010PropOp45
 70
     1
102
RTVSPost2010Prop46
 90
       50
102
RTVSPost2010PropOp46
 70
     1
102
RTVSPost2010Prop47
 90
       50
102
RTVSPost2010PropOp47
 70
     1
102
RTVSPost2010Prop48
 90
       50
102
RTVSPost2010PropOp48
 70
     1
102
RTVSPost2010Prop49
280
     0
102
RTVSPost2010PropOp49
 70
     1
102
RTVSPost2010Prop50
 90
       50
102
RTVSPost2010PropOp50
 70
     1
102
RTVSPost2010Prop51ColorIndex
 90
      256
102
RTVSPost2010Prop51ColorRGB
 90
-16777216
102
RTVSPost2010PropOp51
 70
     0
102
RTVSPost2010Prop52
140
1.0
102
RTVSPost2010PropOp52
 70
     0
102
RTVSPost2010Prop53
 90
        2
102
RTVSPost2010PropOp53
 70
     1
102
RTVSPost2010Prop54
  1
strokes_ogs.tif
102
RTVSPost2010PropOp54
 70
     1
102
RTVSPost2010Prop55
280
     0
102
RTVSPost2010PropOp55
 70
     1
102
RTVSPost2010Prop56
140
1.0
102
RTVSPost2010PropOp56
 70
     1
102
RTVSPost2010Prop57
140
1.0
102
RTVSPost2010PropOp57
 70
     1
  0
XRECORD
  5
18A
102
{ACAD_REACTORS
330
189
102
}
330
189
100
AcDbXrecord
280
     1
102
RTVSPost2010Prop28
280
     0
102
RTVSPost2010PropOp28
 70
     1
102
RTVSPost2010Prop29
280
     1
102
RTVSPost2010PropOp29
 70
     1
102
RTVSPost2010Prop30
280
     1
102
RTVSPost2010PropOp30
 70
     1
102
RTVSPost2010Prop31
280
     0
102
RTVSPost2010PropOp31
 70
     1
102
RTVSPost2010Prop32
280
     0
102
RTVSPost2010PropOp32
 70
     1
102
RTVSPost2010Prop33
280
     0
102
RTVSPost2010PropOp33
 70
     1
102
RTVSPost2010Prop34
280
     0
102
RTVSPost2010PropOp34
 70
     1
102
RTVSPost2010Prop35
280
     0
102
RTVSPost2010PropOp35
 70
     1
102
RTVSPost2010Prop36
280
     0
102
RTVSPost2010PropOp36
 70
     1
102
RTVSPost2010Prop37
 90
       50
102
RTVSPost2010PropOp37
 70
     1
102
RTVSPost2010Prop38
140
0.0
102
RTVSPost2010PropOp38
 70
     1
102
RTVSPost2010Prop39
140
1.0
102
RTVSPost2010PropOp39
 70
     1
102
RTVSPost2010Prop40
 90
        0
102
RTVSPost2010PropOp40
 70
     1
102
RTVSPost2010Prop41ColorIndex
 90
       18
102
RTVSPost2010Prop41ColorRGB
 90
        0
102
RTVSPost2010PropOp41
 70
     1
102
RTVSPost2010Prop42
 90
       50
102
RTVSPost2010PropOp42
 70
     1
102
RTVSPost2010Prop43
 90
        3
102
RTVSPost2010PropOp43
 70
     1
102
RTVSPost2010Prop44ColorIndex
 90
        5
102
RTVSPost2010Prop44ColorRGB
 90
      255
102
RTVSPost2010PropOp44
 70
     1
102
RTVSPost2010Prop45
280
     0
102
RTVSPost2010PropOp45
 70
     1
102
RTVSPost2010Prop46
 90
       50
102
RTVSPost2010PropOp46
 70
     1
102
RTVSPost2010Prop47
 90
       50
102
RTVSPost2010PropOp47
 70
     1
102
RTVSPost2010Prop48
 90
       50
102
RTVSPost2010PropOp48
 70
     1
102
RTVSPost2010Prop49
280
     0
102
RTVSPost2010PropOp49
 70
     1
102
RTVSPost2010Prop50
 90
       50
102
RTVSPost2010PropOp50
 70
     1
102
RTVSPost2010Prop51ColorIndex
 90
      256
102
RTVSPost2010Prop51ColorRGB
 90
-16777216
102
RTVSPost2010PropOp51
 70
     0
102
RTVSPost2010Prop52
140
1.0
102
RTVSPost2010PropOp52
 70
     0
102
RTVSPost2010Prop53
 90
        2
102
RTVSPost2010PropOp53
 70
     1
102
RTVSPost2010Prop54
  1
strokes_ogs.tif
102
RTVSPost2010PropOp54
 70
     1
102
RTVSPost2010Prop55
280
     0
102
RTVSPost2010PropOp55
 70
     1
102
RTVSPost2010Prop56
140
1.0
102
RTVSPost2010PropOp56
 70
     1
102
RTVSPost2010Prop57
140
1.0
102
RTVSPost2010PropOp57
 70
     1
  0
XRECORD
  5
18C
102
{ACAD_REACTORS
330
18B
102
}
330
18B
100
AcDbXrecord
280
     1
102
RTVSPost2010Prop28
280
     0
102
RTVSPost2010PropOp28
 70
     1
102
RTVSPost2010Prop29
280
     1
102
RTVSPost2010PropOp29
 70
     1
102
RTVSPost2010Prop30
280
     1
102
RTVSPost2010PropOp30
 70
     1
102
RTVSPost2010Prop31
280
     0
102
RTVSPost2010PropOp31
 70
     1
102
RTVSPost2010Prop32
280
     0
102
RTVSPost2010PropOp32
 70
     1
102
RTVSPost2010Prop33
280
     0
102
RTVSPost2010PropOp33
 70
     1
102
RTVSPost2010Prop34
280
     0
102
RTVSPost2010PropOp34
 70
     1
102
RTVSPost2010Prop35
280
     0
102
RTVSPost2010PropOp35
 70
     1
102
RTVSPost2010Prop36
280
     0
102
RTVSPost2010PropOp36
 70
     1
102
RTVSPost2010Prop37
 90
       50
102
RTVSPost2010PropOp37
 70
     1
102
RTVSPost2010Prop38
140
0.0
102
RTVSPost2010PropOp38
 70
     1
102
RTVSPost2010Prop39
140
1.0
102
RTVSPost2010PropOp39
 70
     1
102
RTVSPost2010Prop40
 90
        0
102
RTVSPost2010PropOp40
 70
     1
102
RTVSPost2010Prop41ColorIndex
 90
       18
102
RTVSPost2010Prop41ColorRGB
 90
        0
102
RTVSPost2010PropOp41
 70
     1
102
RTVSPost2010Prop42
 90
       50
102
RTVSPost2010PropOp42
 70
     1
102
RTVSPost2010Prop43
 90
        3
102
RTVSPost2010PropOp43
 70
     1
102
RTVSPost2010Prop44ColorIndex
 90
        5
102
RTVSPost2010Prop44ColorRGB
 90
      255
102
RTVSPost2010PropOp44
 70
     1
102
RTVSPost2010Prop45
280
     0
102
RTVSPost2010PropOp45
 70
     1
102
RTVSPost2010Prop46
 90
       50
102
RTVSPost2010PropOp46
 70
     1
102
RTVSPost2010Prop47
 90
       50
102
RTVSPost2010PropOp47
 70
     1
102
RTVSPost2010Prop48
 90
       50
102
RTVSPost2010PropOp48
 70
     1
102
RTVSPost2010Prop49
280
     0
102
RTVSPost2010PropOp49
 70
     1
102
RTVSPost2010Prop50
 90
       50
102
RTVSPost2010PropOp50
 70
     1
102
RTVSPost2010Prop51ColorIndex
 90
      256
102
RTVSPost2010Prop51ColorRGB
 90
-16777216
102
RTVSPost2010PropOp51
 70
     0
102
RTVSPost2010Prop52
140
1.0
102
RTVSPost2010PropOp52
 70
     0
102
RTVSPost2010Prop53
 90
        2
102
RTVSPost2010PropOp53
 70
     1
102
RTVSPost2010Prop54
  1
strokes_ogs.tif
102
RTVSPost2010PropOp54
 70
     1
102
RTVSPost2010Prop55
280
     0
102
RTVSPost2010PropOp55
 70
     1
102
RTVSPost2010Prop56
140
1.0
102
RTVSPost2010PropOp56
 70
     1
102
RTVSPost2010Prop57
140
1.0
102
RTVSPost2010PropOp57
 70
     1
  0
XRECORD
  5
182
102
{ACAD_REACTORS
330
181
102
}
330
181
100
AcDbXrecord
280
     1
102
RTVSPost2010Prop28
280
     0
102
RTVSPost2010PropOp28
 70
     1
102
RTVSPost2010Prop29
280
     1
102
RTVSPost2010PropOp29
 70
     1
102
RTVSPost2010Prop30
280
     1
102
RTVSPost2010PropOp30
 70
     1
102
RTVSPost2010Prop31
280
     0
102
RTVSPost2010PropOp31
 70
     1
102
RTVSPost2010Prop32
280
     0
102
RTVSPost2010PropOp32
 70
     1
102
RTVSPost2010Prop33
280
     0
102
RTVSPost2010PropOp33
 70
     1
102
RTVSPost2010Prop34
280
     0
102
RTVSPost2010PropOp34
 70
     1
102
RTVSPost2010Prop35
280
     0
102
RTVSPost2010PropOp35
 70
     1
102
RTVSPost2010Prop36
280
     0
102
RTVSPost2010PropOp36
 70
     1
102
RTVSPost2010Prop37
 90
       50
102
RTVSPost2010PropOp37
 70
     1
102
RTVSPost2010Prop38
140
0.0
102
RTVSPost2010PropOp38
 70
     1
102
RTVSPost2010Prop39
140
1.0
102
RTVSPost2010PropOp39
 70
     1
102
RTVSPost2010Prop40
 90
        0
102
RTVSPost2010PropOp40
 70
     1
102
RTVSPost2010Prop41ColorIndex
 90
       18
102
RTVSPost2010Prop41ColorRGB
 90
        0
102
RTVSPost2010PropOp41
 70
     1
102
RTVSPost2010Prop42
 90
       50
102
RTVSPost2010PropOp42
 70
     1
102
RTVSPost2010Prop43
 90
        3
102
RTVSPost2010PropOp43
 70
     1
102
RTVSPost2010Prop44ColorIndex
 90
        5
102
RTVSPost2010Prop44ColorRGB
 90
      255
102
RTVSPost2010PropOp44
 70
     1
102
RTVSPost2010Prop45
280
     0
102
RTVSPost2010PropOp45
 70
     1
102
RTVSPost2010Prop46
 90
       50
102
RTVSPost2010PropOp46
 70
     1
102
RTVSPost2010Prop47
 90
       50
102
RTVSPost2010PropOp47
 70
     1
102
RTVSPost2010Prop48
 90
       50
102
RTVSPost2010PropOp48
 70
     1
102
RTVSPost2010Prop49
280
     0
102
RTVSPost2010PropOp49
 70
     1
102
RTVSPost2010Prop50
 90
       50
102
RTVSPost2010PropOp50
 70
     1
102
RTVSPost2010Prop51ColorIndex
 90
      256
102
RTVSPost2010Prop51ColorRGB
 90
-16777216
102
RTVSPost2010PropOp51
 70
     0
102
RTVSPost2010Prop52
140
1.0
102
RTVSPost2010PropOp52
 70
     0
102
RTVSPost2010Prop53
 90
        2
102
RTVSPost2010PropOp53
 70
     1
102
RTVSPost2010Prop54
  1
strokes_ogs.tif
102
RTVSPost2010PropOp54
 70
     1
102
RTVSPost2010Prop55
280
     0
102
RTVSPost2010PropOp55
 70
     1
102
RTVSPost2010Prop56
140
1.0
102
RTVSPost2010PropOp56
 70
     1
102
RTVSPost2010Prop57
140
1.0
102
RTVSPost2010PropOp57
 70
     1
  0
XRECORD
  5
176
102
{ACAD_REACTORS
330
175
102
}
330
175
100
AcDbXrecord
280
     1
102
RTVSPost2010Prop28
280
     0
102
RTVSPost2010PropOp28
 70
     1
102
RTVSPost2010Prop29
280
     1
102
RTVSPost2010PropOp29
 70
     1
102
RTVSPost2010Prop30
280
     1
102
RTVSPost2010PropOp30
 70
     1
102
RTVSPost2010Prop31
280
     0
102
RTVSPost2010PropOp31
 70
     1
102
RTVSPost2010Prop32
280
     0
102
RTVSPost2010PropOp32
 70
     1
102
RTVSPost2010Prop33
280
     0
102
RTVSPost2010PropOp33
 70
     1
102
RTVSPost2010Prop34
280
     0
102
RTVSPost2010PropOp34
 70
     1
102
RTVSPost2010Prop35
280
     0
102
RTVSPost2010PropOp35
 70
     1
102
RTVSPost2010Prop36
280
     0
102
RTVSPost2010PropOp36
 70
     1
102
RTVSPost2010Prop37
 90
       50
102
RTVSPost2010PropOp37
 70
     1
102
RTVSPost2010Prop38
140
0.0
102
RTVSPost2010PropOp38
 70
     1
102
RTVSPost2010Prop39
140
1.0
102
RTVSPost2010PropOp39
 70
     1
102
RTVSPost2010Prop40
 90
        0
102
RTVSPost2010PropOp40
 70
     1
102
RTVSPost2010Prop41ColorIndex
 90
       18
102
RTVSPost2010Prop41ColorRGB
 90
        0
102
RTVSPost2010PropOp41
 70
     1
102
RTVSPost2010Prop42
 90
       50
102
RTVSPost2010PropOp42
 70
     1
102
RTVSPost2010Prop43
 90
        3
102
RTVSPost2010PropOp43
 70
     1
102
RTVSPost2010Prop44ColorIndex
 90
        5
102
RTVSPost2010Prop44ColorRGB
 90
      255
102
RTVSPost2010PropOp44
 70
     1
102
RTVSPost2010Prop45
280
     0
102
RTVSPost2010PropOp45
 70
     1
102
RTVSPost2010Prop46
 90
       50
102
RTVSPost2010PropOp46
 70
     1
102
RTVSPost2010Prop47
 90
       50
102
RTVSPost2010PropOp47
 70
     1
102
RTVSPost2010Prop48
 90
       50
102
RTVSPost2010PropOp48
 70
     1
102
RTVSPost2010Prop49
280
     0
102
RTVSPost2010PropOp49
 70
     1
102
RTVSPost2010Prop50
 90
       50
102
RTVSPost2010PropOp50
 70
     1
102
RTVSPost2010Prop51ColorIndex
 90
      256
102
RTVSPost2010Prop51ColorRGB
 90
-16777216
102
RTVSPost2010PropOp51
 70
     0
102
RTVSPost2010Prop52
140
1.0
102
RTVSPost2010PropOp52
 70
     0
102
RTVSPost2010Prop53
 90
        2
102
RTVSPost2010PropOp53
 70
     1
102
RTVSPost2010Prop54
  1
strokes_ogs.tif
102
RTVSPost2010PropOp54
 70
     1
102
RTVSPost2010Prop55
280
     0
102
RTVSPost2010PropOp55
 70
     1
102
RTVSPost2010Prop56
140
1.0
102
RTVSPost2010PropOp56
 70
     1
102
RTVSPost2010Prop57
140
1.0
102
RTVSPost2010PropOp57
 70
     1
  0
XRECORD
  5
18E
102
{ACAD_REACTORS
330
18D
102
}
330
18D
100
AcDbXrecord
280
     1
102
RTVSPost2010Prop28
280
     0
102
RTVSPost2010PropOp28
 70
     1
102
RTVSPost2010Prop29
280
     1
102
RTVSPost2010PropOp29
 70
     1
102
RTVSPost2010Prop30
280
     1
102
RTVSPost2010PropOp30
 70
     1
102
RTVSPost2010Prop31
280
     0
102
RTVSPost2010PropOp31
 70
     1
102
RTVSPost2010Prop32
280
     0
102
RTVSPost2010PropOp32
 70
     1
102
RTVSPost2010Prop33
280
     0
102
RTVSPost2010PropOp33
 70
     1
102
RTVSPost2010Prop34
280
     0
102
RTVSPost2010PropOp34
 70
     1
102
RTVSPost2010Prop35
280
     0
102
RTVSPost2010PropOp35
 70
     1
102
RTVSPost2010Prop36
280
     0
102
RTVSPost2010PropOp36
 70
     1
102
RTVSPost2010Prop37
 90
       50
102
RTVSPost2010PropOp37
 70
     1
102
RTVSPost2010Prop38
140
0.0
102
RTVSPost2010PropOp38
 70
     1
102
RTVSPost2010Prop39
140
1.0
102
RTVSPost2010PropOp39
 70
     1
102
RTVSPost2010Prop40
 90
        0
102
RTVSPost2010PropOp40
 70
     1
102
RTVSPost2010Prop41ColorIndex
 90
       18
102
RTVSPost2010Prop41ColorRGB
 90
        0
102
RTVSPost2010PropOp41
 70
     1
102
RTVSPost2010Prop42
 90
       50
102
RTVSPost2010PropOp42
 70
     1
102
RTVSPost2010Prop43
 90
        3
102
RTVSPost2010PropOp43
 70
     1
102
RTVSPost2010Prop44ColorIndex
 90
        5
102
RTVSPost2010Prop44ColorRGB
 90
      255
102
RTVSPost2010PropOp44
 70
     1
102
RTVSPost2010Prop45
280
     0
102
RTVSPost2010PropOp45
 70
     1
102
RTVSPost2010Prop46
 90
       50
102
RTVSPost2010PropOp46
 70
     1
102
RTVSPost2010Prop47
 90
       50
102
RTVSPost2010PropOp47
 70
     1
102
RTVSPost2010Prop48
 90
       50
102
RTVSPost2010PropOp48
 70
     1
102
RTVSPost2010Prop49
280
     0
102
RTVSPost2010PropOp49
 70
     1
102
RTVSPost2010Prop50
 90
       50
102
RTVSPost2010PropOp50
 70
     1
102
RTVSPost2010Prop51ColorIndex
 90
      256
102
RTVSPost2010Prop51ColorRGB
 90
-16777216
102
RTVSPost2010PropOp51
 70
     0
102
RTVSPost2010Prop52
140
1.0
102
RTVSPost2010PropOp52
 70
     0
102
RTVSPost2010Prop53
 90
        2
102
RTVSPost2010PropOp53
 70
     1
102
RTVSPost2010Prop54
  1
strokes_ogs.tif
102
RTVSPost2010PropOp54
 70
     1
102
RTVSPost2010Prop55
280
     0
102
RTVSPost2010PropOp55
 70
     1
102
RTVSPost2010Prop56
140
1.0
102
RTVSPost2010PropOp56
 70
     1
102
RTVSPost2010Prop57
140
1.0
102
RTVSPost2010PropOp57
 70
     1
  0
ENDSEC
  0
EOF
