ISO-10303-21;
HEADER;
/* Generated by software containing ST-Developer
 * from STEP Tools, Inc. (www.steptools.com) 
 */
/* OPTION: using custom schema-name function */

FILE_DESCRIPTION(
/* description */ (''),
/* implementation_level */ '2;1');

FILE_NAME(
/* name */ '5883B103208.stp',
/* time_stamp */ '2019-05-09T10:37:55+05:00',
/* author */ (''),
/* organization */ (''),
/* preprocessor_version */ 'ST-DEVELOPER v16.7',
/* originating_system */ 'SIEMENS PLM Software NX 12.0',
/* authorisation */ '');

FILE_SCHEMA (('AUTOMOTIVE_DESIGN { 1 0 10303 214 3 1 1 1 }'));
ENDSEC;

DATA;
#10=CONSTRUCTIVE_GEOMETRY_REPRESENTATION_RELATIONSHIP(
'supplemental geometry','',#24,#11);
#11=CONSTRUCTIVE_GEOMETRY_REPRESENTATION('supplemental geometry',(#150,
#151,#152),#247);
#12=SHAPE_REPRESENTATION_RELATIONSHIP('None',
'relationship between 5883B103208-None and 5883B103208-None',#24,#13);
#13=ADVANCED_BREP_SHAPE_REPRESENTATION('5883B103208-None',(#30),#247);
#14=SHAPE_DEFINITION_REPRESENTATION(#15,#24);
#15=PRODUCT_DEFINITION_SHAPE('','',#16);
#16=PRODUCT_DEFINITION(' ','',#18,#17);
#17=PRODUCT_DEFINITION_CONTEXT('part definition',#23,'design');
#18=PRODUCT_DEFINITION_FORMATION_WITH_SPECIFIED_SOURCE(' ',' ',#20,
 .NOT_KNOWN.);
#19=PRODUCT_RELATED_PRODUCT_CATEGORY('part','',(#20));
#20=PRODUCT('5883B103208','5883B103208',' ',(#21));
#21=PRODUCT_CONTEXT(' ',#23,'mechanical');
#22=APPLICATION_PROTOCOL_DEFINITION('international standard',
'automotive_design',2010,#23);
#23=APPLICATION_CONTEXT(
'core data for automotive mechanical design processes');
#24=SHAPE_REPRESENTATION('5883B103208-None',(#149),#247);
#25=SURFACE_STYLE_USAGE(.BOTH.,#26);
#26=SURFACE_SIDE_STYLE('',(#27));
#27=SURFACE_STYLE_FILL_AREA(#28);
#28=FILL_AREA_STYLE('',(#29));
#29=FILL_AREA_STYLE_COLOUR('',#145);
#30=MANIFOLD_SOLID_BREP('NOCUT',#31);
#31=CLOSED_SHELL('',(#37,#38,#39,#40,#41,#42,#43,#44,#45));
#32=CONICAL_SURFACE('',#161,19.2519237886466,30.);
#33=CONICAL_SURFACE('',#170,21.0999999999999,2.86240522611174);
#34=CYLINDRICAL_SURFACE('',#157,4.00000000000004);
#35=CYLINDRICAL_SURFACE('',#163,21.8499999999999);
#36=CYLINDRICAL_SURFACE('',#167,19.8999999999999);
#37=ADVANCED_FACE('',(#50,#51),#46,.T.);
#38=ADVANCED_FACE('',(#52,#53),#34,.F.);
#39=ADVANCED_FACE('',(#54,#55),#47,.T.);
#40=ADVANCED_FACE('',(#56,#57),#32,.T.);
#41=ADVANCED_FACE('',(#58,#59),#35,.T.);
#42=ADVANCED_FACE('',(#60,#61),#48,.T.);
#43=ADVANCED_FACE('',(#62,#63),#36,.T.);
#44=ADVANCED_FACE('',(#64,#65),#49,.T.);
#45=ADVANCED_FACE('',(#66,#67),#33,.T.);
#46=PLANE('',#155);
#47=PLANE('',#159);
#48=PLANE('',#165);
#49=PLANE('',#169);
#50=FACE_BOUND('',#68,.T.);
#51=FACE_BOUND('',#69,.T.);
#52=FACE_BOUND('',#70,.T.);
#53=FACE_BOUND('',#71,.T.);
#54=FACE_BOUND('',#72,.T.);
#55=FACE_BOUND('',#73,.T.);
#56=FACE_BOUND('',#74,.T.);
#57=FACE_BOUND('',#75,.T.);
#58=FACE_BOUND('',#76,.T.);
#59=FACE_BOUND('',#77,.T.);
#60=FACE_BOUND('',#78,.T.);
#61=FACE_BOUND('',#79,.T.);
#62=FACE_BOUND('',#80,.T.);
#63=FACE_BOUND('',#81,.T.);
#64=FACE_BOUND('',#82,.T.);
#65=FACE_BOUND('',#83,.T.);
#66=FACE_BOUND('',#84,.T.);
#67=FACE_BOUND('',#85,.T.);
#68=EDGE_LOOP('',(#86));
#69=EDGE_LOOP('',(#87));
#70=EDGE_LOOP('',(#88));
#71=EDGE_LOOP('',(#89));
#72=EDGE_LOOP('',(#90));
#73=EDGE_LOOP('',(#91));
#74=EDGE_LOOP('',(#92));
#75=EDGE_LOOP('',(#93));
#76=EDGE_LOOP('',(#94));
#77=EDGE_LOOP('',(#95));
#78=EDGE_LOOP('',(#96));
#79=EDGE_LOOP('',(#97));
#80=EDGE_LOOP('',(#98));
#81=EDGE_LOOP('',(#99));
#82=EDGE_LOOP('',(#100));
#83=EDGE_LOOP('',(#101));
#84=EDGE_LOOP('',(#102));
#85=EDGE_LOOP('',(#103));
#86=ORIENTED_EDGE('',*,*,#113,.T.);
#87=ORIENTED_EDGE('',*,*,#114,.F.);
#88=ORIENTED_EDGE('',*,*,#115,.T.);
#89=ORIENTED_EDGE('',*,*,#113,.F.);
#90=ORIENTED_EDGE('',*,*,#116,.T.);
#91=ORIENTED_EDGE('',*,*,#115,.F.);
#92=ORIENTED_EDGE('',*,*,#117,.T.);
#93=ORIENTED_EDGE('',*,*,#116,.F.);
#94=ORIENTED_EDGE('',*,*,#118,.T.);
#95=ORIENTED_EDGE('',*,*,#117,.F.);
#96=ORIENTED_EDGE('',*,*,#119,.T.);
#97=ORIENTED_EDGE('',*,*,#118,.F.);
#98=ORIENTED_EDGE('',*,*,#120,.T.);
#99=ORIENTED_EDGE('',*,*,#119,.F.);
#100=ORIENTED_EDGE('',*,*,#121,.T.);
#101=ORIENTED_EDGE('',*,*,#120,.F.);
#102=ORIENTED_EDGE('',*,*,#114,.T.);
#103=ORIENTED_EDGE('',*,*,#121,.F.);
#104=VERTEX_POINT('',#220);
#105=VERTEX_POINT('',#222);
#106=VERTEX_POINT('',#225);
#107=VERTEX_POINT('',#228);
#108=VERTEX_POINT('',#231);
#109=VERTEX_POINT('',#234);
#110=VERTEX_POINT('',#237);
#111=VERTEX_POINT('',#240);
#112=VERTEX_POINT('',#243);
#113=EDGE_CURVE('',#104,#104,#122,.T.);
#114=EDGE_CURVE('',#105,#105,#123,.T.);
#115=EDGE_CURVE('',#106,#106,#124,.T.);
#116=EDGE_CURVE('',#107,#107,#125,.T.);
#117=EDGE_CURVE('',#108,#108,#126,.T.);
#118=EDGE_CURVE('',#109,#109,#127,.T.);
#119=EDGE_CURVE('',#110,#110,#128,.T.);
#120=EDGE_CURVE('',#111,#111,#129,.T.);
#121=EDGE_CURVE('',#112,#112,#130,.T.);
#122=CIRCLE('',#153,4.00000000000007);
#123=CIRCLE('',#154,18.4999999999999);
#124=CIRCLE('',#156,4.00000000000001);
#125=CIRCLE('',#158,19.2519237886466);
#126=CIRCLE('',#160,21.8499999999999);
#127=CIRCLE('',#162,21.8499999999999);
#128=CIRCLE('',#164,19.8999999999999);
#129=CIRCLE('',#166,19.8999999999999);
#130=CIRCLE('',#168,21.0999999999999);
#131=PRESENTATION_LAYER_ASSIGNMENT('1','Layer 1',(#150,#151,#152));
#132=PRESENTATION_LAYER_ASSIGNMENT('4','Layer 4',(#30));
#133=STYLED_ITEM('',(#137),#150);
#134=STYLED_ITEM('',(#138),#151);
#135=STYLED_ITEM('',(#139),#152);
#136=STYLED_ITEM('',(#140),#30);
#137=PRESENTATION_STYLE_ASSIGNMENT((#141));
#138=PRESENTATION_STYLE_ASSIGNMENT((#142));
#139=PRESENTATION_STYLE_ASSIGNMENT((#143));
#140=PRESENTATION_STYLE_ASSIGNMENT((#25));
#141=CURVE_STYLE('',#146,POSITIVE_LENGTH_MEASURE(0.18),#144);
#142=CURVE_STYLE('',#147,POSITIVE_LENGTH_MEASURE(0.18),#144);
#143=CURVE_STYLE('',#148,POSITIVE_LENGTH_MEASURE(0.18),#144);
#144=COLOUR_RGB('Strong Stone',0.576470588235294,0.54508278019379,0.392156862745098);
#145=COLOUR_RGB('Iron Gray',0.298023956664378,0.298023956664378,0.298023956664378);
#146=DRAUGHTING_PRE_DEFINED_CURVE_FONT('continuous');
#147=DRAUGHTING_PRE_DEFINED_CURVE_FONT('continuous');
#148=DRAUGHTING_PRE_DEFINED_CURVE_FONT('continuous');
#149=AXIS2_PLACEMENT_3D('',#215,#171,#172);
#150=AXIS2_PLACEMENT_3D('MCS',#216,#173,#174);
#151=AXIS2_PLACEMENT_3D('PCS',#217,#175,#176);
#152=AXIS2_PLACEMENT_3D('CSW',#218,#177,#178);
#153=AXIS2_PLACEMENT_3D('',#219,#179,#180);
#154=AXIS2_PLACEMENT_3D('',#221,#181,#182);
#155=AXIS2_PLACEMENT_3D('',#223,#183,#184);
#156=AXIS2_PLACEMENT_3D('',#224,#185,#186);
#157=AXIS2_PLACEMENT_3D('',#226,#187,#188);
#158=AXIS2_PLACEMENT_3D('',#227,#189,#190);
#159=AXIS2_PLACEMENT_3D('',#229,#191,#192);
#160=AXIS2_PLACEMENT_3D('',#230,#193,#194);
#161=AXIS2_PLACEMENT_3D('',#232,#195,#196);
#162=AXIS2_PLACEMENT_3D('',#233,#197,#198);
#163=AXIS2_PLACEMENT_3D('',#235,#199,#200);
#164=AXIS2_PLACEMENT_3D('',#236,#201,#202);
#165=AXIS2_PLACEMENT_3D('',#238,#203,#204);
#166=AXIS2_PLACEMENT_3D('',#239,#205,#206);
#167=AXIS2_PLACEMENT_3D('',#241,#207,#208);
#168=AXIS2_PLACEMENT_3D('',#242,#209,#210);
#169=AXIS2_PLACEMENT_3D('',#244,#211,#212);
#170=AXIS2_PLACEMENT_3D('',#245,#213,#214);
#171=DIRECTION('',(0.,0.,1.));
#172=DIRECTION('',(1.,0.,0.));
#173=DIRECTION('',(0.,0.,1.));
#174=DIRECTION('',(1.,0.,0.));
#175=DIRECTION('',(0.,0.,1.));
#176=DIRECTION('',(1.,0.,0.));
#177=DIRECTION('',(0.,0.,1.));
#178=DIRECTION('',(1.,0.,0.));
#179=DIRECTION('',(0.,0.,-1.));
#180=DIRECTION('',(-1.,0.,0.));
#181=DIRECTION('',(0.,0.,-1.));
#182=DIRECTION('',(-1.,0.,0.));
#183=DIRECTION('',(0.,0.,1.));
#184=DIRECTION('',(-1.,0.,0.));
#185=DIRECTION('',(0.,0.,-1.));
#186=DIRECTION('',(-1.,0.,0.));
#187=DIRECTION('',(0.,0.,-1.));
#188=DIRECTION('',(1.,0.,0.));
#189=DIRECTION('',(0.,0.,-1.));
#190=DIRECTION('',(-1.,0.,0.));
#191=DIRECTION('',(0.,0.,-1.));
#192=DIRECTION('',(1.,0.,0.));
#193=DIRECTION('',(0.,0.,-1.));
#194=DIRECTION('',(-1.,0.,0.));
#195=DIRECTION('',(0.,0.,1.));
#196=DIRECTION('',(-1.,0.,-1.74460318422596E-17));
#197=DIRECTION('',(0.,0.,-1.));
#198=DIRECTION('',(-1.,0.,0.));
#199=DIRECTION('',(0.,0.,-1.));
#200=DIRECTION('',(1.,0.,0.));
#201=DIRECTION('',(0.,0.,-1.));
#202=DIRECTION('',(-1.,0.,0.));
#203=DIRECTION('',(0.,0.,1.));
#204=DIRECTION('',(-1.,0.,0.));
#205=DIRECTION('',(0.,0.,-1.));
#206=DIRECTION('',(-1.,0.,0.));
#207=DIRECTION('',(0.,0.,-1.));
#208=DIRECTION('',(1.,0.,0.));
#209=DIRECTION('',(0.,0.,-1.));
#210=DIRECTION('',(-1.,0.,0.));
#211=DIRECTION('',(0.,0.,-1.));
#212=DIRECTION('',(1.,0.,0.));
#213=DIRECTION('',(0.,0.,-1.));
#214=DIRECTION('',(1.,0.,1.51269838974068E-15));
#215=CARTESIAN_POINT('',(0.,0.,0.));
#216=CARTESIAN_POINT('',(0.,0.,0.));
#217=CARTESIAN_POINT('',(0.,0.,47.));
#218=CARTESIAN_POINT('',(0.,0.,-13.));
#219=CARTESIAN_POINT('',(0.,0.,47.));
#220=CARTESIAN_POINT('',(-4.00000000000007,0.,47.));
#221=CARTESIAN_POINT('',(0.,0.,47.));
#222=CARTESIAN_POINT('',(-18.4999999999999,0.,47.));
#223=CARTESIAN_POINT('',(0.,18.4999999999999,47.));
#224=CARTESIAN_POINT('',(0.,0.,-13.));
#225=CARTESIAN_POINT('',(-4.00000000000001,0.,-13.));
#226=CARTESIAN_POINT('',(0.,0.,50.3303777883811));
#227=CARTESIAN_POINT('',(0.,0.,-13.));
#228=CARTESIAN_POINT('',(-19.2519237886466,0.,-13.));
#229=CARTESIAN_POINT('',(0.,4.00000000000001,-13.));
#230=CARTESIAN_POINT('',(0.,0.,-8.5));
#231=CARTESIAN_POINT('',(-21.8499999999999,0.,-8.5));
#232=CARTESIAN_POINT('',(0.,0.,-13.));
#233=CARTESIAN_POINT('',(0.,0.,-7.));
#234=CARTESIAN_POINT('',(-21.8499999999999,0.,-7.));
#235=CARTESIAN_POINT('',(0.,0.,50.3303777883811));
#236=CARTESIAN_POINT('',(0.,0.,-7.));
#237=CARTESIAN_POINT('',(-19.8999999999999,0.,-7.));
#238=CARTESIAN_POINT('',(0.,21.8499999999999,-7.));
#239=CARTESIAN_POINT('',(0.,0.,-5.));
#240=CARTESIAN_POINT('',(-19.8999999999999,0.,-5.));
#241=CARTESIAN_POINT('',(0.,0.,50.3303777883811));
#242=CARTESIAN_POINT('',(0.,0.,-5.));
#243=CARTESIAN_POINT('',(-21.0999999999999,0.,-5.));
#244=CARTESIAN_POINT('',(0.,19.8999999999999,-5.));
#245=CARTESIAN_POINT('',(0.,0.,-5.));
#246=MECHANICAL_DESIGN_GEOMETRIC_PRESENTATION_REPRESENTATION('',(#133,#134,
#135,#136),#247);
#247=(
GEOMETRIC_REPRESENTATION_CONTEXT(3)
GLOBAL_UNCERTAINTY_ASSIGNED_CONTEXT((#248))
GLOBAL_UNIT_ASSIGNED_CONTEXT((#254,#250,#249))
REPRESENTATION_CONTEXT('5883B103208','TOP_LEVEL_ASSEMBLY_PART')
);
#248=UNCERTAINTY_MEASURE_WITH_UNIT(LENGTH_MEASURE(2.E-5),#254,
'DISTANCE_ACCURACY_VALUE','Maximum Tolerance applied to model');
#249=(
NAMED_UNIT(*)
SI_UNIT($,.STERADIAN.)
SOLID_ANGLE_UNIT()
);
#250=(
CONVERSION_BASED_UNIT('DEGREE',#252)
NAMED_UNIT(#251)
PLANE_ANGLE_UNIT()
);
#251=DIMENSIONAL_EXPONENTS(0.,0.,0.,0.,0.,0.,0.);
#252=PLANE_ANGLE_MEASURE_WITH_UNIT(PLANE_ANGLE_MEASURE(0.0174532925),#253);
#253=(
NAMED_UNIT(*)
PLANE_ANGLE_UNIT()
SI_UNIT($,.RADIAN.)
);
#254=(
LENGTH_UNIT()
NAMED_UNIT(*)
SI_UNIT(.MILLI.,.METRE.)
);
ENDSEC;
END-ISO-10303-21;
