ISO-10303-21;
HEADER;
/* Generated by software containing ST-Developer
 * from STEP Tools, Inc. (www.steptools.com) 
 */

FILE_DESCRIPTION(
/* description */ (''),
/* implementation_level */ '2;1');

FILE_NAME(
/* name */ 
'Z:\\Working_dir_inventor\\Inventor\\Mourat_Presse\\10484001.stp',
/* time_stamp */ '2016-04-24T22:53:55+02:00',
/* author */ ('Admin'),
/* organization */ (''),
/* preprocessor_version */ 'ST-DEVELOPER v15.6',
/* originating_system */ 'Autodesk Inventor 2015',
/* authorisation */ '');

FILE_SCHEMA (('AUTOMOTIVE_DESIGN { 1 0 10303 214 3 1 1 }'));
ENDSEC;

DATA;
#10=MECHANICAL_DESIGN_GEOMETRIC_PRESENTATION_REPRESENTATION('',(#14,#15),
#650);
#11=SHAPE_REPRESENTATION_RELATIONSHIP('SRR','None',#659,#12);
#12=ADVANCED_BREP_SHAPE_REPRESENTATION($,(#13),#649);
#13=MANIFOLD_SOLID_BREP('Volumenk\X\F6rper3',#364);
#14=STYLED_ITEM('',(#670),#356);
#15=STYLED_ITEM('',(#669),#13);
#16=TOROIDAL_SURFACE('',#384,8.05662432702593,0.5);
#17=TOROIDAL_SURFACE('',#404,8.,1.);
#18=TOROIDAL_SURFACE('',#408,8.,1.);
#19=TOROIDAL_SURFACE('',#409,8.5,0.25);
#20=FACE_BOUND('',#125,.T.);
#21=FACE_BOUND('',#127,.T.);
#22=FACE_BOUND('',#129,.T.);
#23=FACE_BOUND('',#131,.T.);
#24=FACE_BOUND('',#133,.T.);
#25=FACE_BOUND('',#135,.T.);
#26=FACE_BOUND('',#137,.T.);
#27=FACE_BOUND('',#139,.T.);
#28=FACE_BOUND('',#141,.T.);
#29=FACE_BOUND('',#143,.T.);
#30=FACE_BOUND('',#145,.T.);
#31=FACE_BOUND('',#147,.T.);
#32=FACE_BOUND('',#149,.T.);
#33=FACE_BOUND('',#151,.T.);
#34=FACE_BOUND('',#153,.T.);
#35=FACE_BOUND('',#155,.T.);
#36=FACE_BOUND('',#157,.T.);
#37=FACE_BOUND('',#159,.T.);
#38=FACE_BOUND('',#161,.T.);
#39=FACE_BOUND('',#163,.T.);
#40=FACE_BOUND('',#165,.T.);
#41=FACE_BOUND('',#167,.T.);
#42=FACE_BOUND('',#169,.T.);
#43=FACE_BOUND('',#172,.T.);
#44=FACE_BOUND('',#174,.T.);
#45=CONICAL_SURFACE('',#371,9.25,45.);
#46=CONICAL_SURFACE('',#374,8.25,45.);
#47=CONICAL_SURFACE('',#382,8.99481851445907,30.0000000000002);
#48=CONICAL_SURFACE('',#394,3.64433756729741,30.0000000000002);
#49=CONICAL_SURFACE('',#398,7.25,44.9999999999999);
#50=CONICAL_SURFACE('',#402,7.75,59.9999999999999);
#51=CONICAL_SURFACE('',#413,8.375,29.9999999999998);
#52=CONICAL_SURFACE('',#422,8.25,75.0000000000001);
#53=CIRCLE('',#369,11.5);
#54=CIRCLE('',#370,11.5);
#55=CIRCLE('',#372,7.);
#56=CIRCLE('',#373,11.5);
#57=CIRCLE('',#375,8.);
#58=CIRCLE('',#376,8.5);
#59=CIRCLE('',#378,8.5);
#60=CIRCLE('',#380,9.5);
#61=CIRCLE('',#381,9.5);
#62=CIRCLE('',#383,8.48963702891815);
#63=CIRCLE('',#385,8.05662432702593);
#64=CIRCLE('',#387,4.5);
#65=CIRCLE('',#389,4.5);
#66=CIRCLE('',#391,3.5);
#67=CIRCLE('',#393,3.5);
#68=CIRCLE('',#395,3.78867513459481);
#69=CIRCLE('',#397,6.5);
#70=CIRCLE('',#399,8.);
#71=CIRCLE('',#401,8.);
#72=CIRCLE('',#403,7.5);
#73=CIRCLE('',#405,7.);
#74=CIRCLE('',#407,7.);
#75=CIRCLE('',#410,8.5);
#76=CIRCLE('',#412,8.5);
#77=CIRCLE('',#414,8.24999999999999);
#78=CIRCLE('',#416,8.24999999999999);
#79=CIRCLE('',#418,11.5);
#80=CIRCLE('',#421,7.);
#81=CYLINDRICAL_SURFACE('',#368,11.5);
#82=CYLINDRICAL_SURFACE('',#377,8.5);
#83=CYLINDRICAL_SURFACE('',#379,9.5);
#84=CYLINDRICAL_SURFACE('',#388,4.5);
#85=CYLINDRICAL_SURFACE('',#392,3.5);
#86=CYLINDRICAL_SURFACE('',#400,8.);
#87=CYLINDRICAL_SURFACE('',#406,7.);
#88=CYLINDRICAL_SURFACE('',#411,8.5);
#89=CYLINDRICAL_SURFACE('',#415,8.24999999999999);
#90=CYLINDRICAL_SURFACE('',#419,11.5);
#91=CYLINDRICAL_SURFACE('',#420,7.);
#92=FACE_OUTER_BOUND('',#121,.T.);
#93=FACE_OUTER_BOUND('',#122,.T.);
#94=FACE_OUTER_BOUND('',#123,.T.);
#95=FACE_OUTER_BOUND('',#124,.T.);
#96=FACE_OUTER_BOUND('',#126,.T.);
#97=FACE_OUTER_BOUND('',#128,.T.);
#98=FACE_OUTER_BOUND('',#130,.T.);
#99=FACE_OUTER_BOUND('',#132,.T.);
#100=FACE_OUTER_BOUND('',#134,.T.);
#101=FACE_OUTER_BOUND('',#136,.T.);
#102=FACE_OUTER_BOUND('',#138,.T.);
#103=FACE_OUTER_BOUND('',#140,.T.);
#104=FACE_OUTER_BOUND('',#142,.T.);
#105=FACE_OUTER_BOUND('',#144,.T.);
#106=FACE_OUTER_BOUND('',#146,.T.);
#107=FACE_OUTER_BOUND('',#148,.T.);
#108=FACE_OUTER_BOUND('',#150,.T.);
#109=FACE_OUTER_BOUND('',#152,.T.);
#110=FACE_OUTER_BOUND('',#154,.T.);
#111=FACE_OUTER_BOUND('',#156,.T.);
#112=FACE_OUTER_BOUND('',#158,.T.);
#113=FACE_OUTER_BOUND('',#160,.T.);
#114=FACE_OUTER_BOUND('',#162,.T.);
#115=FACE_OUTER_BOUND('',#164,.T.);
#116=FACE_OUTER_BOUND('',#166,.T.);
#117=FACE_OUTER_BOUND('',#168,.T.);
#118=FACE_OUTER_BOUND('',#170,.T.);
#119=FACE_OUTER_BOUND('',#171,.T.);
#120=FACE_OUTER_BOUND('',#173,.T.);
#121=EDGE_LOOP('',(#257,#258,#259,#260));
#122=EDGE_LOOP('',(#261,#262,#263,#264));
#123=EDGE_LOOP('',(#265,#266,#267,#268));
#124=EDGE_LOOP('',(#269));
#125=EDGE_LOOP('',(#270,#271,#272,#273));
#126=EDGE_LOOP('',(#274));
#127=EDGE_LOOP('',(#275));
#128=EDGE_LOOP('',(#276));
#129=EDGE_LOOP('',(#277));
#130=EDGE_LOOP('',(#278));
#131=EDGE_LOOP('',(#279));
#132=EDGE_LOOP('',(#280));
#133=EDGE_LOOP('',(#281));
#134=EDGE_LOOP('',(#282));
#135=EDGE_LOOP('',(#283));
#136=EDGE_LOOP('',(#284));
#137=EDGE_LOOP('',(#285));
#138=EDGE_LOOP('',(#286));
#139=EDGE_LOOP('',(#287));
#140=EDGE_LOOP('',(#288));
#141=EDGE_LOOP('',(#289));
#142=EDGE_LOOP('',(#290));
#143=EDGE_LOOP('',(#291));
#144=EDGE_LOOP('',(#292));
#145=EDGE_LOOP('',(#293));
#146=EDGE_LOOP('',(#294));
#147=EDGE_LOOP('',(#295));
#148=EDGE_LOOP('',(#296));
#149=EDGE_LOOP('',(#297));
#150=EDGE_LOOP('',(#298));
#151=EDGE_LOOP('',(#299));
#152=EDGE_LOOP('',(#300));
#153=EDGE_LOOP('',(#301));
#154=EDGE_LOOP('',(#302));
#155=EDGE_LOOP('',(#303));
#156=EDGE_LOOP('',(#304));
#157=EDGE_LOOP('',(#305));
#158=EDGE_LOOP('',(#306));
#159=EDGE_LOOP('',(#307));
#160=EDGE_LOOP('',(#308));
#161=EDGE_LOOP('',(#309));
#162=EDGE_LOOP('',(#310));
#163=EDGE_LOOP('',(#311));
#164=EDGE_LOOP('',(#312));
#165=EDGE_LOOP('',(#313));
#166=EDGE_LOOP('',(#314));
#167=EDGE_LOOP('',(#315));
#168=EDGE_LOOP('',(#316,#317,#318,#319));
#169=EDGE_LOOP('',(#320));
#170=EDGE_LOOP('',(#321,#322,#323,#324));
#171=EDGE_LOOP('',(#325));
#172=EDGE_LOOP('',(#326));
#173=EDGE_LOOP('',(#327));
#174=EDGE_LOOP('',(#328));
#175=LINE('',#553,#181);
#176=LINE('',#555,#182);
#177=LINE('',#556,#183);
#178=LINE('',#564,#184);
#179=LINE('',#566,#185);
#180=LINE('',#567,#186);
#181=VECTOR('',#427,4.);
#182=VECTOR('',#428,12.9614813968157);
#183=VECTOR('',#429,4.);
#184=VECTOR('',#432,4.);
#185=VECTOR('',#433,12.9614813968157);
#186=VECTOR('',#434,4.);
#187=(
BOUNDED_CURVE()
B_SPLINE_CURVE(2,(#549,#550,#551),.UNSPECIFIED.,.F.,.F.)
B_SPLINE_CURVE_WITH_KNOTS((3,3),(0.,1.35646599662506),.UNSPECIFIED.)
CURVE()
GEOMETRIC_REPRESENTATION_ITEM()
RATIONAL_B_SPLINE_CURVE((1.,1.21052631578947,1.))
REPRESENTATION_ITEM('')
);
#188=(
BOUNDED_CURVE()
B_SPLINE_CURVE(2,(#560,#561,#562),.UNSPECIFIED.,.F.,.F.)
B_SPLINE_CURVE_WITH_KNOTS((3,3),(0.,1.35646599662506),.UNSPECIFIED.)
CURVE()
GEOMETRIC_REPRESENTATION_ITEM()
RATIONAL_B_SPLINE_CURVE((1.,1.21052631578947,1.))
REPRESENTATION_ITEM('')
);
#189=VERTEX_POINT('',#547);
#190=VERTEX_POINT('',#548);
#191=VERTEX_POINT('',#552);
#192=VERTEX_POINT('',#554);
#193=VERTEX_POINT('',#558);
#194=VERTEX_POINT('',#559);
#195=VERTEX_POINT('',#563);
#196=VERTEX_POINT('',#565);
#197=VERTEX_POINT('',#572);
#198=VERTEX_POINT('',#576);
#199=VERTEX_POINT('',#578);
#200=VERTEX_POINT('',#581);
#201=VERTEX_POINT('',#584);
#202=VERTEX_POINT('',#586);
#203=VERTEX_POINT('',#589);
#204=VERTEX_POINT('',#592);
#205=VERTEX_POINT('',#595);
#206=VERTEX_POINT('',#598);
#207=VERTEX_POINT('',#601);
#208=VERTEX_POINT('',#604);
#209=VERTEX_POINT('',#607);
#210=VERTEX_POINT('',#610);
#211=VERTEX_POINT('',#613);
#212=VERTEX_POINT('',#616);
#213=VERTEX_POINT('',#619);
#214=VERTEX_POINT('',#622);
#215=VERTEX_POINT('',#625);
#216=VERTEX_POINT('',#629);
#217=VERTEX_POINT('',#632);
#218=VERTEX_POINT('',#635);
#219=VERTEX_POINT('',#638);
#220=VERTEX_POINT('',#644);
#221=EDGE_CURVE('',#189,#190,#187,.T.);
#222=EDGE_CURVE('',#191,#189,#175,.T.);
#223=EDGE_CURVE('',#192,#191,#176,.T.);
#224=EDGE_CURVE('',#190,#192,#177,.T.);
#225=EDGE_CURVE('',#193,#194,#188,.T.);
#226=EDGE_CURVE('',#195,#193,#178,.T.);
#227=EDGE_CURVE('',#196,#195,#179,.T.);
#228=EDGE_CURVE('',#194,#196,#180,.T.);
#229=EDGE_CURVE('',#192,#195,#53,.T.);
#230=EDGE_CURVE('',#190,#193,#54,.T.);
#231=EDGE_CURVE('',#197,#197,#55,.T.);
#232=EDGE_CURVE('',#194,#189,#56,.T.);
#233=EDGE_CURVE('',#198,#198,#57,.T.);
#234=EDGE_CURVE('',#199,#199,#58,.T.);
#235=EDGE_CURVE('',#200,#200,#59,.T.);
#236=EDGE_CURVE('',#201,#201,#60,.T.);
#237=EDGE_CURVE('',#202,#202,#61,.T.);
#238=EDGE_CURVE('',#203,#203,#62,.T.);
#239=EDGE_CURVE('',#204,#204,#63,.T.);
#240=EDGE_CURVE('',#205,#205,#64,.T.);
#241=EDGE_CURVE('',#206,#206,#65,.T.);
#242=EDGE_CURVE('',#207,#207,#66,.T.);
#243=EDGE_CURVE('',#208,#208,#67,.T.);
#244=EDGE_CURVE('',#209,#209,#68,.T.);
#245=EDGE_CURVE('',#210,#210,#69,.T.);
#246=EDGE_CURVE('',#211,#211,#70,.T.);
#247=EDGE_CURVE('',#212,#212,#71,.T.);
#248=EDGE_CURVE('',#213,#213,#72,.T.);
#249=EDGE_CURVE('',#214,#214,#73,.T.);
#250=EDGE_CURVE('',#215,#215,#74,.T.);
#251=EDGE_CURVE('',#216,#216,#75,.T.);
#252=EDGE_CURVE('',#217,#217,#76,.T.);
#253=EDGE_CURVE('',#218,#218,#77,.T.);
#254=EDGE_CURVE('',#219,#219,#78,.T.);
#255=EDGE_CURVE('',#196,#191,#79,.T.);
#256=EDGE_CURVE('',#220,#220,#80,.T.);
#257=ORIENTED_EDGE('',*,*,#221,.F.);
#258=ORIENTED_EDGE('',*,*,#222,.F.);
#259=ORIENTED_EDGE('',*,*,#223,.F.);
#260=ORIENTED_EDGE('',*,*,#224,.F.);
#261=ORIENTED_EDGE('',*,*,#225,.F.);
#262=ORIENTED_EDGE('',*,*,#226,.F.);
#263=ORIENTED_EDGE('',*,*,#227,.F.);
#264=ORIENTED_EDGE('',*,*,#228,.F.);
#265=ORIENTED_EDGE('',*,*,#224,.T.);
#266=ORIENTED_EDGE('',*,*,#229,.T.);
#267=ORIENTED_EDGE('',*,*,#226,.T.);
#268=ORIENTED_EDGE('',*,*,#230,.F.);
#269=ORIENTED_EDGE('',*,*,#231,.F.);
#270=ORIENTED_EDGE('',*,*,#221,.T.);
#271=ORIENTED_EDGE('',*,*,#230,.T.);
#272=ORIENTED_EDGE('',*,*,#225,.T.);
#273=ORIENTED_EDGE('',*,*,#232,.T.);
#274=ORIENTED_EDGE('',*,*,#233,.T.);
#275=ORIENTED_EDGE('',*,*,#234,.T.);
#276=ORIENTED_EDGE('',*,*,#235,.F.);
#277=ORIENTED_EDGE('',*,*,#234,.F.);
#278=ORIENTED_EDGE('',*,*,#236,.T.);
#279=ORIENTED_EDGE('',*,*,#237,.F.);
#280=ORIENTED_EDGE('',*,*,#237,.T.);
#281=ORIENTED_EDGE('',*,*,#238,.F.);
#282=ORIENTED_EDGE('',*,*,#238,.T.);
#283=ORIENTED_EDGE('',*,*,#239,.F.);
#284=ORIENTED_EDGE('',*,*,#239,.T.);
#285=ORIENTED_EDGE('',*,*,#240,.F.);
#286=ORIENTED_EDGE('',*,*,#240,.T.);
#287=ORIENTED_EDGE('',*,*,#241,.F.);
#288=ORIENTED_EDGE('',*,*,#241,.T.);
#289=ORIENTED_EDGE('',*,*,#242,.F.);
#290=ORIENTED_EDGE('',*,*,#242,.T.);
#291=ORIENTED_EDGE('',*,*,#243,.F.);
#292=ORIENTED_EDGE('',*,*,#243,.T.);
#293=ORIENTED_EDGE('',*,*,#244,.F.);
#294=ORIENTED_EDGE('',*,*,#245,.F.);
#295=ORIENTED_EDGE('',*,*,#244,.T.);
#296=ORIENTED_EDGE('',*,*,#245,.T.);
#297=ORIENTED_EDGE('',*,*,#246,.F.);
#298=ORIENTED_EDGE('',*,*,#246,.T.);
#299=ORIENTED_EDGE('',*,*,#247,.F.);
#300=ORIENTED_EDGE('',*,*,#247,.T.);
#301=ORIENTED_EDGE('',*,*,#248,.F.);
#302=ORIENTED_EDGE('',*,*,#248,.T.);
#303=ORIENTED_EDGE('',*,*,#249,.F.);
#304=ORIENTED_EDGE('',*,*,#249,.T.);
#305=ORIENTED_EDGE('',*,*,#250,.F.);
#306=ORIENTED_EDGE('',*,*,#250,.T.);
#307=ORIENTED_EDGE('',*,*,#233,.F.);
#308=ORIENTED_EDGE('',*,*,#235,.T.);
#309=ORIENTED_EDGE('',*,*,#251,.F.);
#310=ORIENTED_EDGE('',*,*,#251,.T.);
#311=ORIENTED_EDGE('',*,*,#252,.F.);
#312=ORIENTED_EDGE('',*,*,#252,.T.);
#313=ORIENTED_EDGE('',*,*,#253,.F.);
#314=ORIENTED_EDGE('',*,*,#253,.T.);
#315=ORIENTED_EDGE('',*,*,#254,.F.);
#316=ORIENTED_EDGE('',*,*,#223,.T.);
#317=ORIENTED_EDGE('',*,*,#255,.F.);
#318=ORIENTED_EDGE('',*,*,#227,.T.);
#319=ORIENTED_EDGE('',*,*,#229,.F.);
#320=ORIENTED_EDGE('',*,*,#254,.T.);
#321=ORIENTED_EDGE('',*,*,#222,.T.);
#322=ORIENTED_EDGE('',*,*,#232,.F.);
#323=ORIENTED_EDGE('',*,*,#228,.T.);
#324=ORIENTED_EDGE('',*,*,#255,.T.);
#325=ORIENTED_EDGE('',*,*,#231,.T.);
#326=ORIENTED_EDGE('',*,*,#256,.F.);
#327=ORIENTED_EDGE('',*,*,#256,.T.);
#328=ORIENTED_EDGE('',*,*,#236,.F.);
#329=PLANE('',#366);
#330=PLANE('',#367);
#331=PLANE('',#386);
#332=PLANE('',#390);
#333=PLANE('',#396);
#334=PLANE('',#417);
#335=ADVANCED_FACE('',(#92),#329,.T.);
#336=ADVANCED_FACE('',(#93),#330,.T.);
#337=ADVANCED_FACE('',(#94),#81,.T.);
#338=ADVANCED_FACE('',(#95,#20),#45,.T.);
#339=ADVANCED_FACE('',(#96,#21),#46,.T.);
#340=ADVANCED_FACE('',(#97,#22),#82,.T.);
#341=ADVANCED_FACE('',(#98,#23),#83,.T.);
#342=ADVANCED_FACE('',(#99,#24),#47,.T.);
#343=ADVANCED_FACE('',(#100,#25),#16,.T.);
#344=ADVANCED_FACE('',(#101,#26),#331,.T.);
#345=ADVANCED_FACE('',(#102,#27),#84,.F.);
#346=ADVANCED_FACE('',(#103,#28),#332,.T.);
#347=ADVANCED_FACE('',(#104,#29),#85,.F.);
#348=ADVANCED_FACE('',(#105,#30),#48,.F.);
#349=ADVANCED_FACE('',(#106,#31),#333,.T.);
#350=ADVANCED_FACE('',(#107,#32),#49,.T.);
#351=ADVANCED_FACE('',(#108,#33),#86,.T.);
#352=ADVANCED_FACE('',(#109,#34),#50,.T.);
#353=ADVANCED_FACE('',(#110,#35),#17,.F.);
#354=ADVANCED_FACE('',(#111,#36),#87,.T.);
#355=ADVANCED_FACE('',(#112,#37),#18,.F.);
#356=ADVANCED_FACE('',(#113,#38),#19,.T.);
#357=ADVANCED_FACE('',(#114,#39),#88,.T.);
#358=ADVANCED_FACE('',(#115,#40),#51,.T.);
#359=ADVANCED_FACE('',(#116,#41),#89,.T.);
#360=ADVANCED_FACE('',(#117,#42),#334,.T.);
#361=ADVANCED_FACE('',(#118),#90,.T.);
#362=ADVANCED_FACE('',(#119,#43),#91,.T.);
#363=ADVANCED_FACE('',(#120,#44),#52,.T.);
#364=CLOSED_SHELL('',(#335,#336,#337,#338,#339,#340,#341,#342,#343,#344,
#345,#346,#347,#348,#349,#350,#351,#352,#353,#354,#355,#356,#357,#358,#359,
#360,#361,#362,#363));
#365=AXIS2_PLACEMENT_3D('placement',#545,#423,#424);
#366=AXIS2_PLACEMENT_3D('',#546,#425,#426);
#367=AXIS2_PLACEMENT_3D('',#557,#430,#431);
#368=AXIS2_PLACEMENT_3D('',#568,#435,#436);
#369=AXIS2_PLACEMENT_3D('',#569,#437,#438);
#370=AXIS2_PLACEMENT_3D('',#570,#439,#440);
#371=AXIS2_PLACEMENT_3D('',#571,#441,#442);
#372=AXIS2_PLACEMENT_3D('',#573,#443,#444);
#373=AXIS2_PLACEMENT_3D('',#574,#445,#446);
#374=AXIS2_PLACEMENT_3D('',#575,#447,#448);
#375=AXIS2_PLACEMENT_3D('',#577,#449,#450);
#376=AXIS2_PLACEMENT_3D('',#579,#451,#452);
#377=AXIS2_PLACEMENT_3D('',#580,#453,#454);
#378=AXIS2_PLACEMENT_3D('',#582,#455,#456);
#379=AXIS2_PLACEMENT_3D('',#583,#457,#458);
#380=AXIS2_PLACEMENT_3D('',#585,#459,#460);
#381=AXIS2_PLACEMENT_3D('',#587,#461,#462);
#382=AXIS2_PLACEMENT_3D('',#588,#463,#464);
#383=AXIS2_PLACEMENT_3D('',#590,#465,#466);
#384=AXIS2_PLACEMENT_3D('',#591,#467,#468);
#385=AXIS2_PLACEMENT_3D('',#593,#469,#470);
#386=AXIS2_PLACEMENT_3D('',#594,#471,#472);
#387=AXIS2_PLACEMENT_3D('',#596,#473,#474);
#388=AXIS2_PLACEMENT_3D('',#597,#475,#476);
#389=AXIS2_PLACEMENT_3D('',#599,#477,#478);
#390=AXIS2_PLACEMENT_3D('',#600,#479,#480);
#391=AXIS2_PLACEMENT_3D('',#602,#481,#482);
#392=AXIS2_PLACEMENT_3D('',#603,#483,#484);
#393=AXIS2_PLACEMENT_3D('',#605,#485,#486);
#394=AXIS2_PLACEMENT_3D('',#606,#487,#488);
#395=AXIS2_PLACEMENT_3D('',#608,#489,#490);
#396=AXIS2_PLACEMENT_3D('',#609,#491,#492);
#397=AXIS2_PLACEMENT_3D('',#611,#493,#494);
#398=AXIS2_PLACEMENT_3D('',#612,#495,#496);
#399=AXIS2_PLACEMENT_3D('',#614,#497,#498);
#400=AXIS2_PLACEMENT_3D('',#615,#499,#500);
#401=AXIS2_PLACEMENT_3D('',#617,#501,#502);
#402=AXIS2_PLACEMENT_3D('',#618,#503,#504);
#403=AXIS2_PLACEMENT_3D('',#620,#505,#506);
#404=AXIS2_PLACEMENT_3D('',#621,#507,#508);
#405=AXIS2_PLACEMENT_3D('',#623,#509,#510);
#406=AXIS2_PLACEMENT_3D('',#624,#511,#512);
#407=AXIS2_PLACEMENT_3D('',#626,#513,#514);
#408=AXIS2_PLACEMENT_3D('',#627,#515,#516);
#409=AXIS2_PLACEMENT_3D('',#628,#517,#518);
#410=AXIS2_PLACEMENT_3D('',#630,#519,#520);
#411=AXIS2_PLACEMENT_3D('',#631,#521,#522);
#412=AXIS2_PLACEMENT_3D('',#633,#523,#524);
#413=AXIS2_PLACEMENT_3D('',#634,#525,#526);
#414=AXIS2_PLACEMENT_3D('',#636,#527,#528);
#415=AXIS2_PLACEMENT_3D('',#637,#529,#530);
#416=AXIS2_PLACEMENT_3D('',#639,#531,#532);
#417=AXIS2_PLACEMENT_3D('',#640,#533,#534);
#418=AXIS2_PLACEMENT_3D('',#641,#535,#536);
#419=AXIS2_PLACEMENT_3D('',#642,#537,#538);
#420=AXIS2_PLACEMENT_3D('',#643,#539,#540);
#421=AXIS2_PLACEMENT_3D('',#645,#541,#542);
#422=AXIS2_PLACEMENT_3D('',#646,#543,#544);
#423=DIRECTION('axis',(0.,0.,1.));
#424=DIRECTION('refdir',(1.,0.,0.));
#425=DIRECTION('center_axis',(0.,0.,1.));
#426=DIRECTION('ref_axis',(0.,1.,0.));
#427=DIRECTION('',(-1.,0.,0.));
#428=DIRECTION('',(0.,-1.,0.));
#429=DIRECTION('',(1.,0.,0.));
#430=DIRECTION('center_axis',(0.,0.,-1.));
#431=DIRECTION('ref_axis',(0.,-1.,0.));
#432=DIRECTION('',(-1.,0.,0.));
#433=DIRECTION('',(0.,1.,0.));
#434=DIRECTION('',(1.,0.,0.));
#435=DIRECTION('center_axis',(-1.,0.,0.));
#436=DIRECTION('ref_axis',(0.,-1.,0.));
#437=DIRECTION('center_axis',(-1.,0.,0.));
#438=DIRECTION('ref_axis',(0.,0.,1.));
#439=DIRECTION('center_axis',(-1.,0.,0.));
#440=DIRECTION('ref_axis',(0.,0.,1.));
#441=DIRECTION('center_axis',(1.,0.,0.));
#442=DIRECTION('ref_axis',(0.,-1.,0.));
#443=DIRECTION('center_axis',(-1.,0.,0.));
#444=DIRECTION('ref_axis',(0.,0.,1.));
#445=DIRECTION('center_axis',(-1.,0.,0.));
#446=DIRECTION('ref_axis',(0.,0.,1.));
#447=DIRECTION('center_axis',(-1.,0.,0.));
#448=DIRECTION('ref_axis',(0.,1.,0.));
#449=DIRECTION('center_axis',(-1.,0.,0.));
#450=DIRECTION('ref_axis',(0.,0.,1.));
#451=DIRECTION('center_axis',(1.,0.,0.));
#452=DIRECTION('ref_axis',(0.,1.,0.));
#453=DIRECTION('center_axis',(-1.,0.,0.));
#454=DIRECTION('ref_axis',(0.,-1.,0.));
#455=DIRECTION('center_axis',(-1.,0.,0.));
#456=DIRECTION('ref_axis',(0.,0.,1.));
#457=DIRECTION('center_axis',(-1.,0.,0.));
#458=DIRECTION('ref_axis',(0.,-1.,0.));
#459=DIRECTION('center_axis',(-1.,0.,0.));
#460=DIRECTION('ref_axis',(0.,0.,1.));
#461=DIRECTION('center_axis',(-1.,0.,0.));
#462=DIRECTION('ref_axis',(0.,0.,1.));
#463=DIRECTION('center_axis',(1.,0.,0.));
#464=DIRECTION('ref_axis',(0.,-1.,0.));
#465=DIRECTION('center_axis',(-1.,0.,0.));
#466=DIRECTION('ref_axis',(0.,0.,1.));
#467=DIRECTION('center_axis',(-1.,0.,0.));
#468=DIRECTION('ref_axis',(0.,0.,1.));
#469=DIRECTION('center_axis',(-1.,0.,0.));
#470=DIRECTION('ref_axis',(0.,0.,1.));
#471=DIRECTION('center_axis',(-1.,0.,0.));
#472=DIRECTION('ref_axis',(0.,0.,1.));
#473=DIRECTION('center_axis',(-1.,0.,0.));
#474=DIRECTION('ref_axis',(0.,0.,1.));
#475=DIRECTION('center_axis',(-1.,0.,0.));
#476=DIRECTION('ref_axis',(0.,-1.,0.));
#477=DIRECTION('center_axis',(-1.,0.,0.));
#478=DIRECTION('ref_axis',(0.,0.,1.));
#479=DIRECTION('center_axis',(-1.,0.,0.));
#480=DIRECTION('ref_axis',(0.,0.,1.));
#481=DIRECTION('center_axis',(-1.,0.,0.));
#482=DIRECTION('ref_axis',(0.,0.,1.));
#483=DIRECTION('center_axis',(-1.,0.,0.));
#484=DIRECTION('ref_axis',(0.,-1.,0.));
#485=DIRECTION('center_axis',(-1.,0.,0.));
#486=DIRECTION('ref_axis',(0.,0.,1.));
#487=DIRECTION('center_axis',(1.,0.,0.));
#488=DIRECTION('ref_axis',(0.,-1.,0.));
#489=DIRECTION('center_axis',(-1.,0.,0.));
#490=DIRECTION('ref_axis',(0.,0.,1.));
#491=DIRECTION('center_axis',(1.,0.,0.));
#492=DIRECTION('ref_axis',(0.,0.,-1.));
#493=DIRECTION('center_axis',(-1.,0.,0.));
#494=DIRECTION('ref_axis',(0.,0.,1.));
#495=DIRECTION('center_axis',(-1.,0.,0.));
#496=DIRECTION('ref_axis',(0.,-1.,0.));
#497=DIRECTION('center_axis',(-1.,0.,0.));
#498=DIRECTION('ref_axis',(0.,0.,1.));
#499=DIRECTION('center_axis',(-1.,0.,0.));
#500=DIRECTION('ref_axis',(0.,-1.,0.));
#501=DIRECTION('center_axis',(-1.,0.,0.));
#502=DIRECTION('ref_axis',(0.,0.,1.));
#503=DIRECTION('center_axis',(1.,0.,0.));
#504=DIRECTION('ref_axis',(0.,-1.,0.));
#505=DIRECTION('center_axis',(-1.,0.,0.));
#506=DIRECTION('ref_axis',(0.,0.,1.));
#507=DIRECTION('center_axis',(-1.,0.,0.));
#508=DIRECTION('ref_axis',(0.,0.,1.));
#509=DIRECTION('center_axis',(-1.,0.,0.));
#510=DIRECTION('ref_axis',(0.,0.,1.));
#511=DIRECTION('center_axis',(-1.,0.,0.));
#512=DIRECTION('ref_axis',(0.,-1.,0.));
#513=DIRECTION('center_axis',(-1.,0.,0.));
#514=DIRECTION('ref_axis',(0.,0.,1.));
#515=DIRECTION('center_axis',(-1.,0.,0.));
#516=DIRECTION('ref_axis',(0.,0.,1.));
#517=DIRECTION('center_axis',(-1.,0.,0.));
#518=DIRECTION('ref_axis',(0.,0.,1.));
#519=DIRECTION('center_axis',(-1.,0.,0.));
#520=DIRECTION('ref_axis',(0.,0.,1.));
#521=DIRECTION('center_axis',(-1.,0.,0.));
#522=DIRECTION('ref_axis',(0.,-1.,0.));
#523=DIRECTION('center_axis',(-1.,0.,0.));
#524=DIRECTION('ref_axis',(0.,0.,1.));
#525=DIRECTION('center_axis',(1.,0.,0.));
#526=DIRECTION('ref_axis',(0.,-1.,0.));
#527=DIRECTION('center_axis',(-1.,0.,0.));
#528=DIRECTION('ref_axis',(0.,0.,1.));
#529=DIRECTION('center_axis',(-1.,0.,0.));
#530=DIRECTION('ref_axis',(0.,-1.,0.));
#531=DIRECTION('center_axis',(-1.,0.,0.));
#532=DIRECTION('ref_axis',(0.,0.,1.));
#533=DIRECTION('center_axis',(1.,0.,0.));
#534=DIRECTION('ref_axis',(0.,0.,-1.));
#535=DIRECTION('center_axis',(-1.,0.,0.));
#536=DIRECTION('ref_axis',(0.,0.,1.));
#537=DIRECTION('center_axis',(-1.,0.,0.));
#538=DIRECTION('ref_axis',(0.,-1.,0.));
#539=DIRECTION('center_axis',(-1.,0.,0.));
#540=DIRECTION('ref_axis',(0.,-1.,0.));
#541=DIRECTION('center_axis',(-1.,0.,0.));
#542=DIRECTION('ref_axis',(0.,0.,1.));
#543=DIRECTION('center_axis',(-1.,0.,0.));
#544=DIRECTION('ref_axis',(0.,-1.,0.));
#545=CARTESIAN_POINT('',(0.,0.,0.));
#546=CARTESIAN_POINT('Origin',(0.,-6.48074069840786,9.5));
#547=CARTESIAN_POINT('',(-4.,-6.48074069840786,9.5));
#548=CARTESIAN_POINT('',(-4.,6.48074069840786,9.5));
#549=CARTESIAN_POINT('Ctrl Pts',(-4.,-6.48074069840787,9.5));
#550=CARTESIAN_POINT('Ctrl Pts',(-7.65217391304348,0.,9.5));
#551=CARTESIAN_POINT('Ctrl Pts',(-4.,6.48074069840787,9.5));
#552=CARTESIAN_POINT('',(0.,-6.48074069840786,9.5));
#553=CARTESIAN_POINT('',(-2.,-6.48074069840786,9.5));
#554=CARTESIAN_POINT('',(0.,6.48074069840786,9.5));
#555=CARTESIAN_POINT('',(0.,-8.99037034920393,9.5));
#556=CARTESIAN_POINT('',(-2.,6.48074069840786,9.5));
#557=CARTESIAN_POINT('Origin',(0.,6.48074069840786,-9.5));
#558=CARTESIAN_POINT('',(-4.,6.48074069840786,-9.5));
#559=CARTESIAN_POINT('',(-4.,-6.48074069840786,-9.5));
#560=CARTESIAN_POINT('Ctrl Pts',(-4.,6.48074069840787,-9.5));
#561=CARTESIAN_POINT('Ctrl Pts',(-7.65217391304348,0.,-9.5));
#562=CARTESIAN_POINT('Ctrl Pts',(-4.,-6.48074069840787,-9.5));
#563=CARTESIAN_POINT('',(0.,6.48074069840786,-9.5));
#564=CARTESIAN_POINT('',(-2.,6.48074069840786,-9.5));
#565=CARTESIAN_POINT('',(0.,-6.48074069840786,-9.5));
#566=CARTESIAN_POINT('',(0.,-2.50962965079607,-9.5));
#567=CARTESIAN_POINT('',(-2.,-6.48074069840786,-9.5));
#568=CARTESIAN_POINT('Origin',(-2.,0.,0.));
#569=CARTESIAN_POINT('Origin',(0.,0.,0.));
#570=CARTESIAN_POINT('Origin',(-4.,0.,0.));
#571=CARTESIAN_POINT('Origin',(-6.25,0.,0.));
#572=CARTESIAN_POINT('',(-8.5,-7.,0.));
#573=CARTESIAN_POINT('Origin',(-8.5,0.,0.));
#574=CARTESIAN_POINT('Origin',(-4.,0.,0.));
#575=CARTESIAN_POINT('Origin',(6.75,0.,0.));
#576=CARTESIAN_POINT('',(7.,-8.,0.));
#577=CARTESIAN_POINT('Origin',(7.,0.,0.));
#578=CARTESIAN_POINT('',(6.5,-8.5,-1.04094977927525E-15));
#579=CARTESIAN_POINT('Origin',(6.5,0.,0.));
#580=CARTESIAN_POINT('Origin',(5.625,0.,0.));
#581=CARTESIAN_POINT('',(4.25,-8.5,0.));
#582=CARTESIAN_POINT('Origin',(4.25,0.,0.));
#583=CARTESIAN_POINT('Origin',(-22.,0.,0.));
#584=CARTESIAN_POINT('',(-20.,-9.5,0.));
#585=CARTESIAN_POINT('Origin',(-20.,0.,0.));
#586=CARTESIAN_POINT('',(-24.,-9.5,0.));
#587=CARTESIAN_POINT('Origin',(-24.,0.,0.));
#588=CARTESIAN_POINT('Origin',(-24.875,0.,0.));
#589=CARTESIAN_POINT('',(-25.75,-8.48963702891815,0.));
#590=CARTESIAN_POINT('Origin',(-25.75,0.,0.));
#591=CARTESIAN_POINT('Origin',(-25.5,0.,0.));
#592=CARTESIAN_POINT('',(-26.,-8.05662432702593,0.));
#593=CARTESIAN_POINT('Origin',(-26.,0.,0.));
#594=CARTESIAN_POINT('Origin',(-26.,-4.5,0.));
#595=CARTESIAN_POINT('',(-26.,-4.5,0.));
#596=CARTESIAN_POINT('Origin',(-26.,0.,0.));
#597=CARTESIAN_POINT('Origin',(-24.05,0.,0.));
#598=CARTESIAN_POINT('',(-22.1,-4.5,0.));
#599=CARTESIAN_POINT('Origin',(-22.1,0.,0.));
#600=CARTESIAN_POINT('Origin',(-22.1,-3.5,0.));
#601=CARTESIAN_POINT('',(-22.1,-3.5,0.));
#602=CARTESIAN_POINT('Origin',(-22.1,0.,0.));
#603=CARTESIAN_POINT('Origin',(1.2,0.,0.));
#604=CARTESIAN_POINT('',(24.5,-3.5,0.));
#605=CARTESIAN_POINT('Origin',(24.5,0.,0.));
#606=CARTESIAN_POINT('Origin',(24.75,0.,0.));
#607=CARTESIAN_POINT('',(25.,-3.78867513459481,0.));
#608=CARTESIAN_POINT('Origin',(25.,0.,0.));
#609=CARTESIAN_POINT('Origin',(25.,-6.5,0.));
#610=CARTESIAN_POINT('',(25.,-6.5,0.));
#611=CARTESIAN_POINT('Origin',(25.,0.,0.));
#612=CARTESIAN_POINT('Origin',(24.25,0.,0.));
#613=CARTESIAN_POINT('',(23.5,-8.,0.));
#614=CARTESIAN_POINT('Origin',(23.5,0.,0.));
#615=CARTESIAN_POINT('Origin',(17.0386751345948,0.,0.));
#616=CARTESIAN_POINT('',(10.5773502691896,-8.,0.));
#617=CARTESIAN_POINT('Origin',(10.5773502691896,0.,0.));
#618=CARTESIAN_POINT('Origin',(10.4330127018922,0.,0.));
#619=CARTESIAN_POINT('',(10.2886751345948,-7.5,0.));
#620=CARTESIAN_POINT('Origin',(10.2886751345948,0.,0.));
#621=CARTESIAN_POINT('Origin',(9.42264973081038,0.,0.));
#622=CARTESIAN_POINT('',(9.42264973081037,-7.,0.));
#623=CARTESIAN_POINT('Origin',(9.42264973081038,0.,0.));
#624=CARTESIAN_POINT('Origin',(8.71132486540519,0.,0.));
#625=CARTESIAN_POINT('',(8.,-7.,0.));
#626=CARTESIAN_POINT('Origin',(8.,0.,0.));
#627=CARTESIAN_POINT('Origin',(8.,0.,0.));
#628=CARTESIAN_POINT('Origin',(4.,0.,0.));
#629=CARTESIAN_POINT('',(3.75,-8.5,0.));
#630=CARTESIAN_POINT('Origin',(3.75,0.,0.));
#631=CARTESIAN_POINT('Origin',(2.375,0.,0.));
#632=CARTESIAN_POINT('',(1.00000000000001,-8.5,0.));
#633=CARTESIAN_POINT('Origin',(1.00000000000001,0.,0.));
#634=CARTESIAN_POINT('Origin',(0.783493649053899,0.,0.));
#635=CARTESIAN_POINT('',(0.566987298107781,-8.24999999999999,0.));
#636=CARTESIAN_POINT('Origin',(0.566987298107782,0.,0.));
#637=CARTESIAN_POINT('Origin',(0.28349364905389,0.,0.));
#638=CARTESIAN_POINT('',(0.,-8.24999999999999,0.));
#639=CARTESIAN_POINT('Origin',(0.,0.,0.));
#640=CARTESIAN_POINT('Origin',(0.,-11.5,0.));
#641=CARTESIAN_POINT('Origin',(0.,0.,0.));
#642=CARTESIAN_POINT('Origin',(-2.,0.,0.));
#643=CARTESIAN_POINT('Origin',(-13.9150635094611,0.,0.));
#644=CARTESIAN_POINT('',(-19.3301270189222,-7.,0.));
#645=CARTESIAN_POINT('Origin',(-19.3301270189222,0.,0.));
#646=CARTESIAN_POINT('Origin',(-19.6650635094611,0.,0.));
#647=UNCERTAINTY_MEASURE_WITH_UNIT(LENGTH_MEASURE(0.01),#651,
'DISTANCE_ACCURACY_VALUE',
'Maximum model space distance between geometric entities at asserted c
onnectivities');
#648=UNCERTAINTY_MEASURE_WITH_UNIT(LENGTH_MEASURE(1.E-6),#651,
'DISTANCE_ACCURACY_VALUE',
'Maximum model space distance between geometric entities at asserted c
onnectivities');
#649=(
GEOMETRIC_REPRESENTATION_CONTEXT(3)
GLOBAL_UNCERTAINTY_ASSIGNED_CONTEXT((#647))
GLOBAL_UNIT_ASSIGNED_CONTEXT((#651,#654,#652))
REPRESENTATION_CONTEXT('','3D')
);
#650=(
GEOMETRIC_REPRESENTATION_CONTEXT(3)
GLOBAL_UNCERTAINTY_ASSIGNED_CONTEXT((#648))
GLOBAL_UNIT_ASSIGNED_CONTEXT((#651,#654,#652))
REPRESENTATION_CONTEXT('','3D')
);
#651=(
LENGTH_UNIT()
NAMED_UNIT(*)
SI_UNIT(.MILLI.,.METRE.)
);
#652=(
NAMED_UNIT(*)
SI_UNIT($,.STERADIAN.)
SOLID_ANGLE_UNIT()
);
#653=DIMENSIONAL_EXPONENTS(0.,0.,0.,0.,0.,0.,0.);
#654=(
CONVERSION_BASED_UNIT('degree',#656)
NAMED_UNIT(#653)
PLANE_ANGLE_UNIT()
);
#655=(
NAMED_UNIT(*)
PLANE_ANGLE_UNIT()
SI_UNIT($,.RADIAN.)
);
#656=PLANE_ANGLE_MEASURE_WITH_UNIT(PLANE_ANGLE_MEASURE(0.01745329252),#655);
#657=SHAPE_DEFINITION_REPRESENTATION(#658,#659);
#658=PRODUCT_DEFINITION_SHAPE('',$,#661);
#659=SHAPE_REPRESENTATION('',(#365),#649);
#660=PRODUCT_DEFINITION_CONTEXT('part definition',#665,'design');
#661=PRODUCT_DEFINITION('10484001','10484001',#662,#660);
#662=PRODUCT_DEFINITION_FORMATION('',$,#667);
#663=PRODUCT_RELATED_PRODUCT_CATEGORY('10484001','10484001',(#667));
#664=APPLICATION_PROTOCOL_DEFINITION('international standard',
'automotive_design',2009,#665);
#665=APPLICATION_CONTEXT(
'Core Data for Automotive Mechanical Design Process');
#666=PRODUCT_CONTEXT('part definition',#665,'mechanical');
#667=PRODUCT('10484001','10484001',$,(#666));
#668=PRESENTATION_STYLE_ASSIGNMENT((#671));
#669=PRESENTATION_STYLE_ASSIGNMENT((#672));
#670=PRESENTATION_STYLE_ASSIGNMENT((#673));
#671=SURFACE_STYLE_USAGE(.BOTH.,#674);
#672=SURFACE_STYLE_USAGE(.BOTH.,#675);
#673=SURFACE_STYLE_USAGE(.BOTH.,#676);
#674=SURFACE_SIDE_STYLE($,(#677));
#675=SURFACE_SIDE_STYLE($,(#678));
#676=SURFACE_SIDE_STYLE($,(#679));
#677=SURFACE_STYLE_FILL_AREA(#680);
#678=SURFACE_STYLE_FILL_AREA(#681);
#679=SURFACE_STYLE_FILL_AREA(#682);
#680=FILL_AREA_STYLE($,(#683));
#681=FILL_AREA_STYLE($,(#684));
#682=FILL_AREA_STYLE($,(#685));
#683=FILL_AREA_STYLE_COLOUR($,#686);
#684=FILL_AREA_STYLE_COLOUR($,#687);
#685=FILL_AREA_STYLE_COLOUR($,#688);
#686=COLOUR_RGB('',0.749019607843137,0.749019607843137,0.749019607843137);
#687=COLOUR_RGB('',0.956862745098039,0.956862745098039,0.956862745098039);
#688=COLOUR_RGB('',0.,0.,0.);
ENDSEC;
END-ISO-10303-21;
