ISO-10303-21;
HEADER;
FILE_DESCRIPTION((''),'2;1');
FILE_NAME('120_70_04','2020-09-23T',('103090'),(''),
'CREO PARAMETRIC BY PTC INC, 2016260','CREO PARAMETRIC BY PTC INC, 2016260','');
FILE_SCHEMA(('CONFIG_CONTROL_DESIGN'));
ENDSEC;
DATA;
#1=CARTESIAN_POINT('',(0,0,-80.95064546427));
#2=DIRECTION('',(0,0,1));
#3=DIRECTION('',(0,1,0));
#4=AXIS2_PLACEMENT_3D('',#1,#2,#3);
#6=CARTESIAN_POINT('',(0,0,-80.95064546427));
#7=DIRECTION('',(0,0,-1));
#8=DIRECTION('',(0,1,0));
#9=AXIS2_PLACEMENT_3D('',#6,#7,#8);
#11=CARTESIAN_POINT('',(0,0,-80.95064546427));
#12=DIRECTION('',(0,0,1));
#13=DIRECTION('',(0,-1,0));
#14=AXIS2_PLACEMENT_3D('',#11,#12,#13);
#16=CARTESIAN_POINT('',(0,0,-80.95064546427));
#17=DIRECTION('',(0,0,1));
#18=DIRECTION('',(0,1,0));
#19=AXIS2_PLACEMENT_3D('',#16,#17,#18);
#21=DIRECTION('',(0,0.5,-0.8660254037844));
#22=VECTOR('',#21,1);
#23=CARTESIAN_POINT('',(0,2,-80.08462006049));
#24=LINE('',#23,#22);
#25=DIRECTION('',(0,-0.5,-0.8660254037844));
#26=VECTOR('',#25,1);
#27=CARTESIAN_POINT('',(0,-2,-80.08462006049));
#28=LINE('',#27,#26);
#29=CARTESIAN_POINT('',(0,0,-80.08462006049));
#30=DIRECTION('',(0,0,1));
#31=DIRECTION('',(0,1,0));
#32=AXIS2_PLACEMENT_3D('',#29,#30,#31);
#34=CARTESIAN_POINT('',(0,0,-80.08462006049));
#35=DIRECTION('',(0,0,-1));
#36=DIRECTION('',(0,1,0));
#37=AXIS2_PLACEMENT_3D('',#34,#35,#36);
#39=CARTESIAN_POINT('',(0,0,-69.95064546427));
#40=DIRECTION('',(0,0,-1));
#41=DIRECTION('',(0,1,0));
#42=AXIS2_PLACEMENT_3D('',#39,#40,#41);
#44=DIRECTION('',(0,0,-1));
#45=VECTOR('',#44,10.13397459622);
#46=CARTESIAN_POINT('',(0,2,-69.95064546427));
#47=LINE('',#46,#45);
#48=DIRECTION('',(0,0,-1));
#49=VECTOR('',#48,10.13397459622);
#50=CARTESIAN_POINT('',(0,-2,-69.95064546427));
#51=LINE('',#50,#49);
#52=CARTESIAN_POINT('',(0,0,-69.95064546427));
#53=DIRECTION('',(0,0,1));
#54=DIRECTION('',(0,1,0));
#55=AXIS2_PLACEMENT_3D('',#52,#53,#54);
#57=DIRECTION('',(0,-0.8571673007021,-0.5150380749101));
#58=VECTOR('',#57,1.749950095823);
#59=CARTESIAN_POINT('',(0,3.5,-69.04935453573));
#60=LINE('',#59,#58);
#61=DIRECTION('',(0,0.8571673007021,-0.5150380749101));
#62=VECTOR('',#61,1.749950095823);
#63=CARTESIAN_POINT('',(0,-3.5,-69.04935453573));
#64=LINE('',#63,#62);
#65=CARTESIAN_POINT('',(0,0,-69.04935453573));
#66=DIRECTION('',(0,0,1));
#67=DIRECTION('',(0,1,0));
#68=AXIS2_PLACEMENT_3D('',#65,#66,#67);
#70=CARTESIAN_POINT('',(0,0,-69.04935453573));
#71=DIRECTION('',(0,0,-1));
#72=DIRECTION('',(0,1,0));
#73=AXIS2_PLACEMENT_3D('',#70,#71,#72);
#75=CARTESIAN_POINT('',(0,0,69.04935453573));
#76=DIRECTION('',(0,0,-1));
#77=DIRECTION('',(0,1,0));
#78=AXIS2_PLACEMENT_3D('',#75,#76,#77);
#80=DIRECTION('',(0,0,-1));
#81=VECTOR('',#80,138.0987090715);
#82=CARTESIAN_POINT('',(0,3.5,69.04935453573));
#83=LINE('',#82,#81);
#84=DIRECTION('',(0,0,-1));
#85=VECTOR('',#84,138.0987090715);
#86=CARTESIAN_POINT('',(0,-3.5,69.04935453573));
#87=LINE('',#86,#85);
#88=CARTESIAN_POINT('',(0,0,69.04935453573));
#89=DIRECTION('',(0,0,1));
#90=DIRECTION('',(0,1,0));
#91=AXIS2_PLACEMENT_3D('',#88,#89,#90);
#93=CARTESIAN_POINT('',(0,0,69.04935453573));
#94=DIRECTION('',(0,0,1));
#95=DIRECTION('',(0,1,0));
#96=AXIS2_PLACEMENT_3D('',#93,#94,#95);
#98=CARTESIAN_POINT('',(0,0,69.04935453573));
#99=DIRECTION('',(0,0,1));
#100=DIRECTION('',(0,-1,0));
#101=AXIS2_PLACEMENT_3D('',#98,#99,#100);
#103=DIRECTION('',(-0.00000000007798160894587,0.7071067811865,-0.7071067811866));
#104=VECTOR('',#103,1.414213562396);
#105=CARTESIAN_POINT('',(0.0000000006616910695643,8.999999999903,69.04935453583));
#106=LINE('',#105,#104);
#107=DIRECTION('',(0.00000000007798289536642,-0.7071067811865,-0.7071067811866));
#108=VECTOR('',#107,1.414213562396);
#109=CARTESIAN_POINT('',(-0.0000000006616976549490,-8.999999999903,
69.04935453583));
#110=LINE('',#109,#108);
#111=CARTESIAN_POINT('',(0,0,68.04935453573));
#112=DIRECTION('',(0,0,1));
#113=DIRECTION('',(0,-1,0));
#114=AXIS2_PLACEMENT_3D('',#111,#112,#113);
#116=CARTESIAN_POINT('',(0,0,-15.95064546427));
#117=DIRECTION('',(0,0,-1));
#118=DIRECTION('',(0,1,0));
#119=AXIS2_PLACEMENT_3D('',#116,#117,#118);
#121=CARTESIAN_POINT('',(0,0,68.04935453573));
#122=DIRECTION('',(0,0,1));
#123=DIRECTION('',(0,1,0));
#124=AXIS2_PLACEMENT_3D('',#121,#122,#123);
#126=DIRECTION('',(-0.000000000006564428119519,0.0000000000009584925445921,1));
#127=VECTOR('',#126,84.00000000008);
#128=CARTESIAN_POINT('',(0,-10,-15.95064546427));
#129=LINE('',#128,#127);
#130=CARTESIAN_POINT('',(0,0,-15.95064546427));
#131=DIRECTION('',(0,0,1));
#132=DIRECTION('',(0,1,0));
#133=AXIS2_PLACEMENT_3D('',#130,#131,#132);
#135=DIRECTION('',(0.000000000006564371380099,-0.0000000000009584925445921,1));
#136=VECTOR('',#135,84.00000000008);
#137=CARTESIAN_POINT('',(0,10,-15.95064546427));
#138=LINE('',#137,#136);
#139=DIRECTION('',(0,0.7071067811865,0.7071067811865));
#140=VECTOR('',#139,0.7071067811865);
#141=CARTESIAN_POINT('',(0,9.5,-16.45064546427));
#142=LINE('',#141,#140);
#143=DIRECTION('',(0,-0.7071067811865,0.7071067811865));
#144=VECTOR('',#143,0.7071067811865);
#145=CARTESIAN_POINT('',(0,-9.5,-16.45064546427));
#146=LINE('',#145,#144);
#147=CARTESIAN_POINT('',(0,0,-16.45064546427));
#148=DIRECTION('',(0,0,1));
#149=DIRECTION('',(0,1,0));
#150=AXIS2_PLACEMENT_3D('',#147,#148,#149);
#152=CARTESIAN_POINT('',(0,0,-16.45064546427));
#153=DIRECTION('',(0,0,-1));
#154=DIRECTION('',(0,1,0));
#155=AXIS2_PLACEMENT_3D('',#152,#153,#154);
#157=CARTESIAN_POINT('',(0,0,-19.45567504074));
#158=DIRECTION('',(0,0,-1));
#159=DIRECTION('',(0,1,0));
#160=AXIS2_PLACEMENT_3D('',#157,#158,#159);
#162=DIRECTION('',(0,0,1));
#163=VECTOR('',#162,3.005029576470);
#164=CARTESIAN_POINT('',(0,9.5,-19.45567504074));
#165=LINE('',#164,#163);
#166=DIRECTION('',(0,0,1));
#167=VECTOR('',#166,3.005029576470);
#168=CARTESIAN_POINT('',(0,-9.5,-19.45567504074));
#169=LINE('',#168,#167);
#170=CARTESIAN_POINT('',(0,0,-19.45567504074));
#171=DIRECTION('',(0,0,1));
#172=DIRECTION('',(0,1,0));
#173=AXIS2_PLACEMENT_3D('',#170,#171,#172);
#175=DIRECTION('',(0,-0.7071067811865,0.7071067811865));
#176=VECTOR('',#175,0.4454354447027);
#177=CARTESIAN_POINT('',(0,9.814970423530,-19.77064546427));
#178=LINE('',#177,#176);
#179=DIRECTION('',(0,0.7071067811865,0.7071067811865));
#180=VECTOR('',#179,0.4454354447027);
#181=CARTESIAN_POINT('',(0,-9.814970423530,-19.77064546427));
#182=LINE('',#181,#180);
#183=CARTESIAN_POINT('',(0,0,-19.77064546427));
#184=DIRECTION('',(0,0,1));
#185=DIRECTION('',(0,1,0));
#186=AXIS2_PLACEMENT_3D('',#183,#184,#185);
#188=CARTESIAN_POINT('',(0,0,-19.77064546427));
#189=DIRECTION('',(0,0,-1));
#190=DIRECTION('',(0,1,0));
#191=AXIS2_PLACEMENT_3D('',#188,#189,#190);
#193=CARTESIAN_POINT('',(0,0,-80.02910456));
#194=DIRECTION('',(0,0,1));
#195=DIRECTION('',(0,-1,0));
#196=AXIS2_PLACEMENT_3D('',#193,#194,#195);
#198=DIRECTION('',(0.0000000000001338189432670,0.07845909572784,0.9969173337331));
#199=VECTOR('',#198,60.44479021152);
#200=CARTESIAN_POINT('',(-0.000000000008087455964889,5.072526842075,-80.02910456));
#201=LINE('',#200,#199);
#202=DIRECTION('',(-0.0000000000001338163165594,-0.07845909572784,0.9969173337331));
#203=VECTOR('',#202,60.44479021152);
#204=CARTESIAN_POINT('',(0.000000000008087297194098,-5.072526842075,-80.02910456));
#205=LINE('',#204,#203);
#206=CARTESIAN_POINT('',(0,0,-80.02910456));
#207=DIRECTION('',(0,0,1));
#208=DIRECTION('',(0,1,0));
#209=AXIS2_PLACEMENT_3D('',#206,#207,#208);
#211=CARTESIAN_POINT('',(0.0000000001525833834282,4.075609508342,
-79.95064546427));
#212=DIRECTION('',(-1,0.00000000003743817582336,0));
#213=DIRECTION('',(0.00000000003732276642165,0.9969173337331,-0.07845909572869));
#214=AXIS2_PLACEMENT_3D('',#211,#212,#213);
#216=CARTESIAN_POINT('',(-0.0000000001525831544447,-4.075609508342,
-79.95064546427));
#217=DIRECTION('',(1,-0.00000000003743811857748,0));
#218=DIRECTION('',(-0.00000000003732270935225,-0.9969173337331,-0.07845909572868));
#219=AXIS2_PLACEMENT_3D('',#216,#217,#218);
#221=CARTESIAN_POINT('',(0,3.5,69.04935453573));
#222=CARTESIAN_POINT('',(0,3.5,-69.04935453573));
#223=VERTEX_POINT('',#221);
#224=VERTEX_POINT('',#222);
#225=CARTESIAN_POINT('',(0,2,-69.95064546427));
#226=VERTEX_POINT('',#225);
#227=CARTESIAN_POINT('',(0,2,-80.08462006049));
#228=VERTEX_POINT('',#227);
#229=CARTESIAN_POINT('',(0,2.5,-80.95064546427));
#230=VERTEX_POINT('',#229);
#231=CARTESIAN_POINT('',(0,-3.5,69.04935453573));
#232=CARTESIAN_POINT('',(0,-3.5,-69.04935453573));
#233=VERTEX_POINT('',#231);
#234=VERTEX_POINT('',#232);
#235=CARTESIAN_POINT('',(0,-2,-69.95064546427));
#236=VERTEX_POINT('',#235);
#237=CARTESIAN_POINT('',(0,-2,-80.08462006049));
#238=VERTEX_POINT('',#237);
#239=CARTESIAN_POINT('',(0,-2.5,-80.95064546427));
#240=VERTEX_POINT('',#239);
#241=CARTESIAN_POINT('',(-0.000000000008087455964889,5.072526842075,-80.02910456));
#242=CARTESIAN_POINT('',(0,9.814970423530,-19.77064546427));
#243=VERTEX_POINT('',#241);
#244=VERTEX_POINT('',#242);
#245=CARTESIAN_POINT('',(0.000000000008087297194098,-5.072526842075,-80.02910456));
#246=CARTESIAN_POINT('',(0,-9.814970423530,-19.77064546427));
#247=VERTEX_POINT('',#245);
#248=VERTEX_POINT('',#246);
#249=CARTESIAN_POINT('',(0,9,69.04935453573));
#250=CARTESIAN_POINT('',(-0.00000000000001019797001577,-9,69.04935453573));
#251=VERTEX_POINT('',#249);
#252=VERTEX_POINT('',#250);
#253=CARTESIAN_POINT('',(0,10,68.04935453573));
#254=CARTESIAN_POINT('',(0,-10,68.04935453573));
#255=VERTEX_POINT('',#253);
#256=VERTEX_POINT('',#254);
#257=CARTESIAN_POINT('',(0,10,-15.95064546427));
#258=VERTEX_POINT('',#257);
#259=CARTESIAN_POINT('',(0,-10,-15.95064546427));
#260=VERTEX_POINT('',#259);
#261=CARTESIAN_POINT('',(0,-4.075609508342,-80.95064546427));
#262=CARTESIAN_POINT('',(0,4.075609508342,-80.95064546427));
#263=VERTEX_POINT('',#261);
#264=VERTEX_POINT('',#262);
#265=CARTESIAN_POINT('',(0,9.5,-19.45567504074));
#266=VERTEX_POINT('',#265);
#267=CARTESIAN_POINT('',(0,9.5,-16.45064546427));
#268=VERTEX_POINT('',#267);
#269=CARTESIAN_POINT('',(0,-9.5,-19.45567504074));
#270=VERTEX_POINT('',#269);
#271=CARTESIAN_POINT('',(0,-9.5,-16.45064546427));
#272=VERTEX_POINT('',#271);
#273=CARTESIAN_POINT('',(0,0,-80.95064546427));
#274=DIRECTION('',(0,0,-1));
#275=DIRECTION('',(0,-1,0));
#276=AXIS2_PLACEMENT_3D('',#273,#274,#275);
#277=PLANE('',#276);
#279=ORIENTED_EDGE('',*,*,#278,.T.);
#281=ORIENTED_EDGE('',*,*,#280,.T.);
#282=EDGE_LOOP('',(#279,#281));
#283=FACE_OUTER_BOUND('',#282,.F.);
#285=ORIENTED_EDGE('',*,*,#284,.F.);
#287=ORIENTED_EDGE('',*,*,#286,.T.);
#288=EDGE_LOOP('',(#285,#287));
#289=FACE_BOUND('',#288,.F.);
#290=ADVANCED_FACE('',(#283,#289),#277,.T.);
#291=CARTESIAN_POINT('',(0,0,-80.51763276238));
#292=DIRECTION('',(0,0,-1));
#293=DIRECTION('',(0,-1,0));
#294=AXIS2_PLACEMENT_3D('',#291,#292,#293);
#295=CONICAL_SURFACE('',#294,2.25,30);
#297=ORIENTED_EDGE('',*,*,#296,.T.);
#298=ORIENTED_EDGE('',*,*,#284,.T.);
#300=ORIENTED_EDGE('',*,*,#299,.F.);
#302=ORIENTED_EDGE('',*,*,#301,.F.);
#303=EDGE_LOOP('',(#297,#298,#300,#302));
#304=FACE_OUTER_BOUND('',#303,.F.);
#305=ADVANCED_FACE('',(#304),#295,.F.);
#306=CARTESIAN_POINT('',(0,0,-80.51763276238));
#307=DIRECTION('',(0,0,-1));
#308=DIRECTION('',(0,-1,0));
#309=AXIS2_PLACEMENT_3D('',#306,#307,#308);
#310=CONICAL_SURFACE('',#309,2.25,30);
#311=ORIENTED_EDGE('',*,*,#296,.F.);
#313=ORIENTED_EDGE('',*,*,#312,.T.);
#314=ORIENTED_EDGE('',*,*,#299,.T.);
#315=ORIENTED_EDGE('',*,*,#286,.F.);
#316=EDGE_LOOP('',(#311,#313,#314,#315));
#317=FACE_OUTER_BOUND('',#316,.F.);
#318=ADVANCED_FACE('',(#317),#310,.F.);
#319=CARTESIAN_POINT('',(0,0,76.54935453573));
#320=DIRECTION('',(0,0,-1));
#321=DIRECTION('',(0,-1,0));
#322=AXIS2_PLACEMENT_3D('',#319,#320,#321);
#323=CYLINDRICAL_SURFACE('',#322,2);
#325=ORIENTED_EDGE('',*,*,#324,.F.);
#327=ORIENTED_EDGE('',*,*,#326,.T.);
#329=ORIENTED_EDGE('',*,*,#328,.T.);
#330=ORIENTED_EDGE('',*,*,#312,.F.);
#331=EDGE_LOOP('',(#325,#327,#329,#330));
#332=FACE_OUTER_BOUND('',#331,.F.);
#333=ADVANCED_FACE('',(#332),#323,.F.);
#334=CARTESIAN_POINT('',(0,0,76.54935453573));
#335=DIRECTION('',(0,0,-1));
#336=DIRECTION('',(0,-1,0));
#337=AXIS2_PLACEMENT_3D('',#334,#335,#336);
#338=CYLINDRICAL_SURFACE('',#337,2);
#339=ORIENTED_EDGE('',*,*,#324,.T.);
#340=ORIENTED_EDGE('',*,*,#301,.T.);
#341=ORIENTED_EDGE('',*,*,#328,.F.);
#343=ORIENTED_EDGE('',*,*,#342,.F.);
#344=EDGE_LOOP('',(#339,#340,#341,#343));
#345=FACE_OUTER_BOUND('',#344,.F.);
#346=ADVANCED_FACE('',(#345),#338,.F.);
#347=CARTESIAN_POINT('',(0,0,-69.5));
#348=DIRECTION('',(0,0,1));
#349=DIRECTION('',(0,1,0));
#350=AXIS2_PLACEMENT_3D('',#347,#348,#349);
#351=CONICAL_SURFACE('',#350,2.75,59);
#353=ORIENTED_EDGE('',*,*,#352,.T.);
#354=ORIENTED_EDGE('',*,*,#342,.T.);
#356=ORIENTED_EDGE('',*,*,#355,.F.);
#358=ORIENTED_EDGE('',*,*,#357,.F.);
#359=EDGE_LOOP('',(#353,#354,#356,#358));
#360=FACE_OUTER_BOUND('',#359,.F.);
#361=ADVANCED_FACE('',(#360),#351,.F.);
#362=CARTESIAN_POINT('',(0,0,-69.5));
#363=DIRECTION('',(0,0,1));
#364=DIRECTION('',(0,1,0));
#365=AXIS2_PLACEMENT_3D('',#362,#363,#364);
#366=CONICAL_SURFACE('',#365,2.75,59);
#367=ORIENTED_EDGE('',*,*,#352,.F.);
#369=ORIENTED_EDGE('',*,*,#368,.T.);
#370=ORIENTED_EDGE('',*,*,#355,.T.);
#371=ORIENTED_EDGE('',*,*,#326,.F.);
#372=EDGE_LOOP('',(#367,#369,#370,#371));
#373=FACE_OUTER_BOUND('',#372,.F.);
#374=ADVANCED_FACE('',(#373),#366,.F.);
#375=CARTESIAN_POINT('',(0,0,76.54935453573));
#376=DIRECTION('',(0,0,-1));
#377=DIRECTION('',(0,-1,0));
#378=AXIS2_PLACEMENT_3D('',#375,#376,#377);
#379=CYLINDRICAL_SURFACE('',#378,3.5);
#381=ORIENTED_EDGE('',*,*,#380,.F.);
#383=ORIENTED_EDGE('',*,*,#382,.T.);
#385=ORIENTED_EDGE('',*,*,#384,.T.);
#386=ORIENTED_EDGE('',*,*,#368,.F.);
#387=EDGE_LOOP('',(#381,#383,#385,#386));
#388=FACE_OUTER_BOUND('',#387,.F.);
#389=ADVANCED_FACE('',(#388),#379,.F.);
#390=CARTESIAN_POINT('',(0,0,76.54935453573));
#391=DIRECTION('',(0,0,-1));
#392=DIRECTION('',(0,-1,0));
#393=AXIS2_PLACEMENT_3D('',#390,#391,#392);
#394=CYLINDRICAL_SURFACE('',#393,3.5);
#395=ORIENTED_EDGE('',*,*,#380,.T.);
#396=ORIENTED_EDGE('',*,*,#357,.T.);
#397=ORIENTED_EDGE('',*,*,#384,.F.);
#399=ORIENTED_EDGE('',*,*,#398,.F.);
#400=EDGE_LOOP('',(#395,#396,#397,#399));
#401=FACE_OUTER_BOUND('',#400,.F.);
#402=ADVANCED_FACE('',(#401),#394,.F.);
#403=CARTESIAN_POINT('',(0,0,69.04935453573));
#404=DIRECTION('',(0,0,-1));
#405=DIRECTION('',(0,-1,0));
#406=AXIS2_PLACEMENT_3D('',#403,#404,#405);
#407=PLANE('',#406);
#409=ORIENTED_EDGE('',*,*,#408,.F.);
#411=ORIENTED_EDGE('',*,*,#410,.F.);
#412=EDGE_LOOP('',(#409,#411));
#413=FACE_OUTER_BOUND('',#412,.F.);
#414=ORIENTED_EDGE('',*,*,#382,.F.);
#415=ORIENTED_EDGE('',*,*,#398,.T.);
#416=EDGE_LOOP('',(#414,#415));
#417=FACE_BOUND('',#416,.F.);
#418=ADVANCED_FACE('',(#413,#417),#407,.F.);
#419=CARTESIAN_POINT('',(0,0,68.54935453582));
#420=DIRECTION('',(0,0,-1));
#421=DIRECTION('',(0,-1,0));
#422=AXIS2_PLACEMENT_3D('',#419,#420,#421);
#423=CONICAL_SURFACE('',#422,9.499999999908,45);
#424=ORIENTED_EDGE('',*,*,#408,.T.);
#426=ORIENTED_EDGE('',*,*,#425,.T.);
#428=ORIENTED_EDGE('',*,*,#427,.F.);
#430=ORIENTED_EDGE('',*,*,#429,.F.);
#431=EDGE_LOOP('',(#424,#426,#428,#430));
#432=FACE_OUTER_BOUND('',#431,.F.);
#433=ADVANCED_FACE('',(#432),#423,.T.);
#434=CARTESIAN_POINT('',(0,0,68.54935453582));
#435=DIRECTION('',(0,0,-1));
#436=DIRECTION('',(0,-1,0));
#437=AXIS2_PLACEMENT_3D('',#434,#435,#436);
#438=CONICAL_SURFACE('',#437,9.499999999908,45);
#439=ORIENTED_EDGE('',*,*,#410,.T.);
#440=ORIENTED_EDGE('',*,*,#429,.T.);
#442=ORIENTED_EDGE('',*,*,#441,.F.);
#443=ORIENTED_EDGE('',*,*,#425,.F.);
#444=EDGE_LOOP('',(#439,#440,#442,#443));
#445=FACE_OUTER_BOUND('',#444,.F.);
#446=ADVANCED_FACE('',(#445),#438,.T.);
#447=CARTESIAN_POINT('',(0,0,76.54935453573));
#448=DIRECTION('',(0,0,-1));
#449=DIRECTION('',(0,-1,0));
#450=AXIS2_PLACEMENT_3D('',#447,#448,#449);
#451=CYLINDRICAL_SURFACE('',#450,10);
#452=ORIENTED_EDGE('',*,*,#441,.T.);
#454=ORIENTED_EDGE('',*,*,#453,.F.);
#456=ORIENTED_EDGE('',*,*,#455,.T.);
#458=ORIENTED_EDGE('',*,*,#457,.T.);
#459=EDGE_LOOP('',(#452,#454,#456,#458));
#460=FACE_OUTER_BOUND('',#459,.F.);
#461=ADVANCED_FACE('',(#460),#451,.T.);
#462=CARTESIAN_POINT('',(0,0,76.54935453573));
#463=DIRECTION('',(0,0,-1));
#464=DIRECTION('',(0,-1,0));
#465=AXIS2_PLACEMENT_3D('',#462,#463,#464);
#466=CYLINDRICAL_SURFACE('',#465,10);
#467=ORIENTED_EDGE('',*,*,#427,.T.);
#468=ORIENTED_EDGE('',*,*,#457,.F.);
#470=ORIENTED_EDGE('',*,*,#469,.F.);
#471=ORIENTED_EDGE('',*,*,#453,.T.);
#472=EDGE_LOOP('',(#467,#468,#470,#471));
#473=FACE_OUTER_BOUND('',#472,.F.);
#474=ADVANCED_FACE('',(#473),#466,.T.);
#475=CARTESIAN_POINT('',(0,0,-16.20064546427));
#476=DIRECTION('',(0,0,1));
#477=DIRECTION('',(0,1,0));
#478=AXIS2_PLACEMENT_3D('',#475,#476,#477);
#479=CONICAL_SURFACE('',#478,9.75,45);
#481=ORIENTED_EDGE('',*,*,#480,.T.);
#482=ORIENTED_EDGE('',*,*,#469,.T.);
#484=ORIENTED_EDGE('',*,*,#483,.F.);
#486=ORIENTED_EDGE('',*,*,#485,.F.);
#487=EDGE_LOOP('',(#481,#482,#484,#486));
#488=FACE_OUTER_BOUND('',#487,.F.);
#489=ADVANCED_FACE('',(#488),#479,.T.);
#490=CARTESIAN_POINT('',(0,0,-16.20064546427));
#491=DIRECTION('',(0,0,1));
#492=DIRECTION('',(0,1,0));
#493=AXIS2_PLACEMENT_3D('',#490,#491,#492);
#494=CONICAL_SURFACE('',#493,9.75,45);
#495=ORIENTED_EDGE('',*,*,#480,.F.);
#497=ORIENTED_EDGE('',*,*,#496,.T.);
#498=ORIENTED_EDGE('',*,*,#483,.T.);
#499=ORIENTED_EDGE('',*,*,#455,.F.);
#500=EDGE_LOOP('',(#495,#497,#498,#499));
#501=FACE_OUTER_BOUND('',#500,.F.);
#502=ADVANCED_FACE('',(#501),#494,.T.);
#503=CARTESIAN_POINT('',(0,0,76.54935453573));
#504=DIRECTION('',(0,0,-1));
#505=DIRECTION('',(0,-1,0));
#506=AXIS2_PLACEMENT_3D('',#503,#504,#505);
#507=CYLINDRICAL_SURFACE('',#506,9.5);
#509=ORIENTED_EDGE('',*,*,#508,.F.);
#511=ORIENTED_EDGE('',*,*,#510,.T.);
#513=ORIENTED_EDGE('',*,*,#512,.T.);
#514=ORIENTED_EDGE('',*,*,#496,.F.);
#515=EDGE_LOOP('',(#509,#511,#513,#514));
#516=FACE_OUTER_BOUND('',#515,.F.);
#517=ADVANCED_FACE('',(#516),#507,.T.);
#518=CARTESIAN_POINT('',(0,0,76.54935453573));
#519=DIRECTION('',(0,0,-1));
#520=DIRECTION('',(0,-1,0));
#521=AXIS2_PLACEMENT_3D('',#518,#519,#520);
#522=CYLINDRICAL_SURFACE('',#521,9.5);
#523=ORIENTED_EDGE('',*,*,#508,.T.);
#524=ORIENTED_EDGE('',*,*,#485,.T.);
#525=ORIENTED_EDGE('',*,*,#512,.F.);
#527=ORIENTED_EDGE('',*,*,#526,.F.);
#528=EDGE_LOOP('',(#523,#524,#525,#527));
#529=FACE_OUTER_BOUND('',#528,.F.);
#530=ADVANCED_FACE('',(#529),#522,.T.);
#531=CARTESIAN_POINT('',(0,0,-19.61316025251));
#532=DIRECTION('',(0,0,-1));
#533=DIRECTION('',(0,-1,0));
#534=AXIS2_PLACEMENT_3D('',#531,#532,#533);
#535=CONICAL_SURFACE('',#534,9.657485211765,45);
#537=ORIENTED_EDGE('',*,*,#536,.T.);
#538=ORIENTED_EDGE('',*,*,#526,.T.);
#540=ORIENTED_EDGE('',*,*,#539,.F.);
#542=ORIENTED_EDGE('',*,*,#541,.F.);
#543=EDGE_LOOP('',(#537,#538,#540,#542));
#544=FACE_OUTER_BOUND('',#543,.F.);
#545=ADVANCED_FACE('',(#544),#535,.T.);
#546=CARTESIAN_POINT('',(0,0,-19.61316025251));
#547=DIRECTION('',(0,0,-1));
#548=DIRECTION('',(0,-1,0));
#549=AXIS2_PLACEMENT_3D('',#546,#547,#548);
#550=CONICAL_SURFACE('',#549,9.657485211765,45);
#551=ORIENTED_EDGE('',*,*,#536,.F.);
#553=ORIENTED_EDGE('',*,*,#552,.T.);
#554=ORIENTED_EDGE('',*,*,#539,.T.);
#555=ORIENTED_EDGE('',*,*,#510,.F.);
#556=EDGE_LOOP('',(#551,#553,#554,#555));
#557=FACE_OUTER_BOUND('',#556,.F.);
#558=ADVANCED_FACE('',(#557),#550,.T.);
#559=CARTESIAN_POINT('',(0,0,-49.89987501213));
#560=DIRECTION('',(0,0,1));
#561=DIRECTION('',(0,1,0));
#562=AXIS2_PLACEMENT_3D('',#559,#560,#561);
#563=CONICAL_SURFACE('',#562,7.443748632803,4.5);
#565=ORIENTED_EDGE('',*,*,#564,.F.);
#567=ORIENTED_EDGE('',*,*,#566,.F.);
#569=ORIENTED_EDGE('',*,*,#568,.T.);
#570=ORIENTED_EDGE('',*,*,#552,.F.);
#571=EDGE_LOOP('',(#565,#567,#569,#570));
#572=FACE_OUTER_BOUND('',#571,.F.);
#573=ADVANCED_FACE('',(#572),#563,.T.);
#574=CARTESIAN_POINT('',(0,0,-49.89987501213));
#575=DIRECTION('',(0,0,1));
#576=DIRECTION('',(0,1,0));
#577=AXIS2_PLACEMENT_3D('',#574,#575,#576);
#578=CONICAL_SURFACE('',#577,7.443748632803,4.5);
#579=ORIENTED_EDGE('',*,*,#564,.T.);
#580=ORIENTED_EDGE('',*,*,#541,.T.);
#581=ORIENTED_EDGE('',*,*,#568,.F.);
#583=ORIENTED_EDGE('',*,*,#582,.F.);
#584=EDGE_LOOP('',(#579,#580,#581,#583));
#585=FACE_OUTER_BOUND('',#584,.F.);
#586=ADVANCED_FACE('',(#585),#578,.T.);
#587=CARTESIAN_POINT('',(0,0,-79.95064546427));
#588=DIRECTION('',(0,0,-1));
#589=DIRECTION('',(0.01440367806694,0.9998962616482,0));
#590=AXIS2_PLACEMENT_3D('',#587,#588,#589);
#591=TOROIDAL_SURFACE('',#590,4.075609508342,1);
#592=ORIENTED_EDGE('',*,*,#582,.T.);
#594=ORIENTED_EDGE('',*,*,#593,.T.);
#595=ORIENTED_EDGE('',*,*,#280,.F.);
#597=ORIENTED_EDGE('',*,*,#596,.F.);
#598=EDGE_LOOP('',(#592,#594,#595,#597));
#599=FACE_OUTER_BOUND('',#598,.F.);
#600=ADVANCED_FACE('',(#599),#591,.T.);
#601=CARTESIAN_POINT('',(0,0,-79.95064546427));
#602=DIRECTION('',(0,0,-1));
#603=DIRECTION('',(-0.01440367806694,-0.9998962616482,0));
#604=AXIS2_PLACEMENT_3D('',#601,#602,#603);
#605=TOROIDAL_SURFACE('',#604,4.075609508342,1);
#606=ORIENTED_EDGE('',*,*,#566,.T.);
#607=ORIENTED_EDGE('',*,*,#596,.T.);
#608=ORIENTED_EDGE('',*,*,#278,.F.);
#609=ORIENTED_EDGE('',*,*,#593,.F.);
#610=EDGE_LOOP('',(#606,#607,#608,#609));
#611=FACE_OUTER_BOUND('',#610,.F.);
#612=ADVANCED_FACE('',(#611),#605,.T.);
#613=CLOSED_SHELL('',(#290,#305,#318,#333,#346,#361,#374,#389,#402,#418,#433,
#446,#461,#474,#489,#502,#517,#530,#545,#558,#573,#586,#600,#612));
#614=MANIFOLD_SOLID_BREP('',#613);
#615=CARTESIAN_POINT('',(0,0,-15.95064546427));
#616=DIRECTION('',(0,0,1));
#617=DIRECTION('',(1,0,0));
#618=AXIS2_PLACEMENT_3D('PCS',#615,#616,#617);
#619=CARTESIAN_POINT('',(0,0,-15.95064546427));
#620=DIRECTION('',(0,0,1));
#621=DIRECTION('',(1,0,0));
#622=AXIS2_PLACEMENT_3D('MCS',#619,#620,#621);
#623=CARTESIAN_POINT('',(0,0,-80.95064546427));
#624=DIRECTION('',(0,0,1));
#625=DIRECTION('',(1,0,0));
#626=AXIS2_PLACEMENT_3D('CSW',#623,#624,#625);
#628=DIMENSIONAL_EXPONENTS(0,0,0,0,0,0,0);
#630=PLANE_ANGLE_MEASURE_WITH_UNIT(PLANE_ANGLE_MEASURE(0.01745329251994),#629);
#631=(CONVERSION_BASED_UNIT('DEGREE',#630)NAMED_UNIT(*)PLANE_ANGLE_UNIT());
#633=UNCERTAINTY_MEASURE_WITH_UNIT(LENGTH_MEASURE(0.00721658969),#627,'closure',
'Maximum model space distance between geometric entities at asserted connectivities');
#634=(GEOMETRIC_REPRESENTATION_CONTEXT(3)GLOBAL_UNCERTAINTY_ASSIGNED_CONTEXT((
#633))GLOBAL_UNIT_ASSIGNED_CONTEXT((#627,#631,#632))REPRESENTATION_CONTEXT
('ID1','3'));
#636=APPLICATION_CONTEXT(
'CONFIGURATION CONTROLLED 3D DESIGNS OF MECHANICAL PARTS AND ASSEMBLIES');
#637=APPLICATION_PROTOCOL_DEFINITION('international standard',
'config_control_design',1994,#636);
#638=DESIGN_CONTEXT('',#636,'design');
#639=MECHANICAL_CONTEXT('',#636,'mechanical');
#640=PRODUCT('120_70_04','120_70_04','NOT SPECIFIED',(#639));
#641=PRODUCT_DEFINITION_FORMATION_WITH_SPECIFIED_SOURCE('1','LAST_VERSION',#640,
.MADE.);
#645=PRODUCT_CATEGORY('part','');
#646=PRODUCT_RELATED_PRODUCT_CATEGORY('detail','',(#640));
#647=PRODUCT_CATEGORY_RELATIONSHIP('','',#645,#646);
#648=SECURITY_CLASSIFICATION_LEVEL('unclassified');
#649=SECURITY_CLASSIFICATION('','',#648);
#650=CC_DESIGN_SECURITY_CLASSIFICATION(#649,(#641));
#651=APPROVAL_STATUS('approved');
#652=APPROVAL(#651,'');
#653=CC_DESIGN_APPROVAL(#652,(#649,#641,#642));
#654=CALENDAR_DATE(120,23,9);
#655=COORDINATED_UNIVERSAL_TIME_OFFSET(8,0,.AHEAD.);
#656=LOCAL_TIME(16,3,58,#655);
#657=DATE_AND_TIME(#654,#656);
#658=APPROVAL_DATE_TIME(#657,#652);
#659=DATE_TIME_ROLE('creation_date');
#660=CC_DESIGN_DATE_AND_TIME_ASSIGNMENT(#657,#659,(#642));
#661=DATE_TIME_ROLE('classification_date');
#662=CC_DESIGN_DATE_AND_TIME_ASSIGNMENT(#657,#661,(#649));
#663=PERSON('UNSPECIFIED','UNSPECIFIED',$,$,$,$);
#664=ORGANIZATION('UNSPECIFIED','UNSPECIFIED','UNSPECIFIED');
#665=PERSON_AND_ORGANIZATION(#663,#664);
#666=APPROVAL_ROLE('approver');
#667=APPROVAL_PERSON_ORGANIZATION(#665,#652,#666);
#668=PERSON_AND_ORGANIZATION_ROLE('creator');
#669=CC_DESIGN_PERSON_AND_ORGANIZATION_ASSIGNMENT(#665,#668,(#641,#642));
#670=PERSON_AND_ORGANIZATION_ROLE('design_supplier');
#671=CC_DESIGN_PERSON_AND_ORGANIZATION_ASSIGNMENT(#665,#670,(#641));
#672=PERSON_AND_ORGANIZATION_ROLE('classification_officer');
#673=CC_DESIGN_PERSON_AND_ORGANIZATION_ASSIGNMENT(#665,#672,(#649));
#674=PERSON_AND_ORGANIZATION_ROLE('design_owner');
#675=CC_DESIGN_PERSON_AND_ORGANIZATION_ASSIGNMENT(#665,#674,(#640));
#5=CIRCLE('',#4,2.5);
#10=CIRCLE('',#9,2.5);
#15=CIRCLE('',#14,4.075609508342);
#20=CIRCLE('',#19,4.075609508342);
#33=CIRCLE('',#32,2);
#38=CIRCLE('',#37,2);
#43=CIRCLE('',#42,2);
#56=CIRCLE('',#55,2);
#69=CIRCLE('',#68,3.5);
#74=CIRCLE('',#73,3.5);
#79=CIRCLE('',#78,3.5);
#92=CIRCLE('',#91,3.5);
#97=CIRCLE('',#96,9);
#102=CIRCLE('',#101,9);
#115=CIRCLE('',#114,10);
#120=CIRCLE('',#119,10);
#125=CIRCLE('',#124,10);
#134=CIRCLE('',#133,10);
#151=CIRCLE('',#150,9.5);
#156=CIRCLE('',#155,9.5);
#161=CIRCLE('',#160,9.5);
#174=CIRCLE('',#173,9.5);
#187=CIRCLE('',#186,9.814970423530);
#192=CIRCLE('',#191,9.814970423530);
#197=CIRCLE('',#196,5.072526842075);
#210=CIRCLE('',#209,5.072526842075);
#215=CIRCLE('',#214,1);
#220=CIRCLE('',#219,1);
#278=EDGE_CURVE('',#263,#264,#15,.T.);
#280=EDGE_CURVE('',#264,#263,#20,.T.);
#284=EDGE_CURVE('',#230,#240,#5,.T.);
#286=EDGE_CURVE('',#230,#240,#10,.T.);
#296=EDGE_CURVE('',#228,#230,#24,.T.);
#299=EDGE_CURVE('',#238,#240,#28,.T.);
#301=EDGE_CURVE('',#228,#238,#33,.T.);
#312=EDGE_CURVE('',#228,#238,#38,.T.);
#324=EDGE_CURVE('',#226,#228,#47,.T.);
#326=EDGE_CURVE('',#226,#236,#43,.T.);
#328=EDGE_CURVE('',#236,#238,#51,.T.);
#342=EDGE_CURVE('',#226,#236,#56,.T.);
#352=EDGE_CURVE('',#224,#226,#60,.T.);
#355=EDGE_CURVE('',#234,#236,#64,.T.);
#357=EDGE_CURVE('',#224,#234,#69,.T.);
#368=EDGE_CURVE('',#224,#234,#74,.T.);
#380=EDGE_CURVE('',#223,#224,#83,.T.);
#382=EDGE_CURVE('',#223,#233,#79,.T.);
#384=EDGE_CURVE('',#233,#234,#87,.T.);
#398=EDGE_CURVE('',#223,#233,#92,.T.);
#408=EDGE_CURVE('',#251,#252,#97,.T.);
#410=EDGE_CURVE('',#252,#251,#102,.T.);
#425=EDGE_CURVE('',#252,#256,#110,.T.);
#427=EDGE_CURVE('',#255,#256,#125,.T.);
#429=EDGE_CURVE('',#251,#255,#106,.T.);
#441=EDGE_CURVE('',#256,#255,#115,.T.);
#453=EDGE_CURVE('',#258,#255,#138,.T.);
#455=EDGE_CURVE('',#258,#260,#120,.T.);
#457=EDGE_CURVE('',#260,#256,#129,.T.);
#469=EDGE_CURVE('',#258,#260,#134,.T.);
#480=EDGE_CURVE('',#268,#258,#142,.T.);
#483=EDGE_CURVE('',#272,#260,#146,.T.);
#485=EDGE_CURVE('',#268,#272,#151,.T.);
#496=EDGE_CURVE('',#268,#272,#156,.T.);
#508=EDGE_CURVE('',#266,#268,#165,.T.);
#510=EDGE_CURVE('',#266,#270,#161,.T.);
#512=EDGE_CURVE('',#270,#272,#169,.T.);
#526=EDGE_CURVE('',#266,#270,#174,.T.);
#536=EDGE_CURVE('',#244,#266,#178,.T.);
#539=EDGE_CURVE('',#248,#270,#182,.T.);
#541=EDGE_CURVE('',#244,#248,#187,.T.);
#552=EDGE_CURVE('',#244,#248,#192,.T.);
#564=EDGE_CURVE('',#243,#244,#201,.T.);
#566=EDGE_CURVE('',#247,#243,#197,.T.);
#568=EDGE_CURVE('',#247,#248,#205,.T.);
#582=EDGE_CURVE('',#243,#247,#210,.T.);
#593=EDGE_CURVE('',#247,#263,#220,.T.);
#596=EDGE_CURVE('',#243,#264,#215,.T.);
#627=(LENGTH_UNIT()NAMED_UNIT(*)SI_UNIT(.MILLI.,.METRE.));
#629=(NAMED_UNIT(*)PLANE_ANGLE_UNIT()SI_UNIT($,.RADIAN.));
#632=(NAMED_UNIT(*)SI_UNIT($,.STERADIAN.)SOLID_ANGLE_UNIT());
#635=ADVANCED_BREP_SHAPE_REPRESENTATION('',(#614,#618,#622,#626),#634);
#642=PRODUCT_DEFINITION('design','',#641,#638);
#643=PRODUCT_DEFINITION_SHAPE('','SHAPE FOR 120_70_04.',#642);
#644=SHAPE_DEFINITION_REPRESENTATION(#643,#635);
ENDSEC;
END-ISO-10303-21;
