  0
SECTION
  2
HEADER
  9
$ACADVER
  1
AC1032
  9
$ACADMAINTVER
 90
      228
  9
$DWGCODEPAGE
  3
ANSI_1252
  9
$REQUIREDVERSIONS
160
                 0
  9
$INSBASE
 10
0.0
 20
0.0
 30
0.0
  9
$EXTMIN
 10
1.000000000000000E+20
 20
1.000000000000000E+20
 30
1.000000000000000E+20
  9
$EXTMAX
 10
-1.000000000000000E+20
 20
-1.000000000000000E+20
 30
-1.000000000000000E+20
  9
$LIMMIN
 10
0.0
 20
0.0
  9
$LIMMAX
 10
12.0
 20
9.0
  9
$ORTHOMODE
 70
     0
  9
$REGENMODE
 70
     1
  9
$FILLMODE
 70
     1
  9
$QTEXTMODE
 70
     0
  9
$MIRRTEXT
 70
     0
  9
$LTSCALE
 40
1.0
  9
$ATTMODE
 70
     1
  9
$TEXTSIZE
 40
0.2
  9
$TRACEWID
 40
0.05
  9
$TEXTSTYLE
  7
Standard
  9
$CLAYER
  8
0
  9
$CELTYPE
  6
ByLayer
  9
$CECOLOR
 62
   256
  9
$CELTSCALE
 40
1.0
  9
$DISPSILH
 70
     0
  9
$DIMSCALE
 40
1.0
  9
$DIMASZ
 40
0.18
  9
$DIMEXO
 40
0.0625
  9
$DIMDLI
 40
0.38
  9
$DIMRND
 40
0.0
  9
$DIMDLE
 40
0.0
  9
$DIMEXE
 40
0.18
  9
$DIMTP
 40
0.0
  9
$DIMTM
 40
0.0
  9
$DIMTXT
 40
0.18
  9
$DIMCEN
 40
0.09
  9
$DIMTSZ
 40
0.0
  9
$DIMTOL
 70
     0
  9
$DIMLIM
 70
     0
  9
$DIMTIH
 70
     1
  9
$DIMTOH
 70
     1
  9
$DIMSE1
 70
     0
  9
$DIMSE2
 70
     0
  9
$DIMTAD
 70
     0
  9
$DIMZIN
 70
     0
  9
$DIMBLK
  1

  9
$DIMASO
 70
     1
  9
$DIMSHO
 70
     1
  9
$DIMPOST
  1

  9
$DIMAPOST
  1

  9
$DIMALT
 70
     0
  9
$DIMALTD
 70
     2
  9
$DIMALTF
 40
25.4
  9
$DIMLFAC
 40
1.0
  9
$DIMTOFL
 70
     0
  9
$DIMTVP
 40
0.0
  9
$DIMTIX
 70
     0
  9
$DIMSOXD
 70
     0
  9
$DIMSAH
 70
     0
  9
$DIMBLK1
  1

  9
$DIMBLK2
  1

  9
$DIMSTYLE
  2
Standard
  9
$DIMCLRD
 70
     0
  9
$DIMCLRE
 70
     0
  9
$DIMCLRT
 70
     0
  9
$DIMTFAC
 40
1.0
  9
$DIMGAP
 40
0.09
  9
$DIMJUST
 70
     0
  9
$DIMSD1
 70
     0
  9
$DIMSD2
 70
     0
  9
$DIMTOLJ
 70
     1
  9
$DIMTZIN
 70
     0
  9
$DIMALTZ
 70
     0
  9
$DIMALTTZ
 70
     0
  9
$DIMUPT
 70
     0
  9
$DIMDEC
 70
     4
  9
$DIMTDEC
 70
     4
  9
$DIMALTU
 70
     2
  9
$DIMALTTD
 70
     2
  9
$DIMTXSTY
  7
Standard
  9
$DIMAUNIT
 70
     0
  9
$DIMADEC
 70
     0
  9
$DIMALTRND
 40
0.0
  9
$DIMAZIN
 70
     0
  9
$DIMDSEP
 70
    46
  9
$DIMATFIT
 70
     3
  9
$DIMFRAC
 70
     0
  9
$DIMLDRBLK
  1

  9
$DIMLUNIT
 70
     2
  9
$DIMLWD
 70
    -2
  9
$DIMLWE
 70
    -2
  9
$DIMTMOVE
 70
     0
  9
$DIMFXL
 40
1.0
  9
$DIMFXLON
 70
     0
  9
$DIMJOGANG
 40
0.7853981633974483
  9
$DIMTFILL
 70
     0
  9
$DIMTFILLCLR
 70
     0
  9
$DIMARCSYM
 70
     0
  9
$DIMLTYPE
  6

  9
$DIMLTEX1
  6

  9
$DIMLTEX2
  6

  9
$DIMTXTDIRECTION
 70
     0
  9
$LUNITS
 70
     2
  9
$LUPREC
 70
     4
  9
$SKETCHINC
 40
0.1
  9
$FILLETRAD
 40
0.0
  9
$AUNITS
 70
     0
  9
$AUPREC
 70
     0
  9
$MENU
  1
.
  9
$ELEVATION
 40
0.0
  9
$PELEVATION
 40
0.0
  9
$THICKNESS
 40
0.0
  9
$LIMCHECK
 70
     0
  9
$CHAMFERA
 40
0.0
  9
$CHAMFERB
 40
0.0
  9
$CHAMFERC
 40
0.0
  9
$CHAMFERD
 40
0.0
  9
$SKPOLY
 70
     0
  9
$TDCREATE
 40
2460136.401956019
  9
$TDUCREATE
 40
2460136.318622685
  9
$TDUPDATE
 40
2460136.401956019
  9
$TDUUPDATE
 40
2460136.318622685
  9
$TDINDWG
 40
0.0000000000
  9
$TDUSRTIMER
 40
0.0000000000
  9
$USRTIMER
 70
     1
  9
$ANGBASE
 50
0.0
  9
$ANGDIR
 70
     0
  9
$PDMODE
 70
     0
  9
$PDSIZE
 40
0.0
  9
$PLINEWID
 40
0.0
  9
$SPLFRAME
 70
     0
  9
$SPLINETYPE
 70
     6
  9
$SPLINESEGS
 70
     8
  9
$HANDSEED
  5
197
  9
$SURFTAB1
 70
     6
  9
$SURFTAB2
 70
     6
  9
$SURFTYPE
 70
     6
  9
$SURFU
 70
     6
  9
$SURFV
 70
     6
  9
$UCSBASE
  2

  9
$UCSNAME
  2

  9
$UCSORG
 10
0.0
 20
0.0
 30
0.0
  9
$UCSXDIR
 10
1.0
 20
0.0
 30
0.0
  9
$UCSYDIR
 10
0.0
 20
1.0
 30
0.0
  9
$UCSORTHOREF
  2

  9
$UCSORTHOVIEW
 70
     0
  9
$UCSORGTOP
 10
0.0
 20
0.0
 30
0.0
  9
$UCSORGBOTTOM
 10
0.0
 20
0.0
 30
0.0
  9
$UCSORGLEFT
 10
0.0
 20
0.0
 30
0.0
  9
$UCSORGRIGHT
 10
0.0
 20
0.0
 30
0.0
  9
$UCSORGFRONT
 10
0.0
 20
0.0
 30
0.0
  9
$UCSORGBACK
 10
0.0
 20
0.0
 30
0.0
  9
$PUCSBASE
  2

  9
$PUCSNAME
  2

  9
$PUCSORG
 10
0.0
 20
0.0
 30
0.0
  9
$PUCSXDIR
 10
1.0
 20
0.0
 30
0.0
  9
$PUCSYDIR
 10
0.0
 20
1.0
 30
0.0
  9
$PUCSORTHOREF
  2

  9
$PUCSORTHOVIEW
 70
     0
  9
$PUCSORGTOP
 10
0.0
 20
0.0
 30
0.0
  9
$PUCSORGBOTTOM
 10
0.0
 20
0.0
 30
0.0
  9
$PUCSORGLEFT
 10
0.0
 20
0.0
 30
0.0
  9
$PUCSORGRIGHT
 10
0.0
 20
0.0
 30
0.0
  9
$PUCSORGFRONT
 10
0.0
 20
0.0
 30
0.0
  9
$PUCSORGBACK
 10
0.0
 20
0.0
 30
0.0
  9
$USERI1
 70
     0
  9
$USERI2
 70
     0
  9
$USERI3
 70
     0
  9
$USERI4
 70
     0
  9
$USERI5
 70
     0
  9
$USERR1
 40
0.0
  9
$USERR2
 40
0.0
  9
$USERR3
 40
0.0
  9
$USERR4
 40
0.0
  9
$USERR5
 40
0.0
  9
$WORLDVIEW
 70
     1
  9
$SHADEDGE
 70
     3
  9
$SHADEDIF
 70
    70
  9
$TILEMODE
 70
     1
  9
$MAXACTVP
 70
    64
  9
$PINSBASE
 10
0.0
 20
0.0
 30
0.0
  9
$PLIMCHECK
 70
     0
  9
$PEXTMIN
 10
1.000000000000000E+20
 20
1.000000000000000E+20
 30
1.000000000000000E+20
  9
$PEXTMAX
 10
-1.000000000000000E+20
 20
-1.000000000000000E+20
 30
-1.000000000000000E+20
  9
$PLIMMIN
 10
0.0
 20
0.0
  9
$PLIMMAX
 10
12.0
 20
9.0
  9
$UNITMODE
 70
     0
  9
$VISRETAIN
 70
     1
  9
$PLINEGEN
 70
     0
  9
$PSLTSCALE
 70
     1
  9
$TREEDEPTH
 70
  3020
  9
$CMLSTYLE
  2
Standard
  9
$CMLJUST
 70
     0
  9
$CMLSCALE
 40
1.0
  9
$PROXYGRAPHICS
 70
     1
  9
$MEASUREMENT
 70
     0
  9
$CELWEIGHT
370
    -1
  9
$ENDCAPS
280
     0
  9
$JOINSTYLE
280
     0
  9
$LWDISPLAY
290
     1
  9
$INSUNITS
 70
     4
  9
$HYPERLINKBASE
  1

  9
$STYLESHEET
  1

  9
$XEDIT
290
     1
  9
$CEPSNTYPE
380
     0
  9
$PSTYLEMODE
290
     1
  9
$FINGERPRINTGUID
  2
{EB513F09-E3C1-334A-AD16-92F49E6648F7}
  9
$VERSIONGUID
  2
{48689F1B-7FCA-1D40-A343-3D06FFA9EBDA}
  9
$EXTNAMES
290
     1
  9
$PSVPSCALE
 40
0.0
  9
$OLESTARTUP
290
     0
  9
$SORTENTS
280
   127
  9
$INDEXCTL
280
     0
  9
$HIDETEXT
280
     1
  9
$XCLIPFRAME
280
     2
  9
$HALOGAP
280
     0
  9
$OBSCOLOR
 70
   257
  9
$OBSLTYPE
280
     0
  9
$INTERSECTIONDISPLAY
280
     0
  9
$INTERSECTIONCOLOR
 70
   257
  9
$DIMASSOC
280
     2
  9
$PROJECTNAME
  1

  9
$CAMERADISPLAY
290
     0
  9
$LENSLENGTH
 40
50.0
  9
$CAMERAHEIGHT
 40
0.0
  9
$STEPSPERSEC
 40
2.0
  9
$STEPSIZE
 40
6.0
  9
$3DDWFPREC
 40
2.0
  9
$PSOLWIDTH
 40
0.25
  9
$PSOLHEIGHT
 40
4.0
  9
$LOFTANG1
 40
1.570796326794896
  9
$LOFTANG2
 40
1.570796326794896
  9
$LOFTMAG1
 40
0.0
  9
$LOFTMAG2
 40
0.0
  9
$LOFTPARAM
 70
     7
  9
$LOFTNORMALS
280
     1
  9
$LATITUDE
 40
37.795
  9
$LONGITUDE
 40
-122.394
  9
$NORTHDIRECTION
 40
0.0
  9
$TIMEZONE
 70
 -8000
  9
$LIGHTGLYPHDISPLAY
280
     1
  9
$TILEMODELIGHTSYNCH
280
     1
  9
$CMATERIAL
347
11
  9
$SOLIDHIST
280
     0
  9
$SHOWHIST
280
     1
  9
$DWFFRAME
280
     2
  9
$DGNFRAME
280
     0
  9
$REALWORLDSCALE
290
     1
  9
$INTERFERECOLOR
 62
     1
  9
$INTERFEREOBJVS
345
33
  9
$INTERFEREVPVS
346
30
  9
$CSHADOW
280
     0
  9
$SHADOWPLANELOCATION
 40
0.0
  0
ENDSEC
  0
SECTION
  2
CLASSES
  0
CLASS
  1
ACDBDICTIONARYWDFLT
  2
AcDbDictionaryWithDefault
  3
ObjectDBX Classes
 90
        0
 91
        1
280
     0
281
     0
  0
CLASS
  1
MATERIAL
  2
AcDbMaterial
  3
ObjectDBX Classes
 90
     1153
 91
        3
280
     0
281
     0
  0
CLASS
  1
VISUALSTYLE
  2
AcDbVisualStyle
  3
ObjectDBX Classes
 90
     4095
 91
       24
280
     0
281
     0
  0
CLASS
  1
SCALE
  2
AcDbScale
  3
ObjectDBX Classes
 90
     1153
 91
       17
280
     0
281
     0
  0
CLASS
  1
TABLESTYLE
  2
AcDbTableStyle
  3
ObjectDBX Classes
 90
     4095
 91
        1
280
     0
281
     0
  0
CLASS
  1
MLEADERSTYLE
  2
AcDbMLeaderStyle
  3
ACDB_MLEADERSTYLE_CLASS
 90
     4095
 91
        1
280
     0
281
     0
  0
CLASS
  1
ACDBSECTIONVIEWSTYLE
  2
AcDbSectionViewStyle
  3
ObjectDBX Classes
 90
     1025
 91
        1
280
     0
281
     0
  0
CLASS
  1
ACDBDETAILVIEWSTYLE
  2
AcDbDetailViewStyle
  3
ObjectDBX Classes
 90
     1025
 91
        1
280
     0
281
     0
  0
CLASS
  1
DICTIONARYVAR
  2
AcDbDictionaryVar
  3
ObjectDBX Classes
 90
        0
 91
        5
280
     0
281
     0
  0
CLASS
  1
CELLSTYLEMAP
  2
AcDbCellStyleMap
  3
ObjectDBX Classes
 90
     1152
 91
        1
280
     0
281
     0
  0
ENDSEC
  0
SECTION
  2
TABLES
  0
TABLE
  2
VPORT
  5
8
330
0
100
AcDbSymbolTable
 70
     1
  0
VPORT
  5
57
330
8
100
AcDbSymbolTableRecord
100
AcDbViewportTableRecord
  2
*Active
 70
     0
 10
0.0
 20
0.0
 11
1.0
 21
1.0
 12
0.0
 22
0.0
 13
0.0
 23
0.0
 14
1.0
 24
1.0
 15
0.0
 25
0.0
 16
0.0
 26
0.0
 36
1.0
 17
105.3041666403406
 27
148.5000119155985
 37
0.0
 40
302.940024307821
 41
0.968417430711964
 42
50.0
 43
0.0
 44
0.0
 50
0.0
 51
0.0
 71
     0
 72
   100
 73
     1
 74
     1
 75
     0
 76
     0
 77
     0
 78
     0
281
     0
 65
     1
110
0.0
120
0.0
130
0.0
111
1.0
121
0.0
131
0.0
112
0.0
122
1.0
132
0.0
 79
     0
146
0.0
 60
     3
 61
     5
292
     1
282
     1
141
0.0
142
0.0
 63
   250
421
  3355443
  0
ENDTAB
  0
TABLE
  2
LTYPE
  5
5
330
0
100
AcDbSymbolTable
 70
    51
  0
LTYPE
  5
5B
330
5
100
AcDbSymbolTableRecord
100
AcDbLinetypeTableRecord
  2
ByBlock
 70
     0
  3

 72
    65
 73
     0
 40
0.0
  0
LTYPE
  5
5C
330
5
100
AcDbSymbolTableRecord
100
AcDbLinetypeTableRecord
  2
ByLayer
 70
     0
  3

 72
    65
 73
     0
 40
0.0
  0
LTYPE
  5
5D
330
5
100
AcDbSymbolTableRecord
100
AcDbLinetypeTableRecord
  2
Continuous
 70
     0
  3
Solid line
 72
    65
 73
     0
 40
0.0
  0
LTYPE
  5
AE
330
5
100
AcDbSymbolTableRecord
100
AcDbLinetypeTableRecord
  2
AI-Linetype-0
 70
     0
  3
Adobe Illustrator Linetype No. 0
 72
    65
 73
     2
 40
0.200000009718539
 49
0.1000000048592695
 74
     0
 49
-0.1000000048592695
 74
     0
  0
LTYPE
  5
B0
330
5
100
AcDbSymbolTableRecord
100
AcDbLinetypeTableRecord
  2
AI-Linetype-1
 70
     0
  3
Adobe Illustrator Linetype No. 1
 72
    65
 73
     2
 40
0.200000009718539
 49
0.1000000048592695
 74
     0
 49
-0.1000000048592695
 74
     0
  0
LTYPE
  5
B2
330
5
100
AcDbSymbolTableRecord
100
AcDbLinetypeTableRecord
  2
AI-Linetype-2
 70
     0
  3
Adobe Illustrator Linetype No. 2
 72
    65
 73
     2
 40
0.200000009718539
 49
0.1000000048592695
 74
     0
 49
-0.1000000048592695
 74
     0
  0
LTYPE
  5
B4
330
5
100
AcDbSymbolTableRecord
100
AcDbLinetypeTableRecord
  2
AI-Linetype-3
 70
     0
  3
Adobe Illustrator Linetype No. 3
 72
    65
 73
     2
 40
0.200000009718539
 49
0.1000000048592695
 74
     0
 49
-0.1000000048592695
 74
     0
  0
LTYPE
  5
B6
330
5
100
AcDbSymbolTableRecord
100
AcDbLinetypeTableRecord
  2
AI-Linetype-4
 70
     0
  3
Adobe Illustrator Linetype No. 4
 72
    65
 73
     2
 40
0.200000009718539
 49
0.1000000048592695
 74
     0
 49
-0.1000000048592695
 74
     0
  0
LTYPE
  5
B8
330
5
100
AcDbSymbolTableRecord
100
AcDbLinetypeTableRecord
  2
AI-Linetype-5
 70
     0
  3
Adobe Illustrator Linetype No. 5
 72
    65
 73
     2
 40
0.200000009718539
 49
0.1000000048592695
 74
     0
 49
-0.1000000048592695
 74
     0
  0
LTYPE
  5
BA
330
5
100
AcDbSymbolTableRecord
100
AcDbLinetypeTableRecord
  2
AI-Linetype-6
 70
     0
  3
Adobe Illustrator Linetype No. 6
 72
    65
 73
     2
 40
0.200000009718539
 49
0.1000000048592695
 74
     0
 49
-0.1000000048592695
 74
     0
  0
LTYPE
  5
BC
330
5
100
AcDbSymbolTableRecord
100
AcDbLinetypeTableRecord
  2
AI-Linetype-7
 70
     0
  3
Adobe Illustrator Linetype No. 7
 72
    65
 73
     2
 40
0.200000009718539
 49
0.1000000048592695
 74
     0
 49
-0.1000000048592695
 74
     0
  0
LTYPE
  5
BE
330
5
100
AcDbSymbolTableRecord
100
AcDbLinetypeTableRecord
  2
AI-Linetype-8
 70
     0
  3
Adobe Illustrator Linetype No. 8
 72
    65
 73
     2
 40
0.200000009718539
 49
0.1000000048592695
 74
     0
 49
-0.1000000048592695
 74
     0
  0
LTYPE
  5
C0
330
5
100
AcDbSymbolTableRecord
100
AcDbLinetypeTableRecord
  2
AI-Linetype-9
 70
     0
  3
Adobe Illustrator Linetype No. 9
 72
    65
 73
     2
 40
0.200000009718539
 49
0.1000000048592695
 74
     0
 49
-0.1000000048592695
 74
     0
  0
LTYPE
  5
C2
330
5
100
AcDbSymbolTableRecord
100
AcDbLinetypeTableRecord
  2
AI-Linetype-10
 70
     0
  3
Adobe Illustrator Linetype No. 10
 72
    65
 73
     2
 40
0.200000009718539
 49
0.1000000048592695
 74
     0
 49
-0.1000000048592695
 74
     0
  0
LTYPE
  5
C4
330
5
100
AcDbSymbolTableRecord
100
AcDbLinetypeTableRecord
  2
AI-Linetype-11
 70
     0
  3
Adobe Illustrator Linetype No. 11
 72
    65
 73
     2
 40
0.200000009718539
 49
0.1000000048592695
 74
     0
 49
-0.1000000048592695
 74
     0
  0
LTYPE
  5
C6
330
5
100
AcDbSymbolTableRecord
100
AcDbLinetypeTableRecord
  2
AI-Linetype-12
 70
     0
  3
Adobe Illustrator Linetype No. 12
 72
    65
 73
     2
 40
0.200000009718539
 49
0.1000000048592695
 74
     0
 49
-0.1000000048592695
 74
     0
  0
LTYPE
  5
C8
330
5
100
AcDbSymbolTableRecord
100
AcDbLinetypeTableRecord
  2
AI-Linetype-13
 70
     0
  3
Adobe Illustrator Linetype No. 13
 72
    65
 73
     2
 40
0.200000009718539
 49
0.1000000048592695
 74
     0
 49
-0.1000000048592695
 74
     0
  0
LTYPE
  5
CA
330
5
100
AcDbSymbolTableRecord
100
AcDbLinetypeTableRecord
  2
AI-Linetype-14
 70
     0
  3
Adobe Illustrator Linetype No. 14
 72
    65
 73
     2
 40
0.200000009718539
 49
0.1000000048592695
 74
     0
 49
-0.1000000048592695
 74
     0
  0
LTYPE
  5
CC
330
5
100
AcDbSymbolTableRecord
100
AcDbLinetypeTableRecord
  2
AI-Linetype-15
 70
     0
  3
Adobe Illustrator Linetype No. 15
 72
    65
 73
     2
 40
0.200000009718539
 49
0.1000000048592695
 74
     0
 49
-0.1000000048592695
 74
     0
  0
LTYPE
  5
CE
330
5
100
AcDbSymbolTableRecord
100
AcDbLinetypeTableRecord
  2
AI-Linetype-16
 70
     0
  3
Adobe Illustrator Linetype No. 16
 72
    65
 73
     2
 40
0.200000009718539
 49
0.1000000048592695
 74
     0
 49
-0.1000000048592695
 74
     0
  0
LTYPE
  5
D0
330
5
100
AcDbSymbolTableRecord
100
AcDbLinetypeTableRecord
  2
AI-Linetype-17
 70
     0
  3
Adobe Illustrator Linetype No. 17
 72
    65
 73
     2
 40
0.200000009718539
 49
0.1000000048592695
 74
     0
 49
-0.1000000048592695
 74
     0
  0
LTYPE
  5
D2
330
5
100
AcDbSymbolTableRecord
100
AcDbLinetypeTableRecord
  2
AI-Linetype-18
 70
     0
  3
Adobe Illustrator Linetype No. 18
 72
    65
 73
     2
 40
0.200000009718539
 49
0.1000000048592695
 74
     0
 49
-0.1000000048592695
 74
     0
  0
LTYPE
  5
D4
330
5
100
AcDbSymbolTableRecord
100
AcDbLinetypeTableRecord
  2
AI-Linetype-19
 70
     0
  3
Adobe Illustrator Linetype No. 19
 72
    65
 73
     2
 40
0.200000009718539
 49
0.1000000048592695
 74
     0
 49
-0.1000000048592695
 74
     0
  0
LTYPE
  5
D6
330
5
100
AcDbSymbolTableRecord
100
AcDbLinetypeTableRecord
  2
AI-Linetype-20
 70
     0
  3
Adobe Illustrator Linetype No. 20
 72
    65
 73
     2
 40
0.200000009718539
 49
0.1000000048592695
 74
     0
 49
-0.1000000048592695
 74
     0
  0
LTYPE
  5
D8
330
5
100
AcDbSymbolTableRecord
100
AcDbLinetypeTableRecord
  2
AI-Linetype-21
 70
     0
  3
Adobe Illustrator Linetype No. 21
 72
    65
 73
     2
 40
0.200000009718539
 49
0.1000000048592695
 74
     0
 49
-0.1000000048592695
 74
     0
  0
LTYPE
  5
DA
330
5
100
AcDbSymbolTableRecord
100
AcDbLinetypeTableRecord
  2
AI-Linetype-22
 70
     0
  3
Adobe Illustrator Linetype No. 22
 72
    65
 73
     2
 40
0.200000009718539
 49
0.1000000048592695
 74
     0
 49
-0.1000000048592695
 74
     0
  0
LTYPE
  5
DC
330
5
100
AcDbSymbolTableRecord
100
AcDbLinetypeTableRecord
  2
AI-Linetype-23
 70
     0
  3
Adobe Illustrator Linetype No. 23
 72
    65
 73
     2
 40
0.200000009718539
 49
0.1000000048592695
 74
     0
 49
-0.1000000048592695
 74
     0
  0
LTYPE
  5
DE
330
5
100
AcDbSymbolTableRecord
100
AcDbLinetypeTableRecord
  2
AI-Linetype-24
 70
     0
  3
Adobe Illustrator Linetype No. 24
 72
    65
 73
     2
 40
0.200000009718539
 49
0.1000000048592695
 74
     0
 49
-0.1000000048592695
 74
     0
  0
LTYPE
  5
E0
330
5
100
AcDbSymbolTableRecord
100
AcDbLinetypeTableRecord
  2
AI-Linetype-25
 70
     0
  3
Adobe Illustrator Linetype No. 25
 72
    65
 73
     2
 40
0.200000009718539
 49
0.1000000048592695
 74
     0
 49
-0.1000000048592695
 74
     0
  0
LTYPE
  5
E2
330
5
100
AcDbSymbolTableRecord
100
AcDbLinetypeTableRecord
  2
AI-Linetype-26
 70
     0
  3
Adobe Illustrator Linetype No. 26
 72
    65
 73
     2
 40
0.200000009718539
 49
0.1000000048592695
 74
     0
 49
-0.1000000048592695
 74
     0
  0
LTYPE
  5
E4
330
5
100
AcDbSymbolTableRecord
100
AcDbLinetypeTableRecord
  2
AI-Linetype-27
 70
     0
  3
Adobe Illustrator Linetype No. 27
 72
    65
 73
     2
 40
0.200000009718539
 49
0.1000000048592695
 74
     0
 49
-0.1000000048592695
 74
     0
  0
LTYPE
  5
E6
330
5
100
AcDbSymbolTableRecord
100
AcDbLinetypeTableRecord
  2
AI-Linetype-28
 70
     0
  3
Adobe Illustrator Linetype No. 28
 72
    65
 73
     2
 40
0.200000009718539
 49
0.1000000048592695
 74
     0
 49
-0.1000000048592695
 74
     0
  0
LTYPE
  5
E8
330
5
100
AcDbSymbolTableRecord
100
AcDbLinetypeTableRecord
  2
AI-Linetype-29
 70
     0
  3
Adobe Illustrator Linetype No. 29
 72
    65
 73
     2
 40
0.200000009718539
 49
0.1000000048592695
 74
     0
 49
-0.1000000048592695
 74
     0
  0
LTYPE
  5
EA
330
5
100
AcDbSymbolTableRecord
100
AcDbLinetypeTableRecord
  2
AI-Linetype-30
 70
     0
  3
Adobe Illustrator Linetype No. 30
 72
    65
 73
     2
 40
0.200000009718539
 49
0.1000000048592695
 74
     0
 49
-0.1000000048592695
 74
     0
  0
LTYPE
  5
EC
330
5
100
AcDbSymbolTableRecord
100
AcDbLinetypeTableRecord
  2
AI-Linetype-31
 70
     0
  3
Adobe Illustrator Linetype No. 31
 72
    65
 73
     2
 40
0.200000009718539
 49
0.1000000048592695
 74
     0
 49
-0.1000000048592695
 74
     0
  0
LTYPE
  5
EF
330
5
100
AcDbSymbolTableRecord
100
AcDbLinetypeTableRecord
  2
AI-Linetype-32
 70
     0
  3
Adobe Illustrator Linetype No. 32
 72
    65
 73
     2
 40
0.200000009718539
 49
0.1000000048592695
 74
     0
 49
-0.1000000048592695
 74
     0
  0
LTYPE
  5
F1
330
5
100
AcDbSymbolTableRecord
100
AcDbLinetypeTableRecord
  2
AI-Linetype-33
 70
     0
  3
Adobe Illustrator Linetype No. 33
 72
    65
 73
     2
 40
0.200000009718539
 49
0.1000000048592695
 74
     0
 49
-0.1000000048592695
 74
     0
  0
LTYPE
  5
F3
330
5
100
AcDbSymbolTableRecord
100
AcDbLinetypeTableRecord
  2
AI-Linetype-34
 70
     0
  3
Adobe Illustrator Linetype No. 34
 72
    65
 73
     2
 40
0.200000009718539
 49
0.1000000048592695
 74
     0
 49
-0.1000000048592695
 74
     0
  0
LTYPE
  5
F5
330
5
100
AcDbSymbolTableRecord
100
AcDbLinetypeTableRecord
  2
AI-Linetype-35
 70
     0
  3
Adobe Illustrator Linetype No. 35
 72
    65
 73
     2
 40
0.200000009718539
 49
0.1000000048592695
 74
     0
 49
-0.1000000048592695
 74
     0
  0
LTYPE
  5
F7
330
5
100
AcDbSymbolTableRecord
100
AcDbLinetypeTableRecord
  2
AI-Linetype-36
 70
     0
  3
Adobe Illustrator Linetype No. 36
 72
    65
 73
     2
 40
0.200000009718539
 49
0.1000000048592695
 74
     0
 49
-0.1000000048592695
 74
     0
  0
LTYPE
  5
F9
330
5
100
AcDbSymbolTableRecord
100
AcDbLinetypeTableRecord
  2
AI-Linetype-37
 70
     0
  3
Adobe Illustrator Linetype No. 37
 72
    65
 73
     2
 40
0.200000009718539
 49
0.1000000048592695
 74
     0
 49
-0.1000000048592695
 74
     0
  0
LTYPE
  5
FB
330
5
100
AcDbSymbolTableRecord
100
AcDbLinetypeTableRecord
  2
AI-Linetype-38
 70
     0
  3
Adobe Illustrator Linetype No. 38
 72
    65
 73
     2
 40
0.200000009718539
 49
0.1000000048592695
 74
     0
 49
-0.1000000048592695
 74
     0
  0
LTYPE
  5
FD
330
5
100
AcDbSymbolTableRecord
100
AcDbLinetypeTableRecord
  2
AI-Linetype-39
 70
     0
  3
Adobe Illustrator Linetype No. 39
 72
    65
 73
     2
 40
0.200000009718539
 49
0.1000000048592695
 74
     0
 49
-0.1000000048592695
 74
     0
  0
LTYPE
  5
FF
330
5
100
AcDbSymbolTableRecord
100
AcDbLinetypeTableRecord
  2
AI-Linetype-40
 70
     0
  3
Adobe Illustrator Linetype No. 40
 72
    65
 73
     2
 40
0.200000009718539
 49
0.1000000048592695
 74
     0
 49
-0.1000000048592695
 74
     0
  0
LTYPE
  5
14C
330
5
100
AcDbSymbolTableRecord
100
AcDbLinetypeTableRecord
  2
AI-Linetype-41
 70
     0
  3
Adobe Illustrator Linetype No. 41
 72
    65
 73
     4
 40
0.9500000041086719
 49
0.624999996201244
 74
     0
 49
-0.1250000034456876
 74
     0
 49
0.0750000010160529
 74
     0
 49
-0.1250000034456876
 74
     0
  0
LTYPE
  5
14E
330
5
100
AcDbSymbolTableRecord
100
AcDbLinetypeTableRecord
  2
AI-Linetype-42
 70
     0
  3
Adobe Illustrator Linetype No. 42
 72
    65
 73
     2
 40
0.200000009718539
 49
0.1000000048592695
 74
     0
 49
-0.1000000048592695
 74
     0
  0
LTYPE
  5
150
330
5
100
AcDbSymbolTableRecord
100
AcDbLinetypeTableRecord
  2
AI-Linetype-43
 70
     0
  3
Adobe Illustrator Linetype No. 43
 72
    65
 73
     2
 40
0.200000009718539
 49
0.1000000048592695
 74
     0
 49
-0.1000000048592695
 74
     0
  0
LTYPE
  5
152
330
5
100
AcDbSymbolTableRecord
100
AcDbLinetypeTableRecord
  2
AI-Linetype-44
 70
     0
  3
Adobe Illustrator Linetype No. 44
 72
    65
 73
     2
 40
0.200000009718539
 49
0.1000000048592695
 74
     0
 49
-0.1000000048592695
 74
     0
  0
LTYPE
  5
154
330
5
100
AcDbSymbolTableRecord
100
AcDbLinetypeTableRecord
  2
AI-Linetype-45
 70
     0
  3
Adobe Illustrator Linetype No. 45
 72
    65
 73
     2
 40
0.200000009718539
 49
0.1000000048592695
 74
     0
 49
-0.1000000048592695
 74
     0
  0
LTYPE
  5
156
330
5
100
AcDbSymbolTableRecord
100
AcDbLinetypeTableRecord
  2
AI-Linetype-46
 70
     0
  3
Adobe Illustrator Linetype No. 46
 72
    65
 73
     2
 40
0.200000009718539
 49
0.1000000048592695
 74
     0
 49
-0.1000000048592695
 74
     0
  0
LTYPE
  5
158
330
5
100
AcDbSymbolTableRecord
100
AcDbLinetypeTableRecord
  2
AI-Linetype-47
 70
     0
  3
Adobe Illustrator Linetype No. 47
 72
    65
 73
     2
 40
0.200000009718539
 49
0.1000000048592695
 74
     0
 49
-0.1000000048592695
 74
     0
  0
LTYPE
  5
15A
330
5
100
AcDbSymbolTableRecord
100
AcDbLinetypeTableRecord
  2
AI-Linetype-48
 70
     0
  3
Adobe Illustrator Linetype No. 48
 72
    65
 73
     2
 40
0.200000009718539
 49
0.1000000048592695
 74
     0
 49
-0.1000000048592695
 74
     0
  0
LTYPE
  5
15C
330
5
100
AcDbSymbolTableRecord
100
AcDbLinetypeTableRecord
  2
AI-Linetype-49
 70
     0
  3
Adobe Illustrator Linetype No. 49
 72
    65
 73
     2
 40
0.200000009718539
 49
0.1000000048592695
 74
     0
 49
-0.1000000048592695
 74
     0
  0
ENDTAB
  0
TABLE
  2
LAYER
  5
2
330
0
100
AcDbSymbolTable
 70
     2
  0
LAYER
  5
54
330
2
100
AcDbSymbolTableRecord
100
AcDbLayerTableRecord
  2
0
 70
     0
 62
     7
  6
Continuous
370
    -3
390
F
347
21
348
0
  0
LAYER
  5
78
330
2
100
AcDbSymbolTableRecord
100
AcDbLayerTableRecord
  2
CK_LEVEL_1
 70
     0
 62
     7
  6
Continuous
370
     0
390
F
347
21
348
0
  0
ENDTAB
  0
TABLE
  2
STYLE
  5
3
330
0
100
AcDbSymbolTable
 70
     2
  0
STYLE
  5
55
330
3
100
AcDbSymbolTableRecord
100
AcDbTextStyleTableRecord
  2
Standard
 70
     0
 40
0.0
 41
1.0
 50
0.0
 71
     0
 42
0.2
  3
txt
  4

  0
STYLE
  5
5A
330
3
100
AcDbSymbolTableRecord
100
AcDbTextStyleTableRecord
  2
Annotative
 70
     0
 40
0.0
 41
1.0
 50
0.0
 71
     0
 42
0.2
  3
txt
  4

1001
AcadAnnotative
1000
AnnotativeData
1002
{
1070
     1
1070
     1
1002
}
  0
ENDTAB
  0
TABLE
  2
VIEW
  5
6
330
0
100
AcDbSymbolTable
 70
     0
  0
ENDTAB
  0
TABLE
  2
UCS
  5
7
330
0
100
AcDbSymbolTable
 70
     0
  0
ENDTAB
  0
TABLE
  2
APPID
  5
9
330
0
100
AcDbSymbolTable
 70
     2
  0
APPID
  5
56
330
9
100
AcDbSymbolTableRecord
100
AcDbRegAppTableRecord
  2
ACAD
 70
     0
  0
APPID
  5
5E
330
9
100
AcDbSymbolTableRecord
100
AcDbRegAppTableRecord
  2
AcadAnnotative
 70
     0
  0
ENDTAB
  0
TABLE
  2
DIMSTYLE
  5
A
330
0
100
AcDbSymbolTable
 70
     2
100
AcDbDimStyleTable
 71
     0
  0
DIMSTYLE
105
58
330
A
100
AcDbSymbolTableRecord
100
AcDbDimStyleTableRecord
  2
Standard
 70
     0
340
55
  0
DIMSTYLE
105
59
330
A
100
AcDbSymbolTableRecord
100
AcDbDimStyleTableRecord
  2
Annotative
 70
     0
340
55
1001
AcadAnnotative
1000
AnnotativeData
1002
{
1070
     1
1070
     1
1002
}
  0
ENDTAB
  0
TABLE
  2
BLOCK_RECORD
  5
1
330
0
100
AcDbSymbolTable
 70
     5
  0
BLOCK_RECORD
  5
70
330
1
100
AcDbSymbolTableRecord
100
AcDbBlockTableRecord
  2
*Model_Space
340
73
 70
     0
280
     1
281
     0
  0
BLOCK_RECORD
  5
6C
330
1
100
AcDbSymbolTableRecord
100
AcDbBlockTableRecord
  2
*Paper_Space
340
6F
 70
     0
280
     1
281
     0
  0
BLOCK_RECORD
  5
74
330
1
100
AcDbSymbolTableRecord
100
AcDbBlockTableRecord
  2
*Paper_Space0
340
77
 70
     0
280
     1
281
     0
  0
BLOCK_RECORD
  5
15D
330
1
100
AcDbSymbolTableRecord
100
AcDbBlockTableRecord
  2
Block_0
340
0
102
{BLKREFS
331
15E
102
}
 70
     0
280
     1
281
     0
  0
BLOCK_RECORD
  5
16A
330
1
100
AcDbSymbolTableRecord
100
AcDbBlockTableRecord
  2
Block_1
340
0
102
{BLKREFS
331
16B
102
}
 70
     0
280
     1
281
     0
  0
BLOCK_RECORD
  5
176
330
1
100
AcDbSymbolTableRecord
100
AcDbBlockTableRecord
  2
Block_2
340
0
102
{BLKREFS
331
177
102
}
 70
     0
280
     1
281
     0
  0
BLOCK_RECORD
  5
182
330
1
100
AcDbSymbolTableRecord
100
AcDbBlockTableRecord
  2
Block_3
340
0
102
{BLKREFS
331
183
102
}
 70
     0
280
     1
281
     0
  0
ENDTAB
  0
ENDSEC
  0
SECTION
  2
BLOCKS
  0
BLOCK
  5
71
330
70
100
AcDbEntity
  8
0
100
AcDbBlockBegin
  2
*Model_Space
 70
     0
 10
0.0
 20
0.0
 30
0.0
  3
*Model_Space
  1

  0
ENDBLK
  5
72
330
70
100
AcDbEntity
  8
0
100
AcDbBlockEnd
  0
BLOCK
  5
6D
330
6C
100
AcDbEntity
 67
     1
  8
0
100
AcDbBlockBegin
  2
*Paper_Space
 70
     0
 10
0.0
 20
0.0
 30
0.0
  3
*Paper_Space
  1

  0
ENDBLK
  5
6E
330
6C
100
AcDbEntity
 67
     1
  8
0
100
AcDbBlockEnd
  0
BLOCK
  5
75
330
74
100
AcDbEntity
 67
     1
  8
0
100
AcDbBlockBegin
  2
*Paper_Space0
 70
     0
 10
0.0
 20
0.0
 30
0.0
  3
*Paper_Space0
  1

  0
ENDBLK
  5
76
330
74
100
AcDbEntity
 67
     1
  8
0
100
AcDbBlockEnd
  0
BLOCK
  5
15F
330
15D
100
AcDbEntity
  8
0
100
AcDbBlockBegin
  2
Block_0
 70
     0
 10
0.0
 20
0.0
 30
0.0
  3
Block_0
  1

  0
LINE
  5
161
330
15D
100
AcDbEntity
  8
CK_LEVEL_1
 62
     4
420
    65535
370
    25
100
AcDbLine
 10
139.6210182118406
 20
170.4358382952146
 30
0.0
 11
151.8168256937406
 21
170.4358382952146
 31
0.0
  0
LINE
  5
162
330
15D
100
AcDbEntity
  8
CK_LEVEL_1
 62
     4
420
    65535
370
    25
100
AcDbLine
 10
139.6210182118406
 20
156.4358382952144
 30
0.0
 11
151.8168256937406
 21
156.4358382952144
 31
0.0
  0
LINE
  5
163
330
15D
100
AcDbEntity
  8
CK_LEVEL_1
 62
     4
420
    65535
370
    25
100
AcDbLine
 10
151.1918256937405
 20
170.4358382952146
 30
0.0
 11
151.1918256937405
 21
156.4358382952144
 31
0.0
  0
LWPOLYLINE
  5
164
330
15D
100
AcDbEntity
  8
CK_LEVEL_1
100
AcDbPolyline
 90
        4
 70
     1
 43
0.0
 10
151.1918256937405
 20
170.4358382952146
 10
151.5668256937404
 20
167.9358382952145
 10
151.1918256937405
 20
170.4358382952146
 10
150.8168256937406
 20
167.9358382952145
  0
HATCH
  5
165
330
15D
100
AcDbEntity
  8
CK_LEVEL_1
 62
     4
420
    65535
440
 33554687
100
AcDbHatch
 10
0.0
 20
0.0
 30
0.0
210
0.0
220
0.0
230
1.0
  2
SOLID
 70
     1
 71
     1
 91
        1
 92
        1
 93
        4
 72
     1
 10
151.1918256937405
 20
170.4358382952146
 11
151.5668256937404
 21
167.9358382952145
 72
     1
 10
151.5668256937404
 20
167.9358382952145
 11
151.1918256937405
 21
170.4358382952146
 72
     1
 10
151.1918256937405
 20
170.4358382952146
 11
150.8168256937406
 21
167.9358382952145
 72
     1
 10
150.8168256937406
 20
167.9358382952145
 11
151.1918256937405
 21
170.4358382952146
 97
        1
330
164
 75
     2
 76
     1
 98
        1
 10
0.0
 20
0.0
450
        0
451
        0
460
0.0
461
0.0
452
        0
462
0.0
453
        0
470

  0
LINE
  5
166
330
15D
100
AcDbEntity
  8
CK_LEVEL_1
 62
     4
420
    65535
370
    25
100
AcDbLine
 10
151.1918256937405
 20
156.4358382952144
 30
0.0
 11
151.1918256937405
 21
122.7645737065144
 31
0.0
  0
LWPOLYLINE
  5
167
330
15D
100
AcDbEntity
  8
CK_LEVEL_1
100
AcDbPolyline
 90
        4
 70
     1
 43
0.0
 10
151.1918256937405
 20
156.4358382952144
 10
150.8168256937406
 20
158.9358382952145
 10
151.1918256937405
 20
156.4358382952144
 10
151.5668256937404
 20
158.9358382952145
  0
HATCH
  5
168
330
15D
100
AcDbEntity
  8
CK_LEVEL_1
 62
     4
420
    65535
440
 33554687
100
AcDbHatch
 10
0.0
 20
0.0
 30
0.0
210
0.0
220
0.0
230
1.0
  2
SOLID
 70
     1
 71
     1
 91
        1
 92
        1
 93
        4
 72
     1
 10
151.1918256937405
 20
156.4358382952144
 11
150.8168256937406
 21
158.9358382952145
 72
     1
 10
150.8168256937406
 20
158.9358382952145
 11
151.1918256937405
 21
156.4358382952144
 72
     1
 10
151.1918256937405
 20
156.4358382952144
 11
151.5668256937404
 21
158.9358382952145
 72
     1
 10
151.5668256937404
 20
158.9358382952145
 11
151.1918256937405
 21
156.4358382952144
 97
        1
330
167
 75
     2
 76
     1
 98
        1
 10
0.0
 20
0.0
450
        0
451
        0
460
0.0
461
0.0
452
        0
462
0.0
453
        0
470

  0
MTEXT
  5
169
330
15D
100
AcDbEntity
  8
CK_LEVEL_1
100
AcDbMText
 10
149.3168225232984
 20
124.0144802207331
 30
0.0
 40
0.2
 41
0.0
 46
0.0
 71
     7
 72
     1
  1
\C4;\c16776960;\FMyriad Pro|b0|i0|c1;\H2.500000;\W1.000000;M14xP0.75-5H
 11
-0.0000000000000002
 21
1.0
 31
0.0
 73
     1
 44
1.0
  0
ENDBLK
  5
160
330
15D
100
AcDbEntity
  8
0
100
AcDbBlockEnd
  0
BLOCK
  5
16C
330
16A
100
AcDbEntity
  8
0
100
AcDbBlockBegin
  2
Block_1
 70
     0
 10
0.0
 20
0.0
 30
0.0
  3
Block_1
  1

  0
LINE
  5
16E
330
16A
100
AcDbEntity
  8
CK_LEVEL_1
 62
     4
420
    65535
370
    25
100
AcDbLine
 10
65.5897590902405
 20
168.4594307480147
 30
0.0
 11
65.5897590902405
 21
179.9632426419144
 31
0.0
  0
LINE
  5
16F
330
16A
100
AcDbEntity
  8
CK_LEVEL_1
 62
     4
420
    65535
370
    25
100
AcDbLine
 10
82.58975909024048
 20
168.4594307480147
 30
0.0
 11
82.58975909024048
 21
179.9632426419144
 31
0.0
  0
LINE
  5
170
330
16A
100
AcDbEntity
  8
CK_LEVEL_1
 62
     4
420
    65535
370
    25
100
AcDbLine
 10
65.5897590902405
 20
179.3382426419146
 30
0.0
 11
82.58975909024048
 21
179.3382426419146
 31
0.0
  0
LWPOLYLINE
  5
171
330
16A
100
AcDbEntity
  8
CK_LEVEL_1
100
AcDbPolyline
 90
        4
 70
     1
 43
0.0
 10
65.5897590902405
 20
179.3382426419146
 10
68.0897590902406
 20
179.7132426419145
 10
65.5897590902405
 20
179.3382426419146
 10
68.0897590902406
 20
178.9632426419147
  0
HATCH
  5
172
330
16A
100
AcDbEntity
  8
CK_LEVEL_1
 62
     4
420
    65535
440
 33554687
100
AcDbHatch
 10
0.0
 20
0.0
 30
0.0
210
0.0
220
0.0
230
1.0
  2
SOLID
 70
     1
 71
     1
 91
        1
 92
        1
 93
        4
 72
     1
 10
65.5897590902405
 20
179.3382426419146
 11
68.0897590902406
 21
179.7132426419145
 72
     1
 10
68.0897590902406
 20
179.7132426419145
 11
65.5897590902405
 21
179.3382426419146
 72
     1
 10
65.5897590902405
 20
179.3382426419146
 11
68.0897590902406
 21
178.9632426419147
 72
     1
 10
68.0897590902406
 20
178.9632426419147
 11
65.5897590902405
 21
179.3382426419146
 97
        1
330
171
 75
     2
 76
     1
 98
        1
 10
0.0
 20
0.0
450
        0
451
        0
460
0.0
461
0.0
452
        0
462
0.0
453
        0
470

  0
LWPOLYLINE
  5
173
330
16A
100
AcDbEntity
  8
CK_LEVEL_1
100
AcDbPolyline
 90
        4
 70
     1
 43
0.0
 10
82.58975909024048
 20
179.3382426419146
 10
80.08975909024071
 20
178.9632426419147
 10
82.58975909024048
 20
179.3382426419146
 10
80.08975909024071
 20
179.7132426419145
  0
HATCH
  5
174
330
16A
100
AcDbEntity
  8
CK_LEVEL_1
 62
     4
420
    65535
440
 33554687
100
AcDbHatch
 10
0.0
 20
0.0
 30
0.0
210
0.0
220
0.0
230
1.0
  2
SOLID
 70
     1
 71
     1
 91
        1
 92
        1
 93
        4
 72
     1
 10
82.58975909024048
 20
179.3382426419146
 11
80.08975909024071
 21
178.9632426419147
 72
     1
 10
80.08975909024071
 20
178.9632426419147
 11
82.58975909024048
 21
179.3382426419146
 72
     1
 10
82.58975909024048
 20
179.3382426419146
 11
80.08975909024071
 21
179.7132426419145
 72
     1
 10
80.08975909024071
 20
179.7132426419145
 11
82.58975909024048
 21
179.3382426419146
 97
        1
330
173
 75
     2
 76
     1
 98
        1
 10
0.0
 20
0.0
450
        0
451
        0
460
0.0
461
0.0
452
        0
462
0.0
453
        0
470

  0
MTEXT
  5
175
330
16A
100
AcDbEntity
  8
CK_LEVEL_1
100
AcDbMText
 10
71.58975705370358
 20
181.213249839408
 30
0.0
 40
0.2
 41
0.0
 46
0.0
 71
     7
 72
     1
  1
\C4;\c16776960;\FMyriad Pro|b0|i0|c1;\H2.500000;\W1.000000;17
 73
     1
 44
1.0
  0
ENDBLK
  5
16D
330
16A
100
AcDbEntity
  8
0
100
AcDbBlockEnd
  0
BLOCK
  5
178
330
176
100
AcDbEntity
  8
0
100
AcDbBlockBegin
  2
Block_2
 70
     0
 10
0.0
 20
0.0
 30
0.0
  3
Block_2
  1

  0
LINE
  5
17A
330
176
100
AcDbEntity
  8
CK_LEVEL_1
 62
     4
420
    65535
370
    25
100
AcDbLine
 10
127.0903934620406
 20
154.1858382952145
 30
0.0
 11
127.0903934620406
 21
143.6783181958144
 31
0.0
  0
LINE
  5
17B
330
176
100
AcDbEntity
  8
CK_LEVEL_1
 62
     4
420
    65535
370
    25
100
AcDbLine
 10
138.5903934620407
 20
153.3858382952145
 30
0.0
 11
138.5903934620407
 21
143.6783181958144
 31
0.0
  0
LINE
  5
17C
330
176
100
AcDbEntity
  8
CK_LEVEL_1
 62
     4
420
    65535
370
    25
100
AcDbLine
 10
127.0903934620406
 20
144.3033181958145
 30
0.0
 11
138.5903934620407
 21
144.3033181958145
 31
0.0
  0
LWPOLYLINE
  5
17D
330
176
100
AcDbEntity
  8
CK_LEVEL_1
100
AcDbPolyline
 90
        4
 70
     1
 43
0.0
 10
127.0903934620406
 20
144.3033181958145
 10
129.5903934620404
 20
144.6783181958145
 10
127.0903934620406
 20
144.3033181958145
 10
129.5903934620404
 20
143.9283181958146
  0
HATCH
  5
17E
330
176
100
AcDbEntity
  8
CK_LEVEL_1
 62
     4
420
    65535
440
 33554687
100
AcDbHatch
 10
0.0
 20
0.0
 30
0.0
210
0.0
220
0.0
230
1.0
  2
SOLID
 70
     1
 71
     1
 91
        1
 92
        1
 93
        4
 72
     1
 10
127.0903934620406
 20
144.3033181958145
 11
129.5903934620404
 21
144.6783181958145
 72
     1
 10
129.5903934620404
 20
144.6783181958145
 11
127.0903934620406
 21
144.3033181958145
 72
     1
 10
127.0903934620406
 20
144.3033181958145
 11
129.5903934620404
 21
143.9283181958146
 72
     1
 10
129.5903934620404
 20
143.9283181958146
 11
127.0903934620406
 21
144.3033181958145
 97
        1
330
17D
 75
     2
 76
     1
 98
        1
 10
0.0
 20
0.0
450
        0
451
        0
460
0.0
461
0.0
452
        0
462
0.0
453
        0
470

  0
LWPOLYLINE
  5
17F
330
176
100
AcDbEntity
  8
CK_LEVEL_1
100
AcDbPolyline
 90
        4
 70
     1
 43
0.0
 10
138.5903934620407
 20
144.3033181958145
 10
136.090393462041
 20
143.9283181958146
 10
138.5903934620407
 20
144.3033181958145
 10
136.090393462041
 20
144.6783181958145
  0
HATCH
  5
180
330
176
100
AcDbEntity
  8
CK_LEVEL_1
 62
     4
420
    65535
440
 33554687
100
AcDbHatch
 10
0.0
 20
0.0
 30
0.0
210
0.0
220
0.0
230
1.0
  2
SOLID
 70
     1
 71
     1
 91
        1
 92
        1
 93
        4
 72
     1
 10
138.5903934620407
 20
144.3033181958145
 11
136.090393462041
 21
143.9283181958146
 72
     1
 10
136.090393462041
 20
143.9283181958146
 11
138.5903934620407
 21
144.3033181958145
 72
     1
 10
138.5903934620407
 20
144.3033181958145
 11
136.090393462041
 21
144.6783181958145
 72
     1
 10
136.090393462041
 20
144.6783181958145
 11
138.5903934620407
 21
144.3033181958145
 97
        1
330
17F
 75
     2
 76
     1
 98
        1
 10
0.0
 20
0.0
450
        0
451
        0
460
0.0
461
0.0
452
        0
462
0.0
453
        0
470

  0
MTEXT
  5
181
330
176
100
AcDbEntity
  8
CK_LEVEL_1
100
AcDbMText
 10
127.8403987141065
 20
146.1783190043896
 30
0.0
 40
0.2
 41
0.0
 46
0.0
 71
     7
 72
     1
  1
\C4;\c16776960;\FMyriad Pro|b0|i0|c1;\H2.500000;\W1.000000;11.5
 73
     1
 44
1.0
  0
ENDBLK
  5
179
330
176
100
AcDbEntity
  8
0
100
AcDbBlockEnd
  0
BLOCK
  5
184
330
182
100
AcDbEntity
  8
0
100
AcDbBlockBegin
  2
Block_3
 70
     0
 10
0.0
 20
0.0
 30
0.0
  3
Block_3
  1

  0
LINE
  5
186
330
182
100
AcDbEntity
  8
CK_LEVEL_1
 62
     4
420
    65535
370
    25
100
AcDbLine
 10
82.19583632804061
 20
167.9945126437147
 30
0.0
 11
74.08975909024049
 21
163.4358382952147
 31
0.0
  0
LWPOLYLINE
  5
187
330
182
100
AcDbEntity
  8
CK_LEVEL_1
100
AcDbPolyline
 90
        4
 70
     1
 43
0.0
 10
82.19583632804061
 20
167.9945126437147
 10
80.20060082114055
 20
166.4422045969144
 10
82.19583632804061
 20
167.9945126437147
 10
79.83296579304066
 20
167.0959205032144
  0
HATCH
  5
188
330
182
100
AcDbEntity
  8
CK_LEVEL_1
 62
     4
420
    65535
440
 33554687
100
AcDbHatch
 10
0.0
 20
0.0
 30
0.0
210
0.0
220
0.0
230
1.0
  2
SOLID
 70
     1
 71
     1
 91
        1
 92
        1
 93
        4
 72
     1
 10
82.19583632804061
 20
167.9945126437147
 11
80.20060082114055
 21
166.4422045969144
 72
     1
 10
80.20060082114055
 20
166.4422045969144
 11
82.19583632804061
 21
167.9945126437147
 72
     1
 10
82.19583632804061
 20
167.9945126437147
 11
79.83296579304066
 21
167.0959205032144
 72
     1
 10
79.83296579304066
 20
167.0959205032144
 11
82.19583632804061
 21
167.9945126437147
 97
        1
330
187
 75
     2
 76
     1
 98
        1
 10
0.0
 20
0.0
450
        0
451
        0
460
0.0
461
0.0
452
        0
462
0.0
453
        0
470

  0
LINE
  5
189
330
182
100
AcDbEntity
  8
CK_LEVEL_1
 62
     4
420
    65535
370
    25
100
AcDbLine
 10
74.08975909024049
 20
163.4358382952147
 30
0.0
 11
65.9836818525408
 21
158.8771639468144
 31
0.0
  0
LWPOLYLINE
  5
18A
330
182
100
AcDbEntity
  8
CK_LEVEL_1
100
AcDbPolyline
 90
        4
 70
     1
 43
0.0
 10
65.9836818525408
 20
158.8771639468144
 10
67.97891735934077
 20
160.4294719936147
 10
65.9836818525408
 20
158.8771639468144
 10
68.34655238744065
 20
159.7757560873147
  0
HATCH
  5
18B
330
182
100
AcDbEntity
  8
CK_LEVEL_1
 62
     4
420
    65535
440
 33554687
100
AcDbHatch
 10
0.0
 20
0.0
 30
0.0
210
0.0
220
0.0
230
1.0
  2
SOLID
 70
     1
 71
     1
 91
        1
 92
        1
 93
        4
 72
     1
 10
65.9836818525408
 20
158.8771639468144
 11
67.97891735934077
 21
160.4294719936147
 72
     1
 10
67.97891735934077
 20
160.4294719936147
 11
65.9836818525408
 21
158.8771639468144
 72
     1
 10
65.9836818525408
 20
158.8771639468144
 11
68.34655238744065
 21
159.7757560873147
 72
     1
 10
68.34655238744065
 20
159.7757560873147
 11
65.9836818525408
 21
158.8771639468144
 97
        1
330
18A
 75
     2
 76
     1
 98
        1
 10
0.0
 20
0.0
450
        0
451
        0
460
0.0
461
0.0
452
        0
462
0.0
453
        0
470

  0
LINE
  5
18C
330
182
100
AcDbEntity
  8
CK_LEVEL_1
 62
     4
420
    65535
370
    25
100
AcDbLine
 10
82.19583632804061
 20
167.9945126437147
 30
0.0
 11
103.1919123511405
 21
179.8022305297145
 31
0.0
  0
MTEXT
  5
18D
330
182
100
AcDbEntity
  8
CK_LEVEL_1
100
AcDbMText
 10
88.68836227822388
 20
173.0657451768185
 30
0.0
 40
0.2
 41
0.0
 46
0.0
 71
     7
 72
     1
  1
\C4;\c16776960;\FMyriad Pro|b0|i0|c1;\H2.500000;\W1.000000;Ø18.6
 11
0.8716212009369195
 21
0.4901800506724877
 31
0.0
 73
     1
 44
1.0
  0
ENDBLK
  5
185
330
182
100
AcDbEntity
  8
0
100
AcDbBlockEnd
  0
ENDSEC
  0
SECTION
  2
ENTITIES
  0
MTEXT
  5
79
330
70
100
AcDbEntity
  8
CK_LEVEL_1
100
AcDbMText
 10
145.8989325264593
 20
72.58444763064403
 30
0.0
 40
0.2
 41
0.0
 46
0.0
 71
     7
 72
     1
  1
\C4;\c16776960;\FMyriad Pro|b0|i0|c1;\H3.610000;\W0.500000;Weitergabe und Vervielfaeltigung dieser Unterlage.
 73
     1
 44
1.0
  0
MTEXT
  5
7A
330
70
100
AcDbEntity
  8
CK_LEVEL_1
100
AcDbMText
 10
145.8989325264593
 20
66.80844898672941
 30
0.0
 40
0.2
 41
0.0
 46
0.0
 71
     7
 72
     1
  1
\C4;\c16776960;\FMyriad Pro|b0|i0|c1;\H3.610000;\W0.500000;Verwertung und Mitteilung ihres Inhalts nicht gestattet, 
 73
     1
 44
1.0
  0
MTEXT
  5
7B
330
70
100
AcDbEntity
  8
CK_LEVEL_1
100
AcDbMText
 10
145.8989325264593
 20
61.03245034281481
 30
0.0
 40
0.2
 41
0.0
 46
0.0
 71
     7
 72
     1
  1
\C4;\c16776960;\FMyriad Pro|b0|i0|c1;\H3.610000;\W0.500000;soweit nicht ausdruecklich zugestanden.
 73
     1
 44
1.0
  0
MTEXT
  5
7C
330
70
100
AcDbEntity
  8
CK_LEVEL_1
100
AcDbMText
 10
145.8989325264593
 20
55.25644631593849
 30
0.0
 40
0.2
 41
0.0
 46
0.0
 71
     7
 72
     1
  1
\C4;\c16776960;\FMyriad Pro|b0|i0|c1;\H3.610000;\W0.500000;Zuwiderhandlungen verpflichten zu Schadenersatz.
 73
     1
 44
1.0
  0
LWPOLYLINE
  5
7D
330
70
100
AcDbEntity
  8
CK_LEVEL_1
 62
     6
420
 16711935
370
    25
100
AcDbPolyline
 90
        5
 70
     0
 43
0.0
 10
-38.38083335965926
 20
246.8329444073146
 10
248.9891666403408
 20
246.8329444073146
 10
248.9891666403408
 20
50.20594440731454
 10
-38.38083335965926
 20
50.20594440731454
 10
-38.38083335965926
 20
246.8329444073146
  0
LWPOLYLINE
  5
7E
330
70
100
AcDbEntity
  8
CK_LEVEL_1
 62
     3
420
    65280
370
    25
100
AcDbPolyline
 90
      200
 70
     0
 43
0.0
 10
220.2671661580409
 20
94.65483251441481
 10
220.2671661580409
 20
94.9308903543145
 10
220.2671661580409
 20
95.67072536531476
 10
220.2671661580409
 20
96.74182978411486
 10
220.2671661580409
 20
98.01169584771431
 10
220.2671661580409
 20
99.3478157928143
 10
220.2671661580409
 20
100.6176818564144
 10
220.2671661580409
 20
101.6887862752145
 10
220.2671661580409
 20
102.4286212861146
 10
220.2671661580409
 20
102.7046791261144
 10
220.4082888272405
 20
102.7046791261144
 10
220.7864975805405
 20
102.7046791261144
 10
221.3340535369408
 20
102.7046791261144
 10
221.9832178150409
 20
102.7046791261144
 10
222.6662515337408
 20
102.7046791261144
 10
223.3154158119404
 20
102.7046791261144
 10
223.8629717682405
 20
102.7046791261144
 10
224.2411805215405
 20
102.7046791261144
 10
224.3823031907408
 20
102.7046791261144
 10
224.7338748946405
 20
102.7000199852148
 10
225.1269922099407
 20
102.6821266637145
 10
225.4422635886403
 20
102.6557617861144
 10
225.7771349807407
 20
102.6127377295143
 10
226.0287831424407
 20
102.5672782611144
 10
226.2800739768408
 20
102.5069860244144
 10
226.5092774607404
 20
102.4344398238143
 10
226.6950133104404
 20
102.3584432255148
 10
226.8628445750405
 20
102.2705172286145
 10
226.9135869262409
 20
102.2389957852143
 10
227.0931864329405
 20
102.1027809211148
 10
227.2280271559406
 20
101.9660867906145
 10
227.3597914587405
 20
101.7865835806148
 10
227.4488196482404
 20
101.6217090532146
 10
227.5264125824404
 20
101.4230523545148
 10
227.5838886575405
 20
101.2017826856144
 10
227.6174540246408
 20
100.9831955637143
 10
227.6332500945403
 20
100.7417334122144
 10
227.6343031066408
 20
100.6574609685143
 10
227.6293921808408
 20
100.4996790207146
 10
227.614655314541
 20
100.3479658758145
 10
227.5900863740405
 20
100.2023610611143
 10
227.5556792259408
 20
100.0629041040147
 10
227.5114277366406
 20
99.92963453181465
 10
227.4573257725404
 20
99.80259187161449
 10
227.393367200141
 20
99.68181565091482
 10
227.319545885941
 20
99.56734539691467
 10
227.2358556962404
 20
99.45922063691449
 10
227.1428385413404
 20
99.35762128821485
 10
227.0400083945404
 20
99.2626325391148
 10
226.9273904713406
 20
99.17423462581467
 10
226.805009987641
 20
99.09240778471488
 10
226.6728921589404
 20
99.01713225211457
 10
226.5310622011403
 20
98.94838826451429
 10
226.3795453297408
 20
98.88615605811434
 10
226.2183667604404
 20
98.83041586941466
 10
226.0475517090405
 20
98.78114793451475
 10
226.205700988141
 20
98.75140341721476
 10
226.3534164240406
 20
98.71544016571464
 10
226.4907096024407
 20
98.67325886171437
 10
226.6175921089405
 20
98.6248601867144
 10
226.7340755290406
 20
98.57024482211436
 10
226.8401714483406
 20
98.50941344941471
 10
226.9358914524408
 20
98.44236675021468
 10
227.0212471269407
 20
98.36910540601468
 10
227.0962500574405
 20
98.28963009831452
 10
227.1638495708409
 20
98.19964177931456
 10
227.2266751410406
 20
98.09488388161462
 10
227.284755391141
 20
97.97533800481431
 10
227.3381189444407
 20
97.84098574811473
 10
227.3867944241405
 20
97.69180871081452
 10
227.4308104534408
 20
97.52778849251463
 10
227.4701956556406
 20
97.34890669241483
 10
227.5049786538404
 20
97.15514490981446
 10
227.5351880712408
 20
96.94648474421429
 10
227.5389874622407
 20
96.9165979059147
 10
227.549169829941
 20
96.83650117901445
 10
227.5639114668406
 20
96.72054024621461
 10
227.5813886652406
 20
96.58306078971449
 10
227.5997777173409
 20
96.43840849211439
 10
227.6172549157409
 20
96.30092903561427
 10
227.6319965526406
 20
96.18496810281444
 10
227.6421789203408
 20
96.10487137601429
 10
227.6459783113408
 20
96.0749845376146
 10
227.6512177225409
 20
96.02468389541437
 10
227.6573485424409
 20
95.97203137911469
 10
227.6643973497408
 20
95.9170119955144
 10
227.6723907230405
 20
95.85961075161447
 10
227.6813552412408
 20
95.79981265431452
 10
227.6913174827408
 20
95.73760271041463
 10
227.7023040265409
 20
95.67296592691452
 10
227.7143414511406
 20
95.60588731061431
 10
227.7274563353409
 20
95.53635186831474
 10
227.7413774401404
 20
95.46254600151437
 10
227.7569239345408
 20
95.38267473931465
 10
227.7741019521409
 20
95.29675103031472
 10
227.7929176265409
 20
95.20478782311437
 10
227.8133770912406
 20
95.10679806621457
 10
227.8354864797407
 20
95.00279470831456
 10
227.8592519257407
 20
94.89279069801476
 10
227.8846795625409
 20
94.77679898381488
 10
227.911775523941
 20
94.65483251441481
 10
227.8064290331406
 20
94.65483251441481
 10
227.5241004375404
 20
94.65483251441481
 10
227.1153560530405
 20
94.65483251441481
 10
226.6307621950408
 20
94.65483251441481
 10
226.120885179241
 20
94.65483251441481
 10
225.6362913212406
 20
94.65483251441481
 10
225.2275469366406
 20
94.65483251441481
 10
224.9452183411405
 20
94.65483251441481
 10
224.8398718502406
 20
94.65483251441481
 10
224.8175335896406
 20
94.74265455591483
 10
224.7964595209407
 20
94.8267957883149
 10
224.7766687263409
 20
94.90721259541471
 10
224.7581802879408
 20
94.98386136071433
 10
224.7410132880404
 20
95.05669846801472
 10
224.7251868085406
 20
95.12568030091477
 10
224.7107199318406
 20
95.19076324311471
 10
224.6976317399409
 20
95.25190367831479
 10
224.6859413149405
 20
95.30905799021461
 10
224.6743290359408
 20
95.36446821691466
 10
224.6634316557404
 20
95.41891411391464
 10
224.6532219142403
 20
95.47239431821436
 10
224.6436725511408
 20
95.5249074667148
 10
224.6347563063409
 20
95.57645219651458
 10
224.6264459195406
 20
95.62702714451466
 10
224.6187141305408
 20
95.67663094771484
 10
224.6115336791405
 20
95.72526224321439
 10
224.6048773052406
 20
95.77291966791491
 10
224.6022819066406
 20
95.7931688882145
 10
224.5953262384404
 20
95.84743679881455
 10
224.5852560918408
 20
95.92600377381442
 10
224.5733172582408
 20
96.01915018751483
 10
224.5607555290407
 20
96.11715641411459
 10
224.5488166955408
 20
96.21030282781438
 10
224.5387465489405
 20
96.28886980281487
 10
224.5317908807403
 20
96.3431377134143
 10
224.5291954821409
 20
96.3633869338146
 10
224.5026885682406
 20
96.5331040804147
 10
224.4744226898409
 20
96.68837604501462
 10
224.4443562748405
 20
96.82923281351484
 10
224.4124477516404
 20
96.95570437241464
 10
224.3786555482408
 20
97.06782070781471
 10
224.3429380929405
 20
97.16561180591458
 10
224.3052538140406
 20
97.24910765301457
 10
224.2655611394404
 20
97.31833823531482
 10
224.2238184975403
 20
97.37333353901426
 10
224.1781724216404
 20
97.41787875701469
 10
224.1261092936404
 20
97.45717570431462
 10
224.0675909493404
 20
97.49122642521454
 10
224.0025792243404
 20
97.5200329644146
 10
223.9310359545406
 20
97.54359736641481
 10
223.8529229754406
 20
97.5619216756144
 10
223.7682021229409
 20
97.57500793651463
 10
223.6768352327408
 20
97.58285819381441
 10
223.5787841403409
 20
97.58547449191491
 10
223.5552910693409
 20
97.58541735911428
 10
223.5330090328405
 20
97.58525050391467
 10
223.5119468904406
 20
97.58498074151471
 10
223.4921135017406
 20
97.58461488681469
 10
223.4735177263409
 20
97.58415975501451
 10
223.4561684237406
 20
97.58362216101451
 10
223.4400744536409
 20
97.58300892001456
 10
223.4252446754407
 20
97.58232684701443
 10
223.4116879487404
 20
97.58158275701447
 10
223.3979862886409
 20
97.58097633111438
 10
223.3846137955406
 20
97.58019680281462
 10
223.3715193564409
 20
97.57923054221455
 10
223.3586518586406
 20
97.57806391901441
 10
223.3459601891409
 20
97.57668330331483
 10
223.3333932350404
 20
97.57507506481477
 10
223.3208998834407
 20
97.57322557351475
 10
223.3084290215408
 20
97.57112119941465
 10
223.2959295365406
 20
97.56874831221471
 10
223.2959295365406
 20
97.46881978691476
 10
223.2959295365406
 20
97.20101133911462
 10
223.2959295365406
 20
96.81328866091487
 10
223.2959295365406
 20
96.35361744451486
 10
223.2959295365406
 20
95.86996338211465
 10
223.2959295365406
 20
95.41029216571464
 10
223.2959295365406
 20
95.02256948751426
 10
223.2959295365406
 20
94.75476103971477
 10
223.2959295365406
 20
94.65483251441481
 10
223.1920624796407
 20
94.65483251441481
 10
222.9136987672406
 20
94.65483251441481
 10
222.5106945865407
 20
94.65483251441481
 10
222.0329061249409
 20
94.65483251441481
 10
221.5301895696405
 20
94.65483251441481
 10
221.0524011080408
 20
94.65483251441481
 10
220.6493969273408
 20
94.65483251441481
 10
220.3710332149407
 20
94.65483251441481
 10
220.2671661580409
 20
94.65483251441481
 10
220.2671661580409
 20
94.65483251441481
 10
220.2671661580409
 20
94.65483251441481
 10
220.2671661580409
 20
94.65483251441481
 10
220.2671661580409
 20
94.65483251441481
 10
220.2671661580409
 20
94.65483251441481
 10
220.2671661580409
 20
94.65483251441481
 10
220.2671661580409
 20
94.65483251441481
 10
220.2671661580409
 20
94.65483251441481
 10
220.2671661580409
 20
94.65483251441481
  0
LWPOLYLINE
  5
7F
330
70
100
AcDbEntity
  8
CK_LEVEL_1
 62
     3
420
    65280
370
    25
100
AcDbPolyline
 90
      100
 70
     0
 43
0.0
 10
223.3017257373409
 20
99.38122033331437
 10
223.3103023655405
 20
99.37998044841487
 10
223.3190807191407
 20
99.37889458361446
 10
223.3280539832408
 20
99.37793888631489
 10
223.3372153427409
 20
99.37708950371458
 10
223.3465579826404
 20
99.37632258331476
 10
223.3560750878405
 20
99.37561427241458
 10
223.3657598432404
 20
99.37494071821433
 10
223.3756054339406
 20
99.37427806801442
 10
223.3856050446405
 20
99.37360246931483
 10
223.3964805031408
 20
99.37301955531436
 10
223.4083536850408
 20
99.3724414118143
 10
223.4212286794407
 20
99.37188507641437
 10
223.4351095753405
 20
99.37136758691456
 10
223.4500004618408
 20
99.3709059808145
 10
223.4659054279409
 20
99.37051729571461
 10
223.4828285626409
 20
99.37021856931472
 10
223.5007739550408
 20
99.37002683921461
 10
223.5197456940404
 20
99.36995914301467
 10
223.6358179394407
 20
99.37265176971433
 10
223.7456769027405
 20
99.38071738261449
 10
223.8493287175405
 20
99.39413758111458
 10
223.9467795175408
 20
99.4128939645145
 10
224.0380354360406
 20
99.4369681323144
 10
224.1231026067406
 20
99.46634168371476
 10
224.2019871631409
 20
99.50099621821447
 10
224.2746952387407
 20
99.54091333501459
 10
224.3412329672408
 20
99.58607463371478
 10
224.4014699538409
 20
99.63611755341446
 10
224.4545640854405
 20
99.69073200931475
 10
224.5005303552408
 20
99.74989551181444
 10
224.5393837562406
 20
99.81358557121481
 10
224.5711392815406
 20
99.88177969781451
 10
224.5958119243406
 20
99.95445540201492
 10
224.6134166777409
 20
100.0315901940146
 10
224.6239685348407
 20
100.1131615843144
 10
224.6274824887404
 20
100.1991470831148
 10
224.6245905218405
 20
100.2793100295147
 10
224.6159146211407
 20
100.3544836770149
 10
224.6014547866405
 20
100.4246898338148
 10
224.5812110183404
 20
100.4899503081149
 10
224.5551833161405
 20
100.5502869081146
 10
224.5233716802407
 20
100.6057214418147
 10
224.4857761104405
 20
100.6562757175149
 10
224.4423966069405
 20
100.7019715433146
 10
224.3932331695405
 20
100.7428307274149
 10
224.3375785096409
 20
100.7786351882148
 10
224.2750610934407
 20
100.8102988239148
 10
224.2056877358404
 20
100.8378025525145
 10
224.1294652519403
 20
100.8611272918148
 10
224.0464004568404
 20
100.8802539597146
 10
223.9565001655404
 20
100.8951634740149
 10
223.8597711931407
 20
100.9058367526144
 10
223.7562203546404
 20
100.9122547133147
 10
223.6458544650406
 20
100.9143982740147
 10
223.6175088504408
 20
100.9143954344144
 10
223.5906448280405
 20
100.9143755572148
 10
223.5652474045409
 20
100.9143216047144
 10
223.5413015868405
 20
100.9142165393147
 10
223.5187923820408
 20
100.9140433235146
 10
223.4977047967406
 20
100.9137849194148
 10
223.4780238381404
 20
100.9134242897146
 10
223.4597345128407
 20
100.9129443965144
 10
223.4428218278406
 20
100.9123282023147
 10
223.4273353059406
 20
100.9116665744146
 10
223.4117486026406
 20
100.9108563784148
 10
223.3960842079407
 20
100.9099207855147
 10
223.3803646112408
 20
100.9088829668146
 10
223.3646123022408
 20
100.9077660935143
 10
223.3488497707408
 20
100.9065933369143
 10
223.3330995063409
 20
100.9053878679148
 10
223.3173839986403
 20
100.9041728579145
 10
223.3017257373409
 20
100.9029714780145
 10
223.3017257373409
 20
100.8507852247146
 10
223.3017257373409
 20
100.7109260660148
 10
223.3017257373409
 20
100.5084434034147
 10
223.3017257373409
 20
100.2683866385148
 10
223.3017257373409
 20
100.0158051728146
 10
223.3017257373409
 20
99.77574840791474
 10
223.3017257373409
 20
99.57326574531466
 10
223.3017257373409
 20
99.43340658661485
 10
223.3017257373409
 20
99.38122033331437
 10
223.3017257373409
 20
99.38122033331437
 10
223.3017257373409
 20
99.38122033331437
 10
223.3017257373409
 20
99.38122033331437
 10
223.3017257373409
 20
99.38122033331437
 10
223.3017257373409
 20
99.38122033331437
 10
223.3017257373409
 20
99.38122033331437
 10
223.3017257373409
 20
99.38122033331437
 10
223.3017257373409
 20
99.38122033331437
 10
223.3017257373409
 20
99.38122033331437
 10
223.3017257373409
 20
99.38122033331437
 10
223.3017257373409
 20
99.38122033331437
 10
223.3017257373409
 20
99.38122033331437
 10
223.3017257373409
 20
99.38122033331437
 10
223.3017257373409
 20
99.38122033331437
 10
223.3017257373409
 20
99.38122033331437
 10
223.3017257373409
 20
99.38122033331437
 10
223.3017257373409
 20
99.38122033331437
 10
223.3017257373409
 20
99.38122033331437
  0
LWPOLYLINE
  5
80
330
70
100
AcDbEntity
  8
CK_LEVEL_1
 62
     3
420
    65280
370
    25
100
AcDbPolyline
 90
       14
 70
     0
 43
0.0
 10
212.3760526482408
 20
94.65483251441481
 10
212.3760526482408
 20
102.7046791261144
 10
218.3999614398408
 20
102.7046791261144
 10
218.3999614398408
 20
100.6365946452146
 10
215.4157460054407
 20
100.6365946452146
 10
215.4157460054407
 20
99.76318997261486
 10
218.1876548812409
 20
99.76318997261486
 10
218.1876548812409
 20
97.69543670331444
 10
215.4157460054407
 20
97.69543670331444
 10
215.4157460054407
 20
96.74527377011465
 10
218.5046242675404
 20
96.74527377011465
 10
218.5046242675404
 20
94.65483251441481
 10
212.3760526482408
 20
94.65483251441481
 10
212.3760526482408
 20
94.65483251441481
  0
LWPOLYLINE
  5
81
330
70
100
AcDbEntity
  8
CK_LEVEL_1
 62
     3
420
    65280
370
    25
100
AcDbPolyline
 90
        8
 70
     0
 43
0.0
 10
211.4249788835409
 20
96.78990451711463
 10
211.4249788835409
 20
94.65483251441481
 10
205.3901401130404
 20
94.65483251441481
 10
205.3901401130404
 20
102.6932523300147
 10
208.5010439385408
 20
102.6932523300147
 10
208.5010439385408
 20
96.78990451711463
 10
211.4249788835409
 20
96.78990451711463
 10
211.4249788835409
 20
96.78990451711463
  0
LWPOLYLINE
  5
82
330
70
100
AcDbEntity
  8
CK_LEVEL_1
 62
     3
420
    65280
370
    25
100
AcDbPolyline
 90
       15
 70
     0
 43
0.0
 10
193.0506080188409
 20
94.65483251441481
 10
193.0506080188409
 20
102.7046791261144
 10
197.4671474982405
 20
102.7046791261144
 10
198.3498260923403
 20
97.94144403001451
 10
199.2690207520404
 20
102.7046791261144
 10
203.4800435081405
 20
102.7046791261144
 10
203.4800435081405
 20
94.65483251441481
 10
200.8782117274406
 20
94.65483251441481
 10
200.9117468897407
 20
100.4130268963143
 10
199.6617547644407
 20
94.65483251441481
 10
196.8654190420405
 20
94.65483251441481
 10
195.6321530964407
 20
100.4130268963143
 10
195.6433314839408
 20
94.65483251441481
 10
193.0506080188409
 20
94.65483251441481
 10
193.0506080188409
 20
94.65483251441481
  0
LWPOLYLINE
  5
83
330
70
100
AcDbEntity
  8
CK_LEVEL_1
 62
     3
420
    65280
370
    25
100
AcDbPolyline
 90
       15
 70
     0
 43
0.0
 10
180.7110759246407
 20
94.65483251441481
 10
180.7110759246407
 20
102.7046791261144
 10
185.1276154040403
 20
102.7046791261144
 10
186.0107908153407
 20
97.94144403001451
 10
186.9288262349404
 20
102.7046791261144
 10
191.1405942168406
 20
102.7046791261144
 10
191.1405942168406
 20
94.65483251441481
 10
188.5380172102404
 20
94.65483251441481
 10
188.5722147955405
 20
100.4130268963143
 10
187.3222226702405
 20
94.65483251441481
 10
184.5253901306404
 20
94.65483251441481
 10
183.2926210022406
 20
100.4130268963143
 10
183.3036337839406
 20
94.65483251441481
 10
180.7110759246407
 20
94.65483251441481
 10
180.7110759246407
 20
94.65483251441481
  0
LWPOLYLINE
  5
84
330
70
100
AcDbEntity
  8
CK_LEVEL_1
 62
     3
420
    65280
370
    25
100
AcDbPolyline
 90
       14
 70
     0
 43
0.0
 10
172.8192999918406
 20
94.65483251441481
 10
172.8192999918406
 20
102.7046791261144
 10
178.8438712064406
 20
102.7046791261144
 10
178.8438712064406
 20
100.6365946452146
 10
175.8596557720405
 20
100.6365946452146
 10
175.8596557720405
 20
99.76318997261486
 10
178.6315646477405
 20
99.76318997261486
 10
178.6315646477405
 20
97.69543670331444
 10
175.8596557720405
 20
97.69543670331444
 10
175.8596557720405
 20
96.74527377011465
 10
178.9485340340407
 20
96.74527377011465
 10
178.9485340340407
 20
94.65483251441481
 10
172.8192999918406
 20
94.65483251441481
 10
172.8192999918406
 20
94.65483251441481
  0
LWPOLYLINE
  5
85
330
70
100
AcDbEntity
  8
CK_LEVEL_1
 62
     3
420
    65280
370
    25
100
AcDbPolyline
 90
       13
 70
     0
 43
0.0
 10
163.8089400883406
 20
94.65483251441481
 10
163.8089400883406
 20
102.7046791261144
 10
166.8377862696405
 20
102.7046791261144
 10
166.8377862696405
 20
99.29361489691441
 10
168.5405030866405
 20
102.7046791261144
 10
171.7335473591404
 20
102.7046791261144
 10
169.6094467367409
 20
98.98235890861437
 10
172.0499785267408
 20
94.65483251441481
 10
168.7377809243405
 20
94.65483251441481
 10
166.8377862696405
 20
98.28963009831452
 10
166.8377862696405
 20
94.65483251441481
 10
163.8089400883406
 20
94.65483251441481
 10
163.8089400883406
 20
94.65483251441481
  0
LWPOLYLINE
  5
86
330
70
100
AcDbEntity
  8
CK_LEVEL_1
 62
     3
420
    65280
370
    25
100
AcDbPolyline
 90
        6
 70
     0
 43
0.0
 10
153.5929703978408
 20
95.37008370541482
 10
156.0614067550403
 20
89.33714940091439
 10
160.5320579100404
 20
89.33714940091439
 10
157.6398364641407
 20
95.36809643651443
 10
153.5929703978408
 20
95.37008370541482
 10
153.5929703978408
 20
95.37008370541482
  0
LWPOLYLINE
  5
87
330
70
100
AcDbEntity
  8
CK_LEVEL_1
 62
     3
420
    65280
370
    25
100
AcDbPolyline
 90
        6
 70
     0
 43
0.0
 10
156.4968670483404
 20
102.7130422159148
 10
153.6554865646407
 20
97.7499209917145
 10
157.6974258602405
 20
97.7499209917145
 10
160.5864179941403
 20
102.7130422159148
 10
156.4968670483404
 20
102.7130422159148
 10
156.4968670483404
 20
102.7130422159148
  0
LWPOLYLINE
  5
88
330
70
100
AcDbEntity
  8
CK_LEVEL_1
 62
     3
420
    65280
370
    25
100
AcDbPolyline
 90
        7
 70
     0
 43
0.0
 10
150.8847369291405
 20
97.05984187321487
 10
157.3121441062406
 20
97.06050429621482
 10
157.0475475351406
 20
96.59573178691429
 10
157.2996822742405
 20
96.0719208314147
 10
150.8847369291405
 20
96.0736596917148
 10
150.8847369291405
 20
97.05984187321487
 10
150.8847369291405
 20
97.05984187321487
  0
LWPOLYLINE
  5
89
330
70
100
AcDbEntity
  8
CK_LEVEL_1
 62
     3
420
    65280
370
    25
100
AcDbPolyline
 90
        6
 70
     0
 43
0.0
 10
148.9713696108409
 20
89.33714940091439
 10
152.9494264922404
 20
89.33714940091439
 10
152.9494264922404
 20
102.7132078217148
 10
148.9713696108409
 20
102.7132078217148
 10
148.9713696108409
 20
89.33714940091439
 10
148.9713696108409
 20
89.33714940091439
  0
MTEXT
  5
8A
330
70
100
AcDbEntity
  8
CK_LEVEL_1
100
AcDbMText
 10
145.8051936314903
 20
79.61963944034086
 30
0.0
 40
0.2
 41
0.0
 46
0.0
 71
     7
 72
     1
  1
\C4;\c16776960;\FMyriad Pro|b0|i0|c1;\H5.415000;\W0.400000;Copyright Kemmler Praezisionswerkzeuge GmbH
 73
     1
 44
1.0
  0
LWPOLYLINE
  5
8B
330
70
100
AcDbEntity
  8
CK_LEVEL_1
 62
     1
420
 16711680
370
    25
100
AcDbPolyline
 90
      127
 70
     0
 43
0.0
 10
230.0240932979408
 20
102.9898025286145
 10
230.1048243924408
 20
102.9875089913144
 10
230.1851220496407
 20
102.9806251083147
 10
230.2649870874406
 20
102.9691459726149
 10
230.3444203236403
 20
102.9530666775144
 10
230.4234225759409
 20
102.9323823161147
 10
230.5019946622405
 20
102.9070879816146
 10
230.5801374003408
 20
102.8771787672143
 10
230.6578516080409
 20
102.8426497660145
 10
230.7351381031409
 20
102.8034960711147
 10
230.8104832627404
 20
102.7598993719147
 10
230.8819830980409
 20
102.7123682074147
 10
230.9496490581408
 20
102.6608911283146
 10
231.0134925924405
 20
102.6054566855144
 10
231.0735251502408
 20
102.5460534295143
 10
231.1297581808406
 20
102.4826699111145
 10
231.1822031334404
 20
102.4152946810147
 10
231.2308714573404
 20
102.3439162900149
 10
231.2757746018409
 20
102.2685232887148
 10
231.3162500076404
 20
102.1909880442146
 10
231.3520156680406
 20
102.1126660703148
 10
231.3830576803409
 20
102.0335655449147
 10
231.4093621416408
 20
101.9536946462144
 10
231.4309151494409
 20
101.8730615521143
 10
231.4477028009406
 20
101.7916744409148
 10
231.4597111934407
 20
101.7095414904149
 10
231.4669264242405
 20
101.6266708788147
 10
231.4693345907407
 20
101.5430707841148
 10
231.4669958015405
 20
101.4604299761145
 10
231.4599718010407
 20
101.3785112908143
 10
231.4482511399408
 20
101.2973155461147
 10
231.4318223690404
 20
101.2168435599145
 10
231.4106740389409
 20
101.1370961499146
 10
231.3847947005408
 20
101.0580741339144
 10
231.3541729043405
 20
100.9797783298144
 10
231.3187972011406
 20
100.9022095553143
 10
231.2786561417404
 20
100.8253686282148
 10
231.2343900681406
 20
100.7505175598148
 10
231.1863244673407
 20
100.6795101801148
 10
231.1344724242409
 20
100.6123407646146
 10
231.0788470236408
 20
100.5490035885143
 10
231.0194613504409
 20
100.4894929274143
 10
230.9563284896405
 20
100.4338030564148
 10
230.8894615261408
 20
100.3819282510147
 10
230.8188735446403
 20
100.3338627865144
 10
230.7445776302408
 20
100.2896009383147
 10
230.667454832741
 20
100.2495349807148
 10
230.5896794258408
 20
100.2141918534147
 10
230.5112170618408
 20
100.1835691031145
 10
230.4320333929406
 20
100.1576642764144
 10
230.3520940710409
 20
100.1364749197148
 10
230.2713647484408
 20
100.1199985798148
 10
230.1898110773406
 20
100.1082328031148
 10
230.1073987097405
 20
100.1011751362144
 10
230.0240932979408
 20
100.0988231258143
 10
229.9411857487406
 20
100.1011751362144
 10
229.8590044114405
 20
100.1082328031148
 10
229.7775615530405
 20
100.1199985798148
 10
229.6968694406407
 20
100.1364749197148
 10
229.6169403413403
 20
100.1576642764144
 10
229.5377865223409
 20
100.1835691031145
 10
229.4594202505408
 20
100.2141918534147
 10
229.3818537931404
 20
100.2495349807148
 10
229.3050994172406
 20
100.2896009383147
 10
229.2306287649406
 20
100.3338627865144
 10
229.1598554141406
 20
100.3819282510147
 10
229.0928038990406
 20
100.4338030564148
 10
229.0294987537405
 20
100.4894929274143
 10
228.9699645124404
 20
100.5490035885143
 10
228.9142257093409
 20
100.6123407646146
 10
228.8623068787409
 20
100.6795101801148
 10
228.8142325546407
 20
100.7505175598148
 10
228.7700272714407
 20
100.8253686282148
 10
228.7295927558404
 20
100.9022095553143
 10
228.6939366814404
 20
100.9797783298144
 10
228.6630533236409
 20
101.0580741339144
 10
228.6369369576408
 20
101.1370961499146
 10
228.6155818589405
 20
101.2168435599145
 10
228.5989823029409
 20
101.2973155461147
 10
228.5871325647407
 20
101.3785112908143
 10
228.5800269199405
 20
101.4604299761145
 10
228.577659643841
 20
101.5430707841148
 10
228.5800656294404
 20
101.6266708788147
 10
228.5872803150404
 20
101.7095414904149
 10
228.5992987938405
 20
101.7916744409148
 10
228.6161161589408
 20
101.8730615521143
 10
228.6377275036404
 20
101.9536946462144
 10
228.6641279208409
 20
102.0335655449147
 10
228.6953125039408
 20
102.1126660703148
 10
228.7312763460408
 20
102.1909880442146
 10
228.7720145402404
 20
102.2685232887148
 10
228.8171740670407
 20
102.3439162900149
 10
228.8660766923408
 20
102.4152946810147
 10
228.9187265053408
 20
102.4826699111145
 10
228.9751275950407
 20
102.5460534295143
 10
229.0352840505406
 20
102.6054566855144
 10
229.0991999606408
 20
102.6608911283146
 10
229.1668794146403
 20
102.7123682074147
 10
229.238326501441
 20
102.7598993719147
 10
229.3135453100408
 20
102.8034960711147
 10
229.3909652437404
 20
102.8426497660145
 10
229.4687523725408
 20
102.8771787672143
 10
229.5469132386409
 20
102.9070879816146
 10
229.6254543846409
 20
102.9323823161147
 10
229.7043823529405
 20
102.9530666775144
 10
229.7837036859406
 20
102.9691459726149
 10
229.8634249261407
 20
102.9806251083147
 10
229.9435526159404
 20
102.9875089913144
 10
230.0240932979408
 20
102.9898025286145
 10
230.0240932979408
 20
102.9898025286145
 10
230.0240932979408
 20
102.9898025286145
 10
230.0240932979408
 20
102.9898025286145
 10
230.0240932979408
 20
102.9898025286145
 10
230.0240932979408
 20
102.9898025286145
 10
230.0240932979408
 20
102.9898025286145
 10
230.0240932979408
 20
102.9898025286145
 10
230.0240932979408
 20
102.9898025286145
 10
230.0240932979408
 20
102.9898025286145
 10
230.0240932979408
 20
102.9898025286145
 10
230.0240932979408
 20
102.9898025286145
 10
230.0240932979408
 20
102.9898025286145
 10
230.0240932979408
 20
102.9898025286145
 10
230.0240932979408
 20
102.9898025286145
 10
230.0240932979408
 20
102.9898025286145
 10
230.0240932979408
 20
102.9898025286145
 10
230.0240932979408
 20
102.9898025286145
 10
230.0240932979408
 20
102.9898025286145
  0
LWPOLYLINE
  5
8C
330
70
100
AcDbEntity
  8
CK_LEVEL_1
 62
     1
420
 16711680
370
    25
100
AcDbPolyline
 90
      127
 70
     0
 43
0.0
 10
230.0240932979408
 20
102.7507340823148
 10
229.9565513717404
 20
102.7487857956146
 10
229.8894551498406
 20
102.7429496585147
 10
229.8228013610405
 20
102.7332387559144
 10
229.7565867341408
 20
102.7196661729143
 10
229.6908079979406
 20
102.7022449943143
 10
229.6254618811405
 20
102.6809883049148
 10
229.560545112641
 20
102.6559091897143
 10
229.4960544210406
 20
102.6270207336148
 10
229.4319865352406
 20
102.5943360215149
 10
229.3693311369409
 20
102.5580712268147
 10
229.3098038469406
 20
102.5184452489143
 10
229.2533973052405
 20
102.4754752617148
 10
229.2001041514404
 20
102.4291784393144
 10
229.1499170252407
 20
102.3795719555147
 10
229.1028285664407
 20
102.3266729842148
 10
229.0588314148409
 20
102.2704986994148
 10
229.0179182100405
 20
102.2110662750145
 10
228.9800815919408
 20
102.1483928849143
 10
228.9460705346407
 20
102.0835479470143
 10
228.9160454643409
 20
102.0181150064148
 10
228.8900104700405
 20
101.9520875209146
 10
228.8679696409404
 20
101.8854589478143
 10
228.8499270659405
 20
101.8182227447144
 10
228.8358868341409
 20
101.7503723693149
 10
228.8258530345408
 20
101.6819012790146
 10
228.8198297561409
 20
101.6128029315147
 10
228.8178210879405
 20
101.5430707841148
 10
228.8197975890406
 20
101.4741823401144
 10
228.8257281827407
 20
101.4058966192143
 10
228.8356145046406
 20
101.3382128037148
 10
228.8494581904408
 20
101.2711300756144
 10
228.8672608756409
 20
101.2046476172147
 10
228.8890241958407
 20
101.1387646107145
 10
228.9147497868407
 20
101.0734802383147
 10
228.9444392840405
 20
101.0087936821145
 10
228.9780943231405
 20
100.9447041245145
 10
229.0151512993405
 20
100.8826089233145
 10
229.0553690963408
 20
100.8236393772147
 10
229.0987362646405
 20
100.7677930326145
 10
229.1452413550408
 20
100.7150674362143
 10
229.1948729182409
 20
100.6654601346147
 10
229.2476195049407
 20
100.6189686743147
 10
229.3034696659407
 20
100.5755906019145
 10
229.3624119518407
 20
100.5353234640148
 10
229.4244349134408
 20
100.4981648072144
 10
229.4888108396405
 20
100.4646178548149
 10
229.5537060726406
 20
100.4349931006147
 10
229.6191394220409
 20
100.4092970870147
 10
229.6851296974409
 20
100.3875363565146
 10
229.7516957083405
 20
100.3697174514145
 10
229.8188562643403
 20
100.3558469144149
 10
229.8866301748406
 20
100.3459312877144
 10
229.9550362495405
 20
100.3399771140143
 10
230.0240932979408
 20
100.3379909355146
 10
230.0932520268408
 20
100.3399771140143
 10
230.1618104861408
 20
100.3459312877144
 10
230.2297572263405
 20
100.3558469144149
 10
230.2970807983406
 20
100.3697174514145
 10
230.3637697527408
 20
100.3875363565146
 10
230.4298126403406
 20
100.4092970870147
 10
230.495198011841
 20
100.4349931006147
 10
230.5599144179406
 20
100.4646178548149
 10
230.6239504092404
 20
100.4981648072144
 10
230.6862350688405
 20
100.5353234640148
 10
230.7453679036409
 20
100.5755906019145
 10
230.8013399176409
 20
100.6189686743147
 10
230.854142115241
 20
100.6654601346147
 10
230.9037655004405
 20
100.7150674362143
 10
230.9502010772407
 20
100.7677930326145
 10
230.9934398500407
 20
100.8236393772147
 10
231.0334728227404
 20
100.8826089233145
 10
231.0702909996408
 20
100.9447041245145
 10
231.1035319562408
 20
101.0087936821145
 10
231.1328989652404
 20
101.0734802383147
 10
231.1583822129409
 20
101.1387646107145
 10
231.1799718857409
 20
101.2046476172147
 10
231.1976581698405
 20
101.2711300756144
 10
231.2114312516406
 20
101.3382128037148
 10
231.2212813175409
 20
101.4058966192143
 10
231.227198553741
 20
101.4741823401144
 10
231.2291731466405
 20
101.5430707841148
 10
231.2271966455405
 20
101.6128029315147
 10
231.2212660518404
 20
101.6819012790146
 10
231.2113797298403
 20
101.7503723693149
 10
231.1975360441408
 20
101.8182227447144
 10
231.1797333589407
 20
101.8854589478143
 10
231.1579700386408
 20
101.9520875209146
 10
231.1322444477409
 20
102.0181150064148
 10
231.1025549505405
 20
102.0835479470143
 10
231.0688999114405
 20
102.1483928849143
 10
231.0310294907408
 20
102.2110662750145
 10
230.9900783942404
 20
102.2704986994148
 10
230.9460351729406
 20
102.3266729842148
 10
230.8988883772405
 20
102.3795719555147
 10
230.8486265581408
 20
102.4291784393144
 10
230.7952382662406
 20
102.4754752617148
 10
230.7387120521405
 20
102.5184452489143
 10
230.6790364667409
 20
102.5580712268147
 10
230.6162000606405
 20
102.5943360215149
 10
230.5519097315407
 20
102.6270207336148
 10
230.4872235843409
 20
102.6559091897143
 10
230.422150614841
 20
102.6809883049148
 10
230.3566998188406
 20
102.7022449943143
 10
230.2908801923404
 20
102.7196661729143
 10
230.2247007310409
 20
102.7332387559144
 10
230.1581704310407
 20
102.7429496585147
 10
230.091298288041
 20
102.7487857956146
 10
230.0240932979408
 20
102.7507340823148
 10
230.0240932979408
 20
102.7507340823148
 10
230.0240932979408
 20
102.7507340823148
 10
230.0240932979408
 20
102.7507340823148
 10
230.0240932979408
 20
102.7507340823148
 10
230.0240932979408
 20
102.7507340823148
 10
230.0240932979408
 20
102.7507340823148
 10
230.0240932979408
 20
102.7507340823148
 10
230.0240932979408
 20
102.7507340823148
 10
230.0240932979408
 20
102.7507340823148
 10
230.0240932979408
 20
102.7507340823148
 10
230.0240932979408
 20
102.7507340823148
 10
230.0240932979408
 20
102.7507340823148
 10
230.0240932979408
 20
102.7507340823148
 10
230.0240932979408
 20
102.7507340823148
 10
230.0240932979408
 20
102.7507340823148
 10
230.0240932979408
 20
102.7507340823148
 10
230.0240932979408
 20
102.7507340823148
 10
230.0240932979408
 20
102.7507340823148
  0
LWPOLYLINE
  5
8D
330
70
100
AcDbEntity
  8
CK_LEVEL_1
 62
     1
420
 16711680
370
    25
100
AcDbPolyline
 90
      163
 70
     0
 43
0.0
 10
229.3905519790409
 20
100.7449836020146
 10
229.3905519790409
 20
100.7983113763146
 10
229.3905519790409
 20
100.9412298114144
 10
229.3905519790409
 20
101.1481415757143
 10
229.3905519790409
 20
101.3934493374146
 10
229.3905519790409
 20
101.6515557650144
 10
229.3905519790409
 20
101.8968635268148
 10
229.3905519790409
 20
102.1037752910146
 10
229.3905519790409
 20
102.2466937261144
 10
229.3905519790409
 20
102.3000215004145
 10
229.4088503911404
 20
102.3000215004145
 10
229.4578901352405
 20
102.3000215004145
 10
229.5288879738409
 20
102.3000215004145
 10
229.6130606691408
 20
102.3000215004145
 10
229.7016249832406
 20
102.3000215004145
 10
229.7857976785405
 20
102.3000215004145
 10
229.8567955171403
 20
102.3000215004145
 10
229.9058352612405
 20
102.3000215004145
 10
229.9241336732405
 20
102.3000215004145
 10
229.983395448841
 20
102.2995214120145
 10
230.0389002230405
 20
102.2980080617144
 10
230.0906520849403
 20
102.2954618224143
 10
230.1386551235407
 20
102.2918630665144
 10
230.1829134279407
 20
102.2871921669144
 10
230.2234310870404
 20
102.2814294960144
 10
230.2602121900406
 20
102.2745554266144
 10
230.2932608259406
 20
102.2665503314144
 10
230.3225810836408
 20
102.2573945830149
 10
230.3490567391406
 20
102.2470115801143
 10
230.3743007785405
 20
102.2350158636144
 10
230.3983181087406
 20
102.2214213361147
 10
230.4211136366408
 20
102.2062419003149
 10
230.4426922690409
 20
102.1894914590148
 10
230.4630589127408
 20
102.1711839148148
 10
230.4822184745409
 20
102.1513331705147
 10
230.5001758614406
 20
102.1299531287148
 10
230.5169359801404
 20
102.1070576922148
 10
230.5322341340408
 20
102.0829166006146
 10
230.5457355679405
 20
102.0585064509144
 10
230.5574394639408
 20
102.0338084333144
 10
230.5673450043407
 20
102.0088037385145
 10
230.5754513712407
 20
101.9834735569145
 10
230.5817577468405
 20
101.9577990788145
 10
230.5862633134409
 20
101.9317614949145
 10
230.5889672530405
 20
101.9053419954147
 10
230.5898687480404
 20
101.8785217710145
 10
230.5883806134407
 20
101.8412250413148
 10
230.5839107577409
 20
101.8050405278148
 10
230.5764510029405
 20
101.7699543280144
 10
230.5659931708406
 20
101.7359525391144
 10
230.5525290834406
 20
101.7030212585144
 10
230.5360505626405
 20
101.6711465833145
 10
230.5165494304403
 20
101.6403146110145
 10
230.4940175087407
 20
101.6105114387146
 10
230.4684466194409
 20
101.5817231638144
 10
230.4401679741404
 20
101.5549698632144
 10
230.4099797514407
 20
101.5310060993146
 10
230.3778786803407
 20
101.5098171516146
 10
230.3438614894406
 20
101.4913882995142
 10
230.307924907541
 20
101.4757048225144
 10
230.2700656634405
 20
101.4627520002144
 10
230.2302804859403
 20
101.4525151121146
 10
230.1885661038409
 20
101.4449794376147
 10
230.1449192458409
 20
101.4401302562143
 10
230.1628628662409
 20
101.4323458323148
 10
230.1799927696404
 20
101.4242244723143
 10
230.1963048668406
 20
101.4157604515143
 10
230.211795068941
 20
101.4069480453146
 10
230.2264592868409
 20
101.3977815291146
 10
230.2402934315408
 20
101.3882551782147
 10
230.2532934139408
 20
101.3783632679144
 10
230.2654551451404
 20
101.3681000736147
 10
230.2767745360408
 20
101.3574598708146
 10
230.2981474901407
 20
101.3354107273144
 10
230.3205950415407
 20
101.3103275231147
 10
230.3441098298404
 20
101.2822012623148
 10
230.3686844949406
 20
101.2510229490143
 10
230.3943116765404
 20
101.2167835875148
 10
230.420984014341
 20
101.1794741817147
 10
230.4486941481408
 20
101.1390857359145
 10
230.4774347176405
 20
101.0956092542143
 10
230.5071983626407
 20
101.0490357406146
 10
230.5136999212404
 20
101.0386087126148
 10
230.5311240985404
 20
101.0106642773148
 10
230.5563501462406
 20
100.9702074084147
 10
230.5862573161409
 20
100.9222430793143
 10
230.6177248601406
 20
100.8717762634143
 10
230.6476320301404
 20
100.8238119343146
 10
230.6728580777405
 20
100.7833550654144
 10
230.6902822550406
 20
100.7554106301144
 10
230.6967838137404
 20
100.7449836020146
 10
230.6862579674408
 20
100.7449836020146
 10
230.6580486992407
 20
100.7449836020146
 10
230.6172084156406
 20
100.7449836020146
 10
230.5687895225405
 20
100.7449836020146
 10
230.5178444264407
 20
100.7449836020146
 10
230.4694255333405
 20
100.7449836020146
 10
230.428585249641
 20
100.7449836020146
 10
230.4003759815404
 20
100.7449836020146
 10
230.3898501352408
 20
100.7449836020146
 10
230.3851375274408
 20
100.7533967825147
 10
230.3725077386408
 20
100.7759441063144
 10
230.3542228203408
 20
100.8085872466146
 10
230.3325448245407
 20
100.8472878769144
 10
230.3097358029404
 20
100.8880076704146
 10
230.2880578070408
 20
100.9267083007143
 10
230.2697728888409
 20
100.9593514410145
 10
230.2571431000409
 20
100.9818987648143
 10
230.252430492241
 20
100.9903119452143
 10
230.2171080827405
 20
101.0516619887143
 10
230.1833427761406
 20
101.1077265512148
 10
230.1511313011405
 20
101.1584974546144
 10
230.1204703865407
 20
101.2039665210146
 10
230.0913567611404
 20
101.2441255722146
 10
230.0637871537408
 20
101.2789664302144
 10
230.0377582930405
 20
101.3084809168146
 10
230.0132669078406
 20
101.3326608542148
 10
229.9903097269404
 20
101.3514980641148
 10
229.9741647348405
 20
101.3628081865144
 10
229.9564650931408
 20
101.3727632042145
 10
229.9372091665405
 20
101.3813696595146
 10
229.9163953191404
 20
101.3886340950144
 10
229.8940219155408
 20
101.3945630531148
 10
229.8700873200406
 20
101.3991630762147
 10
229.8445898970408
 20
101.4024407069145
 10
229.8175280108408
 20
101.4044024875142
 10
229.7889000260406
 20
101.4050549604149
 10
229.7838228130409
 20
101.4050549604149
 10
229.7702158821405
 20
101.4050549604149
 10
229.7505162956408
 20
101.4050549604149
 10
229.7271611157404
 20
101.4050549604149
 10
229.7025874047408
 20
101.4050549604149
 10
229.6792322248404
 20
101.4050549604149
 10
229.6595326383408
 20
101.4050549604149
 10
229.6459257075404
 20
101.4050549604149
 10
229.6408484944406
 20
101.4050549604149
 10
229.6408484944406
 20
101.3824187685147
 10
229.6408484944406
 20
101.3217537739146
 10
229.6408484944406
 20
101.2339253490146
 10
229.6408484944406
 20
101.1297988659148
 10
229.6408484944406
 20
101.0202396966147
 10
229.6408484944406
 20
100.9161132135143
 10
229.6408484944406
 20
100.8282847886142
 10
229.6408484944406
 20
100.7676197940148
 10
229.6408484944406
 20
100.7449836020146
 10
229.6322649377408
 20
100.7449836020146
 10
229.6092610055407
 20
100.7449836020146
 10
229.5759568053409
 20
100.7449836020146
 10
229.5364724441407
 20
100.7449836020146
 10
229.4949280294409
 20
100.7449836020146
 10
229.4554436682407
 20
100.7449836020146
 10
229.4221394680409
 20
100.7449836020146
 10
229.3991355358408
 20
100.7449836020146
 10
229.3905519790409
 20
100.7449836020146
 10
229.3905519790409
 20
100.7449836020146
 10
229.3905519790409
 20
100.7449836020146
 10
229.3905519790409
 20
100.7449836020146
 10
229.3905519790409
 20
100.7449836020146
 10
229.3905519790409
 20
100.7449836020146
 10
229.3905519790409
 20
100.7449836020146
 10
229.3905519790409
 20
100.7449836020146
 10
229.3905519790409
 20
100.7449836020146
 10
229.3905519790409
 20
100.7449836020146
  0
LWPOLYLINE
  5
8E
330
70
100
AcDbEntity
  8
CK_LEVEL_1
 62
     1
420
 16711680
370
    25
100
AcDbPolyline
 90
       82
 70
     0
 43
0.0
 10
229.6408484944406
 20
101.6195806360145
 10
229.6513266354405
 20
101.6195806360145
 10
229.6794080532405
 20
101.6195806360145
 10
229.7200632401406
 20
101.6195806360145
 10
229.7682626885409
 20
101.6195806360145
 10
229.8189768907409
 20
101.6195806360145
 10
229.8671763391406
 20
101.6195806360145
 10
229.9078315260408
 20
101.6195806360145
 10
229.9359129437406
 20
101.6195806360145
 10
229.9463910847405
 20
101.6195806360145
 10
229.9930774555404
 20
101.6204097551144
 10
230.0363576637406
 20
101.6228867536148
 10
230.0762333451405
 20
101.6269960930147
 10
230.1127061352404
 20
101.6327222352149
 10
230.1457776696405
 20
101.6400496418144
 10
230.1754495840409
 20
101.6489627744145
 10
230.2017235139409
 20
101.6594460948143
 10
230.2246010950407
 20
101.6714840646145
 10
230.2440839629403
 20
101.6850611456149
 10
230.2605718884405
 20
101.7000414456148
 10
230.2751813133406
 20
101.7160947072143
 10
230.2878958814406
 20
101.7332119345148
 10
230.2986992366405
 20
101.7513841318146
 10
230.3075750228409
 20
101.7706023031143
 10
230.3145068838405
 20
101.7908574525147
 10
230.3194784635407
 20
101.8121405843148
 10
230.3224734058407
 20
101.8344427025146
 10
230.3234753546406
 20
101.8577548112143
 10
230.3230072969408
 20
101.8729097128147
 10
230.3216003978409
 20
101.8877047797146
 10
230.3192505682407
 20
101.9021408297143
 10
230.3159537191405
 20
101.9162186806145
 10
230.3117057615408
 20
101.9299391502143
 10
230.3065026063409
 20
101.9433030564144
 10
230.3003401646404
 20
101.9563112169144
 10
230.2932143472409
 20
101.9689644495144
 10
230.2851210652407
 20
101.9812635721148
 10
230.2759764935404
 20
101.9929718298147
 10
230.2662169315405
 20
102.0040430165146
 10
230.2558235698406
 20
102.0144656829148
 10
230.2447775988405
 20
102.0242283798148
 10
230.2330602089407
 20
102.0333196579145
 10
230.2206525907408
 20
102.0417280678147
 10
230.2075359346407
 20
102.0494421604144
 10
230.1936914311407
 20
102.0564504863146
 10
230.1791002705404
 20
102.0627415962144
 10
230.1624046222408
 20
102.0684177159146
 10
230.1429112591409
 20
102.0733954292148
 10
230.1206046430409
 20
102.0776829141143
 10
230.0954692355404
 20
102.0812883487144
 10
230.0674894983408
 20
102.0842199110144
 10
230.0366498931405
 20
102.0864857792145
 10
230.0029348816408
 20
102.0880941312144
 10
229.9663289254408
 20
102.0890531452144
 10
229.9268164862404
 20
102.0893709992143
 10
229.9170096278409
 20
102.0893709992143
 10
229.8907272472406
 20
102.0893709992143
 10
229.8526766365407
 20
102.0893709992143
 10
229.807565087741
 20
102.0893709992143
 10
229.7600998929407
 20
102.0893709992143
 10
229.7149883442404
 20
102.0893709992143
 10
229.6769377335404
 20
102.0893709992143
 10
229.6506553529408
 20
102.0893709992143
 10
229.6408484944406
 20
102.0893709992143
 10
229.6408484944406
 20
102.0732602185146
 10
229.6408484944406
 20
102.0300833265144
 10
229.6408484944406
 20
101.9675734976148
 10
229.6408484944406
 20
101.8934639067148
 10
229.6408484944406
 20
101.8154877285146
 10
229.6408484944406
 20
101.7413781376146
 10
229.6408484944406
 20
101.6788683087144
 10
229.6408484944406
 20
101.6356914166147
 10
229.6408484944406
 20
101.6195806360145
 10
229.6408484944406
 20
101.6195806360145
 10
229.6408484944406
 20
101.6195806360145
 10
229.6408484944406
 20
101.6195806360145
 10
229.6408484944406
 20
101.6195806360145
 10
229.6408484944406
 20
101.6195806360145
 10
229.6408484944406
 20
101.6195806360145
 10
229.6408484944406
 20
101.6195806360145
 10
229.6408484944406
 20
101.6195806360145
 10
229.6408484944406
 20
101.6195806360145
  0
LWPOLYLINE
  5
8F
330
70
100
AcDbEntity
  8
CK_LEVEL_1
 62
     1
420
 16711680
370
    25
100
AcDbPolyline
 90
       82
 70
     0
 43
0.0
 10
190.8125156145404
 20
90.96562950431462
 10
190.8828127216406
 20
90.96698122651453
 10
190.9485071886408
 20
90.97104134541442
 10
191.0095893585409
 20
90.97781728941475
 10
191.0660495745404
 20
90.98731648691476
 10
191.1178781795405
 20
90.99954636631492
 10
191.1650655167406
 20
91.0145143560144
 10
191.2076019292408
 20
91.03222788441437
 10
191.2454777599408
 20
91.05269438001476
 10
191.2786833521403
 20
91.07592127101456
 10
191.3081829127406
 20
91.10215468551448
 10
191.3342230648408
 20
91.1317665388143
 10
191.3568008370405
 20
91.16477243071454
 10
191.3759132580404
 20
91.20118796071478
 10
191.3915573565408
 20
91.24102872861433
 10
191.4037301609407
 20
91.28431033391468
 10
191.4124287001408
 20
91.33104837641441
 10
191.4176500026409
 20
91.38125845571456
 10
191.4193910971407
 20
91.43495617141478
 10
191.4176706784406
 20
91.4901858719144
 10
191.4125138792405
 20
91.54179348191467
 10
191.4039273851409
 20
91.5897804870144
 10
191.3919178817403
 20
91.63414837291433
 10
191.3764920546405
 20
91.67489862521446
 10
191.3576565893406
 20
91.7120327296149
 10
191.3354181714404
 20
91.74555217191459
 10
191.3097834865403
 20
91.77545843771484
 10
191.2807592200408
 20
91.8017530127145
 10
191.2477647184403
 20
91.82498918931436
 10
191.2100294083409
 20
91.84548057001441
 10
191.1675458613409
 20
91.86323012621485
 10
191.1203066491403
 20
91.87824082931468
 10
191.0683043432407
 20
91.89051565051455
 10
191.0115315151408
 20
91.90005756131476
 10
190.9499807366403
 20
91.90686953311432
 10
190.8836445792406
 20
91.91095453721461
 10
190.8125156145404
 20
91.91231554491448
 10
190.7931367613404
 20
91.91231554491448
 10
190.7412014349406
 20
91.91231554491448
 10
190.6660114846407
 20
91.91231554491448
 10
190.5768687600407
 20
91.91231554491448
 10
190.4830751107408
 20
91.91231554491448
 10
190.3939323862403
 20
91.91231554491448
 10
190.3187424359403
 20
91.91231554491448
 10
190.2668071095405
 20
91.91231554491448
 10
190.2474282563406
 20
91.91231554491448
 10
190.2474282563406
 20
91.87985031721433
 10
190.2474282563406
 20
91.79284350681454
 10
190.2474282563406
 20
91.6668784232146
 10
190.2474282563406
 20
91.51753837571446
 10
190.2474282563406
 20
91.36040667351464
 10
190.2474282563406
 20
91.2110666259144
 10
190.2474282563406
 20
91.08510154231446
 10
190.2474282563406
 20
90.99809473201476
 10
190.2474282563406
 20
90.96562950431462
 10
190.2668071095405
 20
90.96562950431462
 10
190.3187424359403
 20
90.96562950431462
 10
190.3939323862403
 20
90.96562950431462
 10
190.4830751107408
 20
90.96562950431462
 10
190.5768687600407
 20
90.96562950431462
 10
190.6660114846407
 20
90.96562950431462
 10
190.7412014349406
 20
90.96562950431462
 10
190.7931367613404
 20
90.96562950431462
 10
190.8125156145404
 20
90.96562950431462
 10
190.8125156145404
 20
90.96562950431462
 10
190.8125156145404
 20
90.96562950431462
 10
190.8125156145404
 20
90.96562950431462
 10
190.8125156145404
 20
90.96562950431462
 10
190.8125156145404
 20
90.96562950431462
 10
190.8125156145404
 20
90.96562950431462
 10
190.8125156145404
 20
90.96562950431462
 10
190.8125156145404
 20
90.96562950431462
 10
190.8125156145404
 20
90.96562950431462
 10
190.8125156145404
 20
90.96562950431462
 10
190.8125156145404
 20
90.96562950431462
 10
190.8125156145404
 20
90.96562950431462
 10
190.8125156145404
 20
90.96562950431462
 10
190.8125156145404
 20
90.96562950431462
 10
190.8125156145404
 20
90.96562950431462
 10
190.8125156145404
 20
90.96562950431462
 10
190.8125156145404
 20
90.96562950431462
 10
190.8125156145404
 20
90.96562950431462
  0
LWPOLYLINE
  5
90
330
70
100
AcDbEntity
  8
CK_LEVEL_1
 62
     1
420
 16711680
370
    25
100
AcDbPolyline
 90
       91
 70
     0
 43
0.0
 10
189.8559015098408
 20
89.31739035151446
 10
189.8559015098408
 20
89.41798334431437
 10
189.8559015098408
 20
89.68757256491485
 10
189.8559015098408
 20
90.07787337691489
 10
189.8559015098408
 20
90.54060114371447
 10
189.8559015098408
 20
91.02747122871489
 10
189.8559015098408
 20
91.49019899551449
 10
189.8559015098408
 20
91.88049980741441
 10
189.8559015098408
 20
92.15008902811437
 10
189.8559015098408
 20
92.2506820208148
 10
189.8909697746408
 20
92.2506820208148
 10
189.9849527245407
 20
92.2506820208148
 10
190.1210175922405
 20
92.2506820208148
 10
190.2823316106406
 20
92.2506820208148
 10
190.4520620125406
 20
92.2506820208148
 10
190.6133760309407
 20
92.2506820208148
 10
190.7494408986406
 20
92.2506820208148
 10
190.8434238484403
 20
92.2506820208148
 10
190.8784921133404
 20
92.2506820208148
 10
190.9824298695403
 20
92.24818087671449
 10
191.0803409602405
 20
92.24068784391462
 10
191.1722290997405
 20
92.22821852221446
 10
191.2580980021405
 20
92.21078851131442
 10
191.3379513816408
 20
92.18841341071476
 10
191.4117929524404
 20
92.16110882021473
 10
191.4796264288407
 20
92.12889033931455
 10
191.5414555249408
 20
92.09177356781479
 10
191.5972839549408
 20
92.04977410531446
 10
191.6470326064408
 20
92.00257042561457
 10
191.6909729875407
 20
91.9503109730148
 10
191.7290932129404
 20
91.89299426191457
 10
191.7613813969408
 20
91.83061880651488
 10
191.7878256543407
 20
91.76318312131456
 10
191.8084140995405
 20
91.69068572041458
 10
191.8231348471408
 20
91.61312511831438
 10
191.8319760117407
 20
91.53049982921436
 10
191.8349257077408
 20
91.44280836751454
 10
191.8315074031404
 20
91.34937165311447
 10
191.8212445655406
 20
91.26160875491462
 10
191.8041253095407
 20
91.17952413001471
 10
191.7801377497406
 20
91.10312223531487
 10
191.7492700006408
 20
91.03240752801426
 10
191.7115101768404
 20
90.96738446511443
 10
191.6668463927406
 20
90.90805750361433
 10
191.6152667631408
 20
90.85443110061433
 10
191.5567594023404
 20
90.80650971311468
 10
191.4913919090405
 20
90.76404733711475
 10
191.4182193899407
 20
90.72655827861492
 10
191.3372455592405
 20
90.69404848051442
 10
191.2484741312404
 20
90.66652388531473
 10
191.1519088199404
 20
90.64399043591448
 10
191.0475533397408
 20
90.6264540750147
 10
190.9354114047407
 20
90.61392074521435
 10
190.8154867291408
 20
90.60639638931458
 10
190.6877830272408
 20
90.60388695011452
 10
190.6726816976409
 20
90.60388695011452
 10
190.6322101343409
 20
90.60388695011452
 10
190.5736169755408
 20
90.60388695011452
 10
190.5041508594409
 20
90.60388695011452
 10
190.4310604241406
 20
90.60388695011452
 10
190.3615943080406
 20
90.60388695011452
 10
190.3030011492404
 20
90.60388695011452
 10
190.2625295859406
 20
90.60388695011452
 10
190.2474282563406
 20
90.60388695011452
 10
190.2474282563406
 20
90.55976841111428
 10
190.2474282563406
 20
90.44153072641483
 10
190.2474282563406
 20
90.27035079491446
 10
190.2474282563406
 20
90.06740551531439
 10
190.2474282563406
 20
89.8538717863146
 10
190.2474282563406
 20
89.65092650671454
 10
190.2474282563406
 20
89.47974657521479
 10
190.2474282563406
 20
89.36150889061481
 10
190.2474282563406
 20
89.31739035151446
 10
190.2340014131407
 20
89.31739035151446
 10
190.1980174735407
 20
89.31739035151446
 10
190.1459213220404
 20
89.31739035151446
 10
190.0841578435404
 20
89.31739035151446
 10
190.0191719226404
 20
89.31739035151446
 10
189.9574084441404
 20
89.31739035151446
 10
189.9053122926407
 20
89.31739035151446
 10
189.8693283529407
 20
89.31739035151446
 10
189.8559015098408
 20
89.31739035151446
 10
189.8559015098408
 20
89.31739035151446
 10
189.8559015098408
 20
89.31739035151446
 10
189.8559015098408
 20
89.31739035151446
 10
189.8559015098408
 20
89.31739035151446
 10
189.8559015098408
 20
89.31739035151446
 10
189.8559015098408
 20
89.31739035151446
 10
189.8559015098408
 20
89.31739035151446
 10
189.8559015098408
 20
89.31739035151446
 10
189.8559015098408
 20
89.31739035151446
  0
LWPOLYLINE
  5
91
330
70
100
AcDbEntity
  8
CK_LEVEL_1
 62
     1
420
 16711680
370
    25
100
AcDbPolyline
 90
      154
 70
     0
 43
0.0
 10
192.2132752055405
 20
89.31739035151446
 10
192.2132752055405
 20
89.37644617621462
 10
192.2132752055405
 20
89.53471578631475
 10
192.2132752055405
 20
89.76385238611474
 10
192.2132752055405
 20
90.03550917961476
 10
192.2132752055405
 20
90.32133937111471
 10
192.2132752055405
 20
90.59299616461473
 10
192.2132752055405
 20
90.82213276441471
 10
192.2132752055405
 20
90.98040237451485
 10
192.2132752055405
 20
91.03945819921436
 10
192.2132378159404
 20
91.06171320721459
 10
192.2131231708409
 20
91.08323874581477
 10
192.2129275561406
 20
91.10404744321439
 10
192.2126472576404
 20
91.12415192781433
 10
192.2122785611409
 20
91.14356482791485
 10
192.2118177523404
 20
91.16229877161465
 10
192.2112611171406
 20
91.18036638741477
 10
192.2106049413407
 20
91.19778030341457
 10
192.2098455106409
 20
91.21455314811447
 10
192.2091612307409
 20
91.23087446951442
 10
192.2083759244405
 20
91.24722030471479
 10
192.2074955345403
 20
91.26358173951484
 10
192.2065260038406
 20
91.27994985981462
 10
192.2054732749406
 20
91.29631575171437
 10
192.2043432906406
 20
91.31267050091459
 10
192.2031419936409
 20
91.32900519341475
 10
192.2018753266408
 20
91.34531091521436
 10
192.2005492324407
 20
91.36157875211466
 10
192.2135179906407
 20
91.36157875211466
 10
192.2482742624406
 20
91.36157875211466
 10
192.2985930440404
 20
91.36157875211466
 10
192.3582493315407
 20
91.36157875211466
 10
192.4210181209406
 20
91.36157875211466
 10
192.4806744084409
 20
91.36157875211466
 10
192.5309931900407
 20
91.36157875211466
 10
192.5657494618406
 20
91.36157875211466
 10
192.5787182199406
 20
91.36157875211466
 10
192.5790122610403
 20
91.34816119441468
 10
192.5798002910406
 20
91.3122021399144
 10
192.5809411703405
 20
91.26014201621458
 10
192.5822937592404
 20
91.19842125101481
 10
192.5837169179409
 20
91.13348027201464
 10
192.5850695067406
 20
91.07175950681485
 10
192.5862103860405
 20
91.01969938311439
 10
192.5869984161409
 20
90.98374032861475
 10
192.5872924571406
 20
90.97032277101488
 10
192.6007373761407
 20
91.01227048231457
 10
192.6163432182404
 20
91.05188641711485
 10
192.6341114692405
 20
91.08916537541459
 10
192.6540436148407
 20
91.12410215751493
 10
192.6761411406408
 20
91.15669156341473
 10
192.700405532341
 20
91.18692839331442
 10
192.7268382757408
 20
91.21480744721482
 10
192.7554408563409
 20
91.24032352531436
 10
192.7862147599407
 20
91.26347142761451
 10
192.8194358279408
 20
91.28416486101452
 10
192.8547791914407
 20
91.30238760661475
 10
192.8922478217403
 20
91.31814932151479
 10
192.9318446902408
 20
91.33145966251447
 10
192.9735727684404
 20
91.34232828651443
 10
193.0174350274404
 20
91.35076485061482
 10
193.0634344388406
 20
91.35677901161486
 10
193.1115739738409
 20
91.36038042641454
 10
193.1618566038405
 20
91.36157875211466
 10
193.1711506535406
 20
91.36155745731471
 10
193.1803243630404
 20
91.36148862081428
 10
193.1893844179405
 20
91.36136481401463
 10
193.1983375038406
 20
91.36117860861469
 10
193.2071903062404
 20
91.36092257621465
 10
193.2159495107405
 20
91.36058928841464
 10
193.2246218028406
 20
91.36017131681485
 10
193.2332138682405
 20
91.35966123301477
 10
193.2417323923407
 20
91.35905160851448
 10
193.2503301528408
 20
91.35831037741466
 10
193.2588551149406
 20
91.35741389271428
 10
193.2673080215408
 20
91.35636735411479
 10
193.2756896153407
 20
91.35517596171483
 10
193.2840006393404
 20
91.35384491521454
 10
193.2922418364408
 20
91.3523794146144
 10
193.300413949241
 20
91.35078465971465
 10
193.3085177207405
 20
91.34906585041438
 10
193.3165538937407
 20
91.34722818671468
 10
193.3165538937407
 20
91.3351755986145
 10
193.3165538937407
 20
91.30287466241465
 10
193.3165538937407
 20
91.25611062051449
 10
193.3165538937407
 20
91.20066871521455
 10
193.3165538937407
 20
91.1423341887146
 10
193.3165538937407
 20
91.08689228331455
 10
193.3165538937407
 20
91.04012824141438
 10
193.3165538937407
 20
91.00782730521453
 10
193.3165538937407
 20
90.99577471711436
 10
193.3028881035406
 20
90.99841328681486
 10
193.2895068212408
 20
91.00085797511473
 10
193.2764070755409
 20
91.00311546761444
 10
193.2635858950407
 20
91.00519244981438
 10
193.2510403084403
 20
91.00709560731436
 10
193.2387673442405
 20
91.00883162571488
 10
193.2267640312406
 20
91.01040719051438
 10
193.2150273979409
 20
91.01182898741472
 10
193.2035544731408
 20
91.0131037018149
 10
193.1921077952406
 20
91.01444069101491
 10
193.1809426540405
 20
91.01562316931426
 10
193.1700731633407
 20
91.01665039401437
 10
193.1595134371407
 20
91.01752162221442
 10
193.1492775893403
 20
91.01823611101435
 10
193.1393797341405
 20
91.01879311761479
 10
193.1298339852408
 20
91.01919189921444
 10
193.1206544568404
 20
91.01943171291447
 10
193.1118552627406
 20
91.01951181591486
 10
193.0570383339405
 20
91.01775227421427
 10
193.0051578538405
 20
91.0124686969144
 10
192.9562019370407
 20
91.00365365561472
 10
192.910158698141
 20
90.9912997218147
 10
192.8670162516404
 20
90.97539946721456
 10
192.8267627119407
 20
90.95594546331437
 10
192.7893861938406
 20
90.93293028181438
 10
192.7548748118407
 20
90.90634649421465
 10
192.7232166803405
 20
90.87618667211469
 10
192.6946656033409
 20
90.84292734791473
 10
192.6694818226405
 20
90.80657409261485
 10
192.6476631096404
 20
90.76713507771456
 10
192.6292072358405
 20
90.72461847431487
 10
192.6141119728408
 20
90.67903245371445
 10
192.6023750919409
 20
90.63038518721455
 10
192.5939943647408
 20
90.5786848460144
 10
192.5889675626403
 20
90.52393960131446
 10
192.5872924571406
 20
90.46615762431461
 10
192.5872924571406
 20
90.42676231321484
 10
192.5872924571406
 20
90.32118287931478
 10
192.5872924571406
 20
90.16832907211426
 10
192.5872924571406
 20
89.98711064091486
 10
192.5872924571406
 20
89.79643733501431
 10
192.5872924571406
 20
89.6152189037148
 10
192.5872924571406
 20
89.46236509651429
 10
192.5872924571406
 20
89.35678566261485
 10
192.5872924571406
 20
89.31739035151446
 10
192.5744660768409
 20
89.31739035151446
 10
192.5400913774409
 20
89.31739035151446
 10
192.4903250215408
 20
89.31739035151446
 10
192.4313236718406
 20
89.31739035151446
 10
192.3692439908404
 20
89.31739035151446
 10
192.3102426411409
 20
89.31739035151446
 10
192.2604762853409
 20
89.31739035151446
 10
192.2261015859409
 20
89.31739035151446
 10
192.2132752055405
 20
89.31739035151446
 10
192.2132752055405
 20
89.31739035151446
 10
192.2132752055405
 20
89.31739035151446
 10
192.2132752055405
 20
89.31739035151446
 10
192.2132752055405
 20
89.31739035151446
 10
192.2132752055405
 20
89.31739035151446
 10
192.2132752055405
 20
89.31739035151446
 10
192.2132752055405
 20
89.31739035151446
 10
192.2132752055405
 20
89.31739035151446
 10
192.2132752055405
 20
89.31739035151446
  0
LWPOLYLINE
  5
92
330
70
100
AcDbEntity
  8
CK_LEVEL_1
 62
     1
420
 16711680
370
    25
100
AcDbPolyline
 90
      235
 70
     0
 43
0.0
 10
195.2954878365405
 20
89.31739035151446
 10
195.2838871431409
 20
89.31739035151446
 10
195.2527972846404
 20
89.31739035151446
 10
195.2077865941409
 20
89.31739035151446
 10
195.1544234042405
 20
89.31739035151446
 10
195.0982760480403
 20
89.31739035151446
 10
195.0449128581405
 20
89.31739035151446
 10
194.9999021676404
 20
89.31739035151446
 10
194.9688123091405
 20
89.31739035151446
 10
194.957211615741
 20
89.31739035151446
 10
194.9526789264409
 20
89.33379586151444
 10
194.9482138356407
 20
89.35472898471456
 10
194.9437970294406
 20
89.38018452131458
 10
194.9394091940404
 20
89.41015727131471
 10
194.9350310155409
 20
89.44464203501478
 10
194.9306431801407
 20
89.48363361221474
 10
194.9262263740406
 20
89.52712680331456
 10
194.9217612832405
 20
89.57511640841453
 10
194.9172285939404
 20
89.6275972274147
 10
194.9172285939404
 20
89.62934612171435
 10
194.9172285939404
 20
89.63098507561445
 10
194.9172285939404
 20
89.63251780331457
 10
194.9172285939404
 20
89.63394801901435
 10
194.9172285939404
 20
89.63527943691463
 10
194.9172285939404
 20
89.6365157712144
 10
194.9172285939404
 20
89.63766073611456
 10
194.9172285939404
 20
89.63871804591477
 10
194.9172285939404
 20
89.63969141461445
 10
194.8989959437405
 20
89.60044727151435
 10
194.8785303148407
 20
89.56334325211457
 10
194.8558250216404
 20
89.52838009921448
 10
194.8308733785405
 20
89.49555855561468
 10
194.8036687000406
 20
89.46487936421467
 10
194.774204300641
 20
89.43634326781449
 10
194.7424734945409
 20
89.40995100931484
 10
194.7084695964409
 20
89.38570333151446
 10
194.6721859206403
 20
89.36360097721465
 10
194.6338979371404
 20
89.3434572459145
 10
194.5937662233404
 20
89.32568614731451
 10
194.5517922650407
 20
89.3102869386147
 10
194.5079775477406
 20
89.29725887701442
 10
194.4623235572408
 20
89.28660121971491
 10
194.4148317792409
 20
89.27831322371471
 10
194.3655036993409
 20
89.27239414631452
 10
194.3143408032403
 20
89.26884324461427
 10
194.2613445766404
 20
89.26765977581458
 10
194.193854292641
 20
89.26973081531478
 10
194.1294623965409
 20
89.2759513622146
 10
194.0681518031404
 20
89.28633255901464
 10
194.0099054270409
 20
89.3008855485146
 10
193.9547061829407
 20
89.31962147311429
 10
193.9025369855406
 20
89.3425514756147
 10
193.8533807494406
 20
89.3696866985145
 10
193.8072203892409
 20
89.40103828441442
 10
193.7640388197405
 20
89.43661737601466
 10
193.7248961982406
 20
89.47557651591472
 10
193.6903279888406
 20
89.51723736691489
 10
193.6603423629407
 20
89.56159398641428
 10
193.6349474916406
 20
89.6086404315149
 10
193.6141515463403
 20
89.65837075961458
 10
193.5979626981403
 20
89.71077902791471
 10
193.5863891184406
 20
89.76585929371434
 10
193.5794389783403
 20
89.82360561431436
 10
193.5771204490406
 20
89.88401204691431
 10
193.5803131778405
 20
89.95431806811444
 10
193.5898928497403
 20
90.02135856221439
 10
193.6058616932406
 20
90.08511718661488
 10
193.6282219370406
 20
90.14557759901437
 10
193.6569758095409
 20
90.20272345681492
 10
193.692125539241
 20
90.25653841751475
 10
193.7336733547404
 20
90.30700613861474
 10
193.7816214844404
 20
90.35411027771452
 10
193.8359721570409
 20
90.39783449221484
 10
193.8956907192409
 20
90.43777480071451
 10
193.9601010625405
 20
90.47299955731437
 10
194.0292017011407
 20
90.50351321911483
 10
194.1029911493409
 20
90.52932024311479
 10
194.1814679214403
 20
90.55042508631451
 10
194.2646305318407
 20
90.56683220581438
 10
194.3524774948407
 20
90.57854605861463
 10
194.4450073247404
 20
90.5855711018143
 10
194.5422185358406
 20
90.58791179241435
 10
194.5544135017404
 20
90.58791179241435
 10
194.5870960103409
 20
90.58791179241435
 10
194.6344124780408
 20
90.58791179241435
 10
194.6905093211409
 20
90.58791179241435
 10
194.7495329560405
 20
90.58791179241435
 10
194.8056297991406
 20
90.58791179241435
 10
194.8529462668405
 20
90.58791179241435
 10
194.8856287754403
 20
90.58791179241435
 10
194.8978237413407
 20
90.58791179241435
 10
194.8978237413407
 20
90.59641731681431
 10
194.8978237413407
 20
90.61921212231473
 10
194.8978237413407
 20
90.65221355711463
 10
194.8978237413407
 20
90.69133896951433
 10
194.8978237413407
 20
90.73250570781487
 10
194.8978237413407
 20
90.77163112021457
 10
194.8978237413407
 20
90.80463255501447
 10
194.8978237413407
 20
90.82742736051491
 10
194.8978237413407
 20
90.83593288491485
 10
194.8965569505408
 20
90.87173235251466
 10
194.8927570734404
 20
90.90548900861426
 10
194.8864248528406
 20
90.93721251001481
 10
194.8775610316405
 20
90.96691251371444
 10
194.8661663527407
 20
90.99459867671452
 10
194.8522415587403
 20
91.02028065591436
 10
194.8357873926403
 20
91.04396810811449
 10
194.8168045973408
 20
91.06567069031433
 10
194.7952939155409
 20
91.0853980595146
 10
194.7714124581403
 20
91.10314674911462
 10
194.7451338542405
 20
91.11884074161478
 10
194.7164543896405
 20
91.13247112311468
 10
194.6853703501407
 20
91.14402897941426
 10
194.6518780215409
 20
91.15350539641484
 10
194.6159736895407
 20
91.16089146021474
 10
194.5776536401408
 20
91.16617825641432
 10
194.5369141590407
 20
91.16935687121459
 10
194.4937515319409
 20
91.17041839041485
 10
194.4528086363407
 20
91.16926475901433
 10
194.4137948976409
 20
91.16580237911454
 10
194.3767073445407
 20
91.16002902231484
 10
194.3415430055404
 20
91.1519424599149
 10
194.3082989095408
 20
91.14154046351471
 10
194.2769720849407
 20
91.12882080461472
 10
194.2475595605408
 20
91.11378125461481
 10
194.2200583648408
 20
91.09641958491465
 10
194.1944655265405
 20
91.0767335672144
 10
194.1711650942408
 20
91.05505921291443
 10
194.1504779750407
 20
91.0316748396144
 10
194.1323967405408
 20
91.00658193301438
 10
194.1169139623406
 20
90.97978197891457
 10
194.1040222120404
 20
90.95127646271484
 10
194.0937140611408
 20
90.92106687041491
 10
194.0859820813408
 20
90.88915468751473
 10
194.0808188442406
 20
90.85554139961432
 10
194.0782169213408
 20
90.82022849261461
 10
194.0658052936404
 20
90.82022849261461
 10
194.0325421313403
 20
90.82022849261461
 10
193.9843850157409
 20
90.82022849261461
 10
193.9272915282407
 20
90.82022849261461
 10
193.8672192500405
 20
90.82022849261461
 10
193.8101257625409
 20
90.82022849261461
 10
193.7619686469408
 20
90.82022849261461
 10
193.7287054846408
 20
90.82022849261461
 10
193.7162938569404
 20
90.82022849261461
 10
193.7162938569404
 20
90.82131180181461
 10
193.7162938569404
 20
90.82421507031479
 10
193.7162938569404
 20
90.82841830981427
 10
193.7162938569404
 20
90.83340153191464
 10
193.7162938569404
 20
90.83864474821487
 10
193.7162938569404
 20
90.84362797031458
 10
193.7162938569404
 20
90.8478312098147
 10
193.7162938569404
 20
90.85073447841436
 10
193.7162938569404
 20
90.85181778751488
 10
193.7186755275403
 20
90.91051878201486
 10
193.7258269774405
 20
90.96609464631434
 10
193.7377578635407
 20
91.01853572341452
 10
193.7544778427406
 20
91.06783235641481
 10
193.7759965719405
 20
91.11397488831448
 10
193.8023237080405
 20
91.15695366231429
 10
193.8334689081408
 20
91.19675902151431
 10
193.8694418290405
 20
91.23338130881434
 10
193.9102521276403
 20
91.26681086741454
 10
193.9554805942406
 20
91.29715355201472
 10
194.0049313666407
 20
91.32392094501479
 10
194.0585881023404
 20
91.34711453211487
 10
194.1164344587404
 20
91.36673579891432
 10
194.1784540934408
 20
91.38278623111455
 10
194.2446306639408
 20
91.39526731441439
 10
194.3149478277404
 20
91.40418053451458
 10
194.3893892423404
 20
91.40952737711463
 10
194.4679385652405
 20
91.41130932781454
 10
194.5594513226406
 20
91.40944913121435
 10
194.6451788377407
 20
91.40387547461449
 10
194.7251255675405
 20
91.39459875791448
 10
194.7992959691404
 20
91.38162938071486
 10
194.8676944995407
 20
91.36497774291449
 10
194.9303256158409
 20
91.34465424411457
 10
194.9871937750408
 20
91.3206692843147
 10
195.0383034342407
 20
91.29303326301469
 10
195.0836590504408
 20
91.2617565802148
 10
195.1239919502409
 20
91.22588939031459
 10
195.1596048410407
 20
91.18548790161439
 10
195.1904910373407
 20
91.14053725731446
 10
195.2166438535403
 20
91.09102260061453
 10
195.2380566041405
 20
91.0369290747149
 10
195.2547226036409
 20
90.97824182281462
 10
195.2666351662407
 20
90.91494598801446
 10
195.2737876066405
 20
90.84702671351482
 10
195.2761732391404
 20
90.7744691426148
 10
195.2761732391404
 20
90.73117082331455
 10
195.2761732391404
 20
90.61513132771457
 10
195.2761732391404
 20
90.4471338490145
 10
195.2761732391404
 20
90.24796158041459
 10
195.2761732391404
 20
90.03839771521452
 10
195.2761732391404
 20
89.83922544661458
 10
195.2761732391404
 20
89.6712279678144
 10
195.2761732391404
 20
89.55518847221444
 10
195.2761732391404
 20
89.51189015301428
 10
195.2762087716403
 20
89.50589307731469
 10
195.2763237881405
 20
89.49921333121434
 10
195.2765309168409
 20
89.49185017171428
 10
195.2768427860405
 20
89.48380285611465
 10
195.2772720240408
 20
89.47507064151466
 10
195.2778312592408
 20
89.46565278501486
 10
195.2785331197406
 20
89.4555485439147
 10
195.2793902339403
 20
89.44475717521459
 10
195.2804152301409
 20
89.43327793621467
 10
195.2817195343407
 20
89.42159602551456
 10
195.2831077795409
 20
89.40959989331428
 10
195.2845836799404
 20
89.39729622511483
 10
195.2861509497403
 20
89.3846917064147
 10
195.2878133030406
 20
89.37179302291445
 10
195.2895744542404
 20
89.35860686011443
 10
195.2914381174407
 20
89.34513990351439
 10
195.2934080067407
 20
89.33139883881429
 10
195.2954878365405
 20
89.31739035151446
 10
195.2954878365405
 20
89.31739035151446
 10
195.2954878365405
 20
89.31739035151446
 10
195.2954878365405
 20
89.31739035151446
 10
195.2954878365405
 20
89.31739035151446
 10
195.2954878365405
 20
89.31739035151446
 10
195.2954878365405
 20
89.31739035151446
 10
195.2954878365405
 20
89.31739035151446
 10
195.2954878365405
 20
89.31739035151446
 10
195.2954878365405
 20
89.31739035151446
 10
195.2954878365405
 20
89.31739035151446
 10
195.2954878365405
 20
89.31739035151446
 10
195.2954878365405
 20
89.31739035151446
 10
195.2954878365405
 20
89.31739035151446
 10
195.2954878365405
 20
89.31739035151446
 10
195.2954878365405
 20
89.31739035151446
 10
195.2954878365405
 20
89.31739035151446
 10
195.2954878365405
 20
89.31739035151446
 10
195.2954878365405
 20
89.31739035151446
  0
LWPOLYLINE
  5
93
330
70
100
AcDbEntity
  8
CK_LEVEL_1
 62
     1
420
 16711680
370
    25
100
AcDbPolyline
 90
       82
 70
     0
 43
0.0
 10
194.8978237413407
 20
90.33149697291475
 10
194.8869070802409
 20
90.33149697291475
 10
194.8576504284405
 20
90.33149697291475
 10
194.8152937834408
 20
90.33149697291475
 10
194.7650771424407
 20
90.33149697291475
 10
194.7122405027407
 20
90.33149697291475
 10
194.6620238617406
 20
90.33149697291475
 10
194.6196672166408
 20
90.33149697291475
 10
194.5904105649405
 20
90.33149697291475
 10
194.5794939038407
 20
90.33149697291475
 10
194.5160391011409
 20
90.33015924091472
 10
194.4558743393405
 20
90.32614356861476
 10
194.3989869900403
 20
90.31944624191469
 10
194.3453644250404
 20
90.3100635466143
 10
194.2949940160404
 20
90.2979917684145
 10
194.2478631347408
 20
90.28322719321455
 10
194.2039591527407
 20
90.2657661068148
 10
194.1632694419407
 20
90.24560479491432
 10
194.1257813739406
 20
90.22273954341484
 10
194.0920466317406
 20
90.1976650840143
 10
194.0622667726408
 20
90.17045644371458
 10
194.0364455108407
 20
90.1411121368149
 10
194.0145865606408
 20
90.10963067761451
 10
193.9966936362405
 20
90.07601058041457
 10
193.9827704517407
 20
90.04025035951434
 10
193.9728207214404
 20
90.00234852931439
 10
193.9668481595406
 20
89.96230360411468
 10
193.9648564802408
 20
89.9201140982144
 10
193.9662186021407
 20
89.88739494281455
 10
193.9702980349406
 20
89.85601290041449
 10
193.9770843787404
 20
89.8259479144143
 10
193.9865672337406
 20
89.79717992791433
 10
193.9987362001405
 20
89.76968888441481
 10
194.0135808783408
 20
89.74345472711489
 10
194.0310908684408
 20
89.71845739941462
 10
194.0512557707405
 20
89.69467684441442
 10
194.0740651854404
 20
89.67209300571452
 10
194.0992258143409
 20
89.65138719171466
 10
194.1257406415409
 20
89.63313126581491
 10
194.1536267524405
 20
89.6173215139145
 10
194.1829012323407
 20
89.60395422181447
 10
194.2135811665407
 20
89.59302567531461
 10
194.2456836404404
 20
89.58453216011454
 10
194.2792257394404
 20
89.57846996211475
 10
194.3142245486409
 20
89.57483536701429
 10
194.3506971536407
 20
89.57362466071428
 10
194.4079649610407
 20
89.57539410691442
 10
194.4621462660409
 20
89.58069353151431
 10
194.5132566680408
 20
89.58950956331431
 10
194.5613117668403
 20
89.60182883121481
 10
194.6063271620404
 20
89.6176379640149
 10
194.6483184533409
 20
89.63692359071444
 10
194.6873012403408
 20
89.65967234011442
 10
194.7232911227405
 20
89.6858708410145
 10
194.7563037001405
 20
89.7155057224146
 10
194.785902429941
 20
89.74881927401431
 10
194.8120551224409
 20
89.78527801261469
 10
194.8347521205408
 20
89.82487822401484
 10
194.8539837674408
 20
89.86761619381431
 10
194.8697404062409
 20
89.91348820801436
 10
194.8820123799404
 20
89.96249055231462
 10
194.8907900316406
 20
90.01461951261433
 10
194.8960637044404
 20
90.06987137451432
 10
194.8978237413407
 20
90.12824242401455
 10
194.8978237413407
 20
90.13521274461467
 10
194.8978237413407
 20
90.1538932039149
 10
194.8978237413407
 20
90.18093804781464
 10
194.8978237413407
 20
90.21300152261439
 10
194.8978237413407
 20
90.24673787441436
 10
194.8978237413407
 20
90.27880134911463
 10
194.8978237413407
 20
90.30584619311449
 10
194.8978237413407
 20
90.32452665231462
 10
194.8978237413407
 20
90.33149697291475
 10
194.8978237413407
 20
90.33149697291475
 10
194.8978237413407
 20
90.33149697291475
 10
194.8978237413407
 20
90.33149697291475
 10
194.8978237413407
 20
90.33149697291475
 10
194.8978237413407
 20
90.33149697291475
 10
194.8978237413407
 20
90.33149697291475
 10
194.8978237413407
 20
90.33149697291475
 10
194.8978237413407
 20
90.33149697291475
 10
194.8978237413407
 20
90.33149697291475
  0
LWPOLYLINE
  5
94
330
70
100
AcDbEntity
  8
CK_LEVEL_1
 62
     1
420
 16711680
370
    25
100
AcDbPolyline
 90
        6
 70
     0
 43
0.0
 10
194.6414089218404
 20
91.74931478321475
 10
194.6414089218404
 20
92.1646688836145
 10
195.0038735170408
 20
92.1646688836145
 10
195.0038735170408
 20
91.74931478321475
 10
194.6414089218404
 20
91.74931478321475
 10
194.6414089218404
 20
91.74931478321475
  0
LWPOLYLINE
  5
95
330
70
100
AcDbEntity
  8
CK_LEVEL_1
 62
     1
420
 16711680
370
    25
100
AcDbPolyline
 90
        6
 70
     0
 43
0.0
 10
193.9851638840404
 20
91.74931478321475
 10
193.9851638840404
 20
92.1646688836145
 10
194.3473577138407
 20
92.1646688836145
 10
194.3473577138407
 20
91.74931478321475
 10
193.9851638840404
 20
91.74931478321475
 10
193.9851638840404
 20
91.74931478321475
  0
LWPOLYLINE
  5
96
330
70
100
AcDbEntity
  8
CK_LEVEL_1
 62
     1
420
 16711680
370
    25
100
AcDbPolyline
 90
       12
 70
     0
 43
0.0
 10
195.7034410164407
 20
89.31739035151446
 10
195.7034410164407
 20
89.69510806341473
 10
196.7935424558408
 20
91.08133657871439
 10
195.7711323626405
 20
91.08133657871439
 10
195.7711323626405
 20
91.36157875211466
 10
197.2088965562406
 20
91.36157875211466
 10
197.2088965562406
 20
91.03187676841445
 10
196.0887401590408
 20
89.60593599661475
 10
197.2053766062409
 20
89.60593599661475
 10
197.2053766062409
 20
89.31739035151446
 10
195.7034410164407
 20
89.31739035151446
 10
195.7034410164407
 20
89.31739035151446
  0
LWPOLYLINE
  5
97
330
70
100
AcDbEntity
  8
CK_LEVEL_1
 62
     1
420
 16711680
370
    25
100
AcDbPolyline
 90
        6
 70
     0
 43
0.0
 10
198.0910501801403
 20
91.83523766531489
 10
197.6486195412408
 20
91.83523766531489
 10
197.6486195412408
 20
92.2506820208148
 10
198.0910501801403
 20
92.2506820208148
 10
198.0910501801403
 20
91.83523766531489
 10
198.0910501801403
 20
91.83523766531489
  0
LWPOLYLINE
  5
98
330
70
100
AcDbEntity
  8
CK_LEVEL_1
 62
     1
420
 16711680
370
    25
100
AcDbPolyline
 90
        6
 70
     0
 43
0.0
 10
197.6830067451406
 20
89.31739035151446
 10
197.6830067451406
 20
91.36157875211466
 10
198.0613562429409
 20
91.36157875211466
 10
198.0613562429409
 20
89.31739035151446
 10
197.6830067451406
 20
89.31739035151446
 10
197.6830067451406
 20
89.31739035151446
  0
LWPOLYLINE
  5
99
330
70
100
AcDbEntity
  8
CK_LEVEL_1
 62
     1
420
 16711680
370
    25
100
AcDbPolyline
 90
      307
 70
     0
 43
0.0
 10
198.5469288330404
 20
89.93175700981453
 10
198.5598821153405
 20
89.93175700981453
 10
198.5945969119407
 20
89.93175700981453
 10
198.6448556472408
 20
89.93175700981453
 10
198.7044407458406
 20
89.93175700981453
 10
198.7671346321405
 20
89.93175700981453
 10
198.8267197307403
 20
89.93175700981453
 10
198.8769784661405
 20
89.93175700981453
 10
198.9116932626406
 20
89.93175700981453
 10
198.9246465449407
 20
89.93175700981453
 10
198.9246465449407
 20
89.93147534941471
 10
198.9246465449407
 20
89.93072049961446
 10
198.9246465449407
 20
89.9296276573143
 10
198.9246465449407
 20
89.92833201951482
 10
198.9246465449407
 20
89.92696878331482
 10
198.9246465449407
 20
89.9256731456148
 10
198.9246465449407
 20
89.92458030331462
 10
198.9246465449407
 20
89.92382545351437
 10
198.9246465449407
 20
89.92354379311457
 10
198.9261093218409
 20
89.8871483197149
 10
198.9304922049409
 20
89.85244206581462
 10
198.9377870230409
 20
89.8194094317146
 10
198.9479856049403
 20
89.78803481781451
 10
198.9610797793404
 20
89.75830262431442
 10
198.9770613750409
 20
89.73019725161462
 10
198.9959222207404
 20
89.70370310011483
 10
199.0176541451408
 20
89.6788045702147
 10
199.0422489771407
 20
89.65548606211431
 10
199.0695722624404
 20
89.63429467791454
 10
199.0988306475405
 20
89.61555466771461
 10
199.1300204179404
 20
89.59927717381487
 10
199.1631378597407
 20
89.5854733391145
 10
199.1981792585405
 20
89.57415430601463
 10
199.2351409001407
 20
89.56533121731489
 10
199.2740190704405
 20
89.55901521541456
 10
199.3148100552404
 20
89.55521744301444
 10
199.3575101402407
 20
89.55394904271463
 10
199.3989269681408
 20
89.5550709796146
 10
199.4385773212403
 20
89.55843183791488
 10
199.4764597137404
 20
89.56402418931446
 10
199.5125726600404
 20
89.57184060531469
 10
199.5469146744408
 20
89.5818736575144
 10
199.5794842712408
 20
89.59411591761455
 10
199.6102799648403
 20
89.60855995711449
 10
199.6393002694406
 20
89.62519834761442
 10
199.666543699441
 20
89.64402366081461
 10
199.6913265939409
 20
89.66453200301467
 10
199.7132049817406
 20
89.68634625901451
 10
199.7321758916406
 20
89.70946865711468
 10
199.748236352241
 20
89.73390142611433
 10
199.7613833921406
 20
89.75964679431468
 10
199.7716140399405
 20
89.78670699031466
 10
199.7789253243407
 20
89.8150842426144
 10
199.7833142740404
 20
89.84478077971465
 10
199.7847779175404
 20
89.87579883021435
 10
199.7840384197409
 20
89.89888606731467
 10
199.7818169550404
 20
89.92096898391466
 10
199.7781090663404
 20
89.94203940881446
 10
199.7729102967409
 20
89.96208917081485
 10
199.7662161889405
 20
89.9811100986146
 10
199.7580222861406
 20
89.99909402101451
 10
199.7483241312408
 20
90.01603276671461
 10
199.7371172670406
 20
90.03191816461452
 10
199.7243972367406
 20
90.04674204321473
 10
199.7105328604406
 20
90.0609242314147
 10
199.6949391513406
 20
90.07423655331431
 10
199.6776250235405
 20
90.08669163721435
 10
199.6585993910408
 20
90.09830211141446
 10
199.6378711680404
 20
90.10908060411466
 10
199.6154492685409
 20
90.11903974371469
 10
199.5913426066404
 20
90.1281921585147
 10
199.5655600963407
 20
90.1365504767148
 10
199.5381106519408
 20
90.14412732661456
 10
199.5232662213406
 20
90.14763105791487
 10
199.4834831474409
 20
90.15702105791479
 10
199.4258867568407
 20
90.17061553541463
 10
199.3576023762407
 20
90.18673269941428
 10
199.2857553323408
 20
90.20369075901443
 10
199.2174709517408
 20
90.21980792311486
 10
199.1598745611407
 20
90.2334024006147
 10
199.1200914872403
 20
90.2427924005145
 10
199.1052470566408
 20
90.24629613181481
 10
199.0458444492406
 20
90.26114922891471
 10
198.9899569633405
 20
90.27773388731477
 10
198.9375764277404
 20
90.29605679261482
 10
198.8886946712407
 20
90.31612463031461
 10
198.8433035225406
 20
90.3379440862148
 10
198.8013948103409
 20
90.3615218456143
 10
198.7629603634404
 20
90.38686459421432
 10
198.7279920106406
 20
90.41397901761472
 10
198.6964815806408
 20
90.44287180121445
 10
198.6683128189405
 20
90.47325138031439
 10
198.6434385551405
 20
90.50536474921463
 10
198.6218639890409
 20
90.53921413651471
 10
198.6035943206409
 20
90.57480177071481
 10
198.5886347497408
 20
90.6121298804145
 10
198.5769904763405
 20
90.65120069401443
 10
198.5686667002407
 20
90.69201644011483
 10
198.5636686213407
 20
90.73457934721457
 10
198.5620014395407
 20
90.77889164391448
 10
198.5648207670405
 20
90.83997678511472
 10
198.5732708260409
 20
90.89843598511489
 10
198.5873397310404
 20
90.95426404371428
 10
198.6070155966403
 20
91.00745576121466
 10
198.6322865373402
 20
91.05800593761433
 10
198.663140667741
 20
91.10590937311426
 10
198.6995661022408
 20
91.15116086781478
 10
198.7415509556404
 20
91.19375522181485
 10
198.7890833422408
 20
91.23368723531489
 10
198.8416435214408
 20
91.27018794441482
 10
198.8977032225403
 20
91.30237497831457
 10
198.9572721024408
 20
91.33025353701452
 10
199.0203598180408
 20
91.35382882031432
 10
199.0869760264406
 20
91.37310602811432
 10
199.1571303843405
 20
91.38809036031426
 10
199.2308325487407
 20
91.3987870168145
 10
199.3080921766405
 20
91.40520119741463
 10
199.3889189248405
 20
91.40733810211449
 10
199.4635550875404
 20
91.40555107531465
 10
199.5346256154408
 20
91.40019544251453
 10
199.6021215945404
 20
91.39127937481452
 10
199.6660341108407
 20
91.37881104361467
 10
199.7263542501409
 20
91.36279862011484
 10
199.7830730984406
 20
91.34325027551488
 10
199.8361817415404
 20
91.32017418101465
 10
199.8856712655405
 20
91.29357850801481
 10
199.9315327561406
 20
91.26347142761451
 10
199.9732739577408
 20
91.23000670791439
 10
200.0101072118407
 20
91.19393387501451
 10
200.0420317754409
 20
91.15525218601479
 10
200.0690469057406
 20
91.11396089821468
 10
200.0911518599405
 20
91.07005926861461
 10
200.1083458952407
 20
91.02354655441457
 10
200.1206282687403
 20
90.97442201281452
 10
200.1279982375405
 20
90.92268490091441
 10
200.1304550588407
 20
90.8683344760143
 10
200.1304545636409
 20
90.86298305261486
 10
200.1304510970409
 20
90.8579413937147
 10
200.1304416877405
 20
90.85321172781458
 10
200.1304233643408
 20
90.84879628351474
 10
200.1303931555403
 20
90.84469728931466
 10
200.1303480898407
 20
90.84091697371446
 10
200.1302851960407
 20
90.83745756521429
 10
200.1302015026404
 20
90.83432129231487
 10
200.1300940383406
 20
90.83151038361455
 10
200.1297893499406
 20
90.82871829361446
 10
200.1294750045405
 20
90.82599454491436
 10
200.1291480309404
 20
90.82333393761455
 10
200.1288054576404
 20
90.82073127191474
 10
200.1284443132404
 20
90.81818134781448
 10
200.1280616265403
 20
90.81567896561429
 10
200.1276544261406
 20
90.8132189253143
 10
200.1272197406404
 20
90.81079602701482
 10
200.1267545986407
 20
90.80840507081481
 10
200.1138632197405
 20
90.80840507081481
 10
200.0793143241405
 20
90.80840507081481
 10
200.0292957739404
 20
90.80840507081481
 10
199.9699954309404
 20
90.80840507081481
 10
199.9076011569405
 20
90.80840507081481
 10
199.8483008139406
 20
90.80840507081481
 10
199.7982822637405
 20
90.80840507081481
 10
199.7637333682406
 20
90.80840507081481
 10
199.7508419893404
 20
90.80840507081481
 10
199.7508419893404
 20
90.80894053501443
 10
199.7508419893404
 20
90.81037557921458
 10
199.7508419893404
 20
90.81245318041473
 10
199.7508419893404
 20
90.81491631591473
 10
199.7508419893404
 20
90.81750796291435
 10
199.7508419893404
 20
90.81997109841436
 10
199.7508419893404
 20
90.82204869961449
 10
199.7508419893404
 20
90.82348374381464
 10
199.7508419893404
 20
90.82401920801491
 10
199.7495479610408
 20
90.85611437731456
 10
199.7456643905407
 20
90.88663843891442
 10
199.7391890494409
 20
90.91559807821479
 10
199.7301197089408
 20
90.94299998081481
 10
199.7184541408406
 20
90.96885083241447
 10
199.7041901163405
 20
90.99315731841466
 10
199.6873254070406
 20
91.01592612451467
 10
199.6678577844406
 20
91.03716393611479
 10
199.6457850199404
 20
91.05687743901441
 10
199.6218341069403
 20
91.07491236981429
 10
199.5959518084403
 20
91.09081163391474
 10
199.5681388673405
 20
91.1045789457143
 10
199.5383960265408
 20
91.11621801921428
 10
199.5067240287407
 20
91.1257325687144
 10
199.4731236167407
 20
91.13312630851437
 10
199.4375955336405
 20
91.13840295261484
 10
199.4001405220406
 20
91.1415662153149
 10
199.3607593248404
 20
91.14261981091486
 10
199.3221891857408
 20
91.1415662153149
 10
199.2851767833409
 20
91.13840295261484
 10
199.2497154320408
 20
91.13312630851437
 10
199.2157984462407
 20
91.1257325687144
 10
199.1834191403408
 20
91.11621801921428
 10
199.1525708289407
 20
91.1045789457143
 10
199.1232468263407
 20
91.09081163391474
 10
199.0954404469407
 20
91.07491236981429
 10
199.0691450053407
 20
91.05687743901441
 10
199.0449572500409
 20
91.03741452101489
 10
199.0236012028407
 20
91.01692796881456
 10
199.0050805781406
 20
90.99541035381466
 10
198.9893990901409
 20
90.97285424781487
 10
198.9765604528409
 20
90.94925222221455
 10
198.9665683806404
 20
90.92459684871457
 10
198.9594265876409
 20
90.89888069891445
 10
198.9551387881407
 20
90.87209634441435
 10
198.9537086962408
 20
90.84423635671432
 10
198.9545644486409
 20
90.82273310341442
 10
198.9571317055405
 20
90.80215097231432
 10
198.9614104672409
 20
90.78249516341449
 10
198.9674007335409
 20
90.76377087661468
 10
198.9751025044404
 20
90.74598331171445
 10
198.9845157800407
 20
90.72913766871431
 10
198.9956405603406
 20
90.71323914741451
 10
199.0084768452406
 20
90.69829294761467
 10
199.0230246348408
 20
90.68430426941466
 10
199.0397812607406
 20
90.67089389261443
 10
199.0587129239404
 20
90.65797007631482
 10
199.0798352238407
 20
90.64551796371489
 10
199.1031637603405
 20
90.63352269811442
 10
199.1287141328407
 20
90.62196942271432
 10
199.1565019411406
 20
90.61084328061488
 10
199.1865427849406
 20
90.60012941491429
 10
199.2188522637403
 20
90.58981296901441
 10
199.2534459773409
 20
90.5798790860148
 10
199.2694077638408
 20
90.57551799291454
 10
199.3121853519406
 20
90.56383026331451
 10
199.3741170838409
 20
90.54690922191444
 10
199.4475413020408
 20
90.52684819351481
 10
199.5247963491406
 20
90.50574050271462
 10
199.5982205673406
 20
90.48567947431434
 10
199.6601522992408
 20
90.46875843301439
 10
199.7029298873407
 20
90.45707070341434
 10
199.7188916738405
 20
90.4527096102146
 10
199.7708470570405
 20
90.43757472901457
 10
199.8197248517405
 20
90.42069565811472
 10
199.8655161439405
 20
90.40207982601435
 10
199.9082120195407
 20
90.38173466111457
 10
199.9478035643404
 20
90.35966759181459
 10
199.9842818644404
 20
90.33588604641479
 10
200.0176380056407
 20
90.3103974534145
 10
200.0478630738406
 20
90.28320924121484
 10
200.0749481549409
 20
90.25432883831445
 10
200.0991297199408
 20
90.22321842791477
 10
200.1204691770409
 20
90.19012091901469
 10
200.1389657832405
 20
90.15504151161463
 10
200.1546187957407
 20
90.1179854054148
 10
200.1674274717404
 20
90.07895780031487
 10
200.1773910683407
 20
90.03796389631471
 10
200.1845088428403
 20
89.99500889321453
 10
200.1887800522404
 20
89.95009799081461
 10
200.1902039538405
 20
89.90323638921486
 10
200.1874892429407
 20
89.8404381338145
 10
200.1793436247407
 20
89.78045672981483
 10
200.1657648707405
 20
89.72330777681492
 10
200.1467507522409
 20
89.66900687461466
 10
200.1222990409407
 20
89.61756962271492
 10
200.0924075081404
 20
89.56901162081484
 10
200.057073925341
 20
89.52334846861427
 10
200.0162960641405
 20
89.48059576581426
 10
199.9700716959407
 20
89.44076911191441
 10
199.9189622843404
 20
89.40442959921483
 10
199.8640658715407
 20
89.37236810531437
 10
199.8053728007405
 20
89.34458388741429
 10
199.7428734147407
 20
89.32107620261446
 10
199.6765580569404
 20
89.3018443080148
 10
199.6064170701407
 20
89.28688746091475
 10
199.5324407975403
 20
89.27620491841485
 10
199.4546195821406
 20
89.26979593771443
 10
199.3729437671403
 20
89.26765977581458
 10
199.2810202189408
 20
89.26950239181442
 10
199.1946635179408
 20
89.27503321121482
 10
199.1138714355409
 20
89.28425669111485
 10
199.0386417433403
 20
89.29717728841463
 10
198.9689722127408
 20
89.31379946021456
 10
198.9048606151408
 20
89.3341276636143
 10
198.8463047221404
 20
89.35816635561478
 10
198.7933023052406
 20
89.38591999331441
 10
198.7458511358406
 20
89.41739303361464
 10
198.704109934141
 20
89.45240286171488
 10
198.6672766801405
 20
89.49160973901468
 10
198.635352116541
 20
89.5350188653143
 10
198.6083369862406
 20
89.58263544051471
 10
198.5862320319405
 20
89.63446466461446
 10
198.5690379967405
 20
89.69051173741446
 10
198.5567556232409
 20
89.75078185881443
 10
198.5493856544407
 20
89.81528022871472
 10
198.5469288330404
 20
89.88401204691431
 10
198.5469288330404
 20
89.88564939131448
 10
198.5469288330404
 20
89.89003747431487
 10
198.5469288330404
 20
89.89639037061484
 10
198.5469288330404
 20
89.90392215491448
 10
198.5469288330404
 20
89.91184690181436
 10
198.5469288330404
 20
89.91937868611463
 10
198.5469288330404
 20
89.92573158231449
 10
198.5469288330404
 20
89.93011966541434
 10
198.5469288330404
 20
89.93175700981453
 10
198.5469288330404
 20
89.93175700981453
 10
198.5469288330404
 20
89.93175700981453
 10
198.5469288330404
 20
89.93175700981453
 10
198.5469288330404
 20
89.93175700981453
 10
198.5469288330404
 20
89.93175700981453
 10
198.5469288330404
 20
89.93175700981453
 10
198.5469288330404
 20
89.93175700981453
 10
198.5469288330404
 20
89.93175700981453
 10
198.5469288330404
 20
89.93175700981453
  0
LWPOLYLINE
  5
9A
330
70
100
AcDbEntity
  8
CK_LEVEL_1
 62
     1
420
 16711680
370
    25
100
AcDbPolyline
 90
        6
 70
     0
 43
0.0
 10
201.1097232007403
 20
91.83523766531489
 10
200.6679243478409
 20
91.83523766531489
 10
200.6679243478409
 20
92.2506820208148
 10
201.1097232007403
 20
92.2506820208148
 10
201.1097232007403
 20
91.83523766531489
 10
201.1097232007403
 20
91.83523766531489
  0
LWPOLYLINE
  5
9B
330
70
100
AcDbEntity
  8
CK_LEVEL_1
 62
     1
420
 16711680
370
    25
100
AcDbPolyline
 90
        6
 70
     0
 43
0.0
 10
200.7016797658406
 20
89.31739035151446
 10
200.7016797658406
 20
91.36157875211466
 10
201.0800292635408
 20
91.36157875211466
 10
201.0800292635408
 20
89.31739035151446
 10
200.7016797658406
 20
89.31739035151446
 10
200.7016797658406
 20
89.31739035151446
  0
LWPOLYLINE
  5
9C
330
70
100
AcDbEntity
  8
CK_LEVEL_1
 62
     1
420
 16711680
370
    25
100
AcDbPolyline
 90
       91
 70
     0
 43
0.0
 10
202.626550886741
 20
91.13702399291462
 10
202.5634313528406
 20
91.13430445361457
 10
202.5033136375408
 20
91.12615177841474
 10
202.4461910554408
 20
91.11257488151462
 10
202.3920569208406
 20
91.09358267681455
 10
202.3409045483404
 20
91.06918407861472
 10
202.2927272522405
 20
91.0393880008149
 10
202.2475183471406
 20
91.00420335761446
 10
202.2052711472405
 20
90.9636390630146
 10
202.1659789671407
 20
90.9177040312147
 10
202.1302707451407
 20
90.86678057731466
 10
202.0987774004408
 20
90.81196909601443
 10
202.0714952189407
 20
90.75327255861479
 10
202.0484204863408
 20
90.69069393631449
 10
202.0295494885409
 20
90.62423620071465
 10
202.0148785112407
 20
90.55390232291452
 10
202.0044038402406
 20
90.47969527461464
 10
201.9981217614404
 20
90.40161802681485
 10
201.9960285605404
 20
90.31967355111429
 10
201.9980378204406
 20
90.24055112671481
 10
202.0040665906408
 20
90.16546752651471
 10
202.0141163568404
 20
90.09443017881441
 10
202.0281886046408
 20
90.02744651201437
 10
202.0462848197408
 20
89.96452395461453
 10
202.0684064878406
 20
89.90566993491466
 10
202.0945550947409
 20
89.85089188141468
 10
202.1247321258404
 20
89.80019722251446
 10
202.1589390671406
 20
89.75359338651434
 10
202.1969729991405
 20
89.7116847981144
 10
202.2382680012403
 20
89.67470941391454
 10
202.2828225876405
 20
89.64266649111475
 10
202.3306352728405
 20
89.61555528671482
 10
202.3817045710407
 20
89.59337505801483
 10
202.4360289965404
 20
89.57612506201458
 10
202.4936070637409
 20
89.56380455611492
 10
202.5544372868405
 20
89.55641279731432
 10
202.6185181803408
 20
89.55394904271463
 10
202.6828404970404
 20
89.55656928901479
 10
202.7439767705405
 20
89.56442804691459
 10
202.8019299721406
 20
89.57752234511453
 10
202.8567030734406
 20
89.59584921231451
 10
202.9082990455409
 20
89.61940567691469
 10
202.9567208599406
 20
89.64818876781455
 10
203.0019714880407
 20
89.68219551351436
 10
203.0440539011406
 20
89.72142294271463
 10
203.0829710705404
 20
89.76586808401451
 10
203.1182339596405
 20
89.81486980931455
 10
203.1493510555405
 20
89.86793561531431
 10
203.1763216154405
 20
89.92504470241488
 10
203.1991448964404
 20
89.98617627131451
 10
203.217820155841
 20
90.05130952221477
 10
203.2323466506406
 20
90.12042365571442
 10
203.2427236380406
 20
90.19349787221456
 10
203.2489503752404
 20
90.27051137231461
 10
203.2510261194405
 20
90.35144335631434
 10
203.2490044788404
 20
90.43266467671456
 10
203.2429425284408
 20
90.50966443421431
 10
203.2328447252408
 20
90.58245302851483
 10
203.2187155263407
 20
90.65104085951437
 10
203.2005593887407
 20
90.71543832691485
 10
203.1783807694405
 20
90.77565583041431
 10
203.1521841256406
 20
90.83170376981474
 10
203.1219739142403
 20
90.88359254491432
 10
203.0877545923408
 20
90.93133255551439
 10
203.0498402576405
 20
90.97449443971477
 10
203.0085534268406
 20
91.01258123721473
 10
202.9639111851403
 20
91.0455922052149
 10
202.9159306180408
 20
91.07352660071443
 10
202.8646288107406
 20
91.09638368101469
 10
202.8100228486409
 20
91.11416270321432
 10
202.7521298170408
 20
91.12686292451455
 10
202.6909668013403
 20
91.13448360201465
 10
202.626550886741
 20
91.13702399291462
 10
202.626550886741
 20
91.13702399291462
 10
202.626550886741
 20
91.13702399291462
 10
202.626550886741
 20
91.13702399291462
 10
202.626550886741
 20
91.13702399291462
 10
202.626550886741
 20
91.13702399291462
 10
202.626550886741
 20
91.13702399291462
 10
202.626550886741
 20
91.13702399291462
 10
202.626550886741
 20
91.13702399291462
 10
202.626550886741
 20
91.13702399291462
 10
202.626550886741
 20
91.13702399291462
 10
202.626550886741
 20
91.13702399291462
 10
202.626550886741
 20
91.13702399291462
 10
202.626550886741
 20
91.13702399291462
 10
202.626550886741
 20
91.13702399291462
 10
202.626550886741
 20
91.13702399291462
 10
202.626550886741
 20
91.13702399291462
 10
202.626550886741
 20
91.13702399291462
 10
202.626550886741
 20
91.13702399291462
  0
LWPOLYLINE
  5
9D
330
70
100
AcDbEntity
  8
CK_LEVEL_1
 62
     1
420
 16711680
370
    25
100
AcDbPolyline
 90
       82
 70
     0
 43
0.0
 10
201.6088340602409
 20
90.29972716781481
 10
201.6121805569406
 20
90.4110407117149
 10
201.6222349039403
 20
90.51705260261444
 10
201.6390193864407
 20
90.61775615481478
 10
201.6625562896408
 20
90.71314468281485
 10
201.6928678988407
 20
90.80321150101488
 10
201.7299764990405
 20
90.88794992391447
 10
201.7739043757407
 20
90.96735326581429
 10
201.8246738139406
 20
91.04141484131474
 10
201.882307098941
 20
91.11012796471461
 10
201.9454294804405
 20
91.17254501911441
 10
202.0134360386407
 20
91.22760498061442
 10
202.0863304878406
 20
91.27531156331476
 10
202.1641165420403
 20
91.31566848161465
 10
202.2467979155408
 20
91.34867944951471
 10
202.3343783226404
 20
91.37434818131469
 10
202.4268614773405
 20
91.39267839121478
 10
202.5242510940409
 20
91.40367379341464
 10
202.626550886741
 20
91.40733810211449
 10
202.7298363051404
 20
91.40390815961472
 10
202.8279411534408
 20
91.39361734171464
 10
202.9208461178408
 20
91.3764641627147
 10
203.0085318844405
 20
91.35244713691482
 10
203.0909791394405
 20
91.32156477861485
 10
203.1681685688407
 20
91.28381560211471
 10
203.2400808589407
 20
91.23919812181439
 10
203.3066966958404
 20
91.18771085201435
 10
203.3679967656404
 20
91.12935230701454
 10
203.4235852582407
 20
91.06516939681444
 10
203.4726033259405
 20
90.99554220801438
 10
203.5150591402404
 20
90.92046182671465
 10
203.5509608722403
 20
90.83991933881462
 10
203.5803166931408
 20
90.75390583011484
 10
203.6031347743404
 20
90.66241238661488
 10
203.619423286941
 20
90.56543009421472
 10
203.6291904022405
 20
90.46295003881443
 10
203.6324442915408
 20
90.35496330631467
 10
203.6290839284409
 20
90.24351109881457
 10
203.6189993725407
 20
90.13763168111434
 10
203.6021854240405
 20
90.03734213871464
 10
203.5786368830406
 20
89.94265955691462
 10
203.5483485495405
 20
89.85360102091467
 10
203.5113152238407
 20
89.77018361621476
 10
203.4675317058407
 20
89.69242442811474
 10
203.4169927958409
 20
89.6203405418143
 10
203.3596932938409
 20
89.55394904271463
 10
203.2961903303403
 20
89.49399834281466
 10
203.2271777183408
 20
89.44105337221435
 10
203.152674771841
 20
89.39512675921452
 10
203.0727008045408
 20
89.35623113221486
 10
202.9872751303409
 20
89.32437911931474
 10
202.8964170631408
 20
89.29958334901453
 10
202.800145916741
 20
89.28185644941489
 10
202.6984810050409
 20
89.27121104891483
 10
202.5914416418404
 20
89.26765977581458
 10
202.4923319779407
 20
89.27107288061474
 10
202.3980656343407
 20
89.28131269011487
 10
202.3086255260409
 20
89.29837994731457
 10
202.2239945674405
 20
89.32227539481429
 10
202.1441556732404
 20
89.3529997757143
 10
202.0690917583404
 20
89.39055383271455
 10
201.9987857371409
 20
89.4349383087145
 10
201.9332205244409
 20
89.48615394651476
 10
201.8723790348407
 20
89.54420148891475
 10
201.8168928066405
 20
89.60816241361476
 10
201.7679955742407
 20
89.67711819831446
 10
201.7256709951409
 20
89.75106958571441
 10
201.6899027268406
 20
89.83001731881479
 10
201.6606744269407
 20
89.91396214031489
 10
201.6379697527407
 20
90.00290479311482
 10
201.6217723619408
 20
90.0968460201147
 10
201.6120659118405
 20
90.1957865640144
 10
201.6088340602409
 20
90.29972716781481
 10
201.6088340602409
 20
90.29972716781481
 10
201.6088340602409
 20
90.29972716781481
 10
201.6088340602409
 20
90.29972716781481
 10
201.6088340602409
 20
90.29972716781481
 10
201.6088340602409
 20
90.29972716781481
 10
201.6088340602409
 20
90.29972716781481
 10
201.6088340602409
 20
90.29972716781481
 10
201.6088340602409
 20
90.29972716781481
 10
201.6088340602409
 20
90.29972716781481
  0
LWPOLYLINE
  5
9E
330
70
100
AcDbEntity
  8
CK_LEVEL_1
 62
     1
420
 16711680
370
    25
100
AcDbPolyline
 90
      190
 70
     0
 43
0.0
 10
204.5575593564409
 20
91.02790554281449
 10
204.5740605691404
 20
91.0637155340148
 10
204.5931698949408
 20
91.09780659211441
 10
204.6148747057409
 20
91.13019134541479
 10
204.6391623731409
 20
91.16088242231434
 10
204.6660202688407
 20
91.18989245091434
 10
204.6954357646408
 20
91.21723405971456
 10
204.7273962322404
 20
91.24291987681434
 10
204.7618890432405
 20
91.26696253071473
 10
204.7989015695409
 20
91.28937464941436
 10
204.8378114343407
 20
91.30964652081475
 10
204.8780643549407
 20
91.32750564601478
 10
204.9196595883408
 20
91.3429594534149
 10
204.9625963919405
 20
91.35601537151444
 10
205.0068740226408
 20
91.36668082871453
 10
205.0524917377405
 20
91.37496325331428
 10
205.0994487943408
 20
91.38087007391435
 10
205.1477444497404
 20
91.3844087187144
 10
205.1973779609405
 20
91.38558661621436
 10
205.2419965554409
 20
91.38467812221465
 10
205.2857742544409
 20
91.38195561151436
 10
205.3287058581408
 20
91.37742354131459
 10
205.3707861664409
 20
91.37108636841473
 10
205.4120099796403
 20
91.36294855011472
 10
205.4523720977404
 20
91.35301454321458
 10
205.4918673209404
 20
91.34128880501489
 10
205.5304904493405
 20
91.32777579231438
 10
205.5682362830404
 20
91.31247996231484
 10
205.6046972501409
 20
91.29528543181427
 10
205.6394006564408
 20
91.27678498761467
 10
205.6723338737404
 20
91.25696303001431
 10
205.7034842737404
 20
91.23580395951426
 10
205.7328392280404
 20
91.2132921762145
 10
205.7603861083408
 20
91.18941208071429
 10
205.786112286541
 20
91.16414807321433
 10
205.8100051341406
 20
91.13748455401484
 10
205.8320520230408
 20
91.10940592361432
 10
205.8433500089409
 20
91.09312285851434
 10
205.8540024664408
 20
91.07610215271433
 10
205.8639856245407
 20
91.05834157771488
 10
205.8732757123403
 20
91.03983890501451
 10
205.8818489591408
 20
91.0205919060143
 10
205.8896815938403
 20
91.00059835231489
 10
205.8967498455407
 20
90.97985601531473
 10
205.9030299434403
 20
90.95836266651435
 10
205.9084981166409
 20
90.93611607731482
 10
205.9132333538407
 20
90.91173085021456
 10
205.9174448884406
 20
90.88376438871435
 10
205.9211238062404
 20
90.85221892141444
 10
205.9242611934406
 20
90.81709667681492
 10
205.9268481356408
 20
90.77839988341466
 10
205.9288757189407
 20
90.7361307697144
 10
205.9303350292409
 20
90.6902915643144
 10
205.9312171524408
 20
90.64088449571476
 10
205.9315131743404
 20
90.58791179241435
 10
205.9315131743404
 20
90.54434109831436
 10
205.9315131743404
 20
90.42757163801445
 10
205.9315131743404
 20
90.25851734481468
 10
205.9315131743404
 20
90.05809215181432
 10
205.9315131743404
 20
89.8472099922146
 10
205.9315131743404
 20
89.64678479911476
 10
205.9315131743404
 20
89.47773050591438
 10
205.9315131743404
 20
89.36096104561446
 10
205.9315131743404
 20
89.31739035151446
 10
205.9186032244409
 20
89.31739035151446
 10
205.884004558641
 20
89.31739035151446
 10
205.8339139528406
 20
89.31739035151446
 10
205.7745281831407
 20
89.31739035151446
 10
205.7120440255408
 20
89.31739035151446
 10
205.6526582558409
 20
89.31739035151446
 10
205.6025676500405
 20
89.31739035151446
 10
205.5679689842405
 20
89.31739035151446
 10
205.5550590343404
 20
89.31739035151446
 10
205.5550590343404
 20
89.36166983931489
 10
205.5550590343404
 20
89.48033886671431
 10
205.5550590343404
 20
89.65214327951469
 10
205.5550590343404
 20
89.85582892361479
 10
205.5550590343404
 20
90.07014164471447
 10
205.5550590343404
 20
90.27382728871446
 10
205.5550590343404
 20
90.44563170151482
 10
205.5550590343404
 20
90.56430072891428
 10
205.5550590343404
 20
90.60858021681479
 10
205.5537127595409
 20
90.6643528100146
 10
205.5496640309408
 20
90.71669199411465
 10
205.5428979914406
 20
90.76560742611436
 10
205.533399784441
 20
90.81110876281487
 10
205.5211545529406
 20
90.85320566131443
 10
205.5061474403407
 20
90.89190777841485
 10
205.4883635896407
 20
90.92722477101478
 10
205.4677881441405
 20
90.95916629621443
 10
205.4444062470409
 20
90.98774201071483
 10
205.4185696332407
 20
91.01316548131483
 10
205.3896160604405
 20
91.03563690361427
 10
205.3575440430409
 20
91.05514587761479
 10
205.322352095141
 20
91.07168200381469
 10
205.2840387313409
 20
91.08523488221431
 10
205.2426024657403
 20
91.09579411321444
 10
205.1980418127405
 20
91.10334929691489
 10
205.1503552866407
 20
91.10789003371452
 10
205.099541401841
 20
91.10940592361432
 10
205.0477802714403
 20
91.10782330181434
 10
204.9981028088407
 20
91.10306949361456
 10
204.9505201566404
 20
91.09513558501452
 10
204.9050434574406
 20
91.08401266191485
 10
204.8616838538408
 20
91.06969181011489
 10
204.8204524884406
 20
91.05216411561475
 10
204.7813605039406
 20
91.03142066431448
 10
204.7444190427408
 20
91.00745254221486
 10
204.7096392476408
 20
90.98025083511455
 10
204.6776340858404
 20
90.95058326871484
 10
204.6494248393407
 20
90.91899471661459
 10
204.6250033367409
 20
90.88550300711446
 10
204.6043614070408
 20
90.85012596811472
 10
204.5874908788409
 20
90.81288142801481
 10
204.5743835809407
 20
90.77378721491459
 10
204.5650313420404
 20
90.73286115701462
 10
204.5594259910407
 20
90.69012108241471
 10
204.5575593564409
 20
90.64558481941487
 10
204.5575593564409
 20
90.60003631221432
 10
204.5575593564409
 20
90.47796631311451
 10
204.5575593564409
 20
90.30123810551456
 10
204.5575593564409
 20
90.09171497271481
 10
204.5575593564409
 20
89.87126019821452
 10
204.5575593564409
 20
89.66173706541479
 10
204.5575593564409
 20
89.48500885771473
 10
204.5575593564409
 20
89.36293885861491
 10
204.5575593564409
 20
89.31739035151446
 10
204.5445875031409
 20
89.31739035151446
 10
204.5098229362406
 20
89.31739035151446
 10
204.4594921454409
 20
89.31739035151446
 10
204.3998216201405
 20
89.31739035151446
 10
204.3370378501405
 20
89.31739035151446
 10
204.2773673248408
 20
89.31739035151446
 10
204.2270365340404
 20
89.31739035151446
 10
204.1922719671408
 20
89.31739035151446
 10
204.1793001138408
 20
89.31739035151446
 10
204.1793001138408
 20
89.37311577431435
 10
204.1793001138408
 20
89.52245990751483
 10
204.1793001138408
 20
89.73867454811468
 10
204.1793001138408
 20
89.99501149311466
 10
204.1793001138408
 20
90.26472253961491
 10
204.1793001138408
 20
90.52105948461488
 10
204.1793001138408
 20
90.73727412521476
 10
204.1793001138408
 20
90.88661825841459
 10
204.1793001138408
 20
90.94234368121446
 10
204.179246753141
 20
90.96726882961471
 10
204.1790871662405
 20
90.99203501011469
 10
204.1788220959407
 20
91.01663033731432
 10
204.1784522851404
 20
91.04104292581478
 10
204.1779784766409
 20
91.0652608899144
 10
204.1774014133404
 20
91.08927234451467
 10
204.1767218380409
 20
91.11306540391453
 10
204.1759404935409
 20
91.13662818271455
 10
204.1750581228409
 20
91.15994879551465
 10
204.1740649449407
 20
91.18308704091484
 10
204.1730093685409
 20
91.20604849031431
 10
204.1718891649406
 20
91.22883017231474
 10
204.1707021057405
 20
91.25142911551463
 10
204.1694459623409
 20
91.27384234851438
 10
204.1681185062404
 20
91.2960669001146
 10
204.1667175089409
 20
91.31809979881429
 10
204.1652407419408
 20
91.33993807321456
 10
204.1636859766407
 20
91.36157875211466
 10
204.1767692560404
 20
91.36157875211466
 10
204.2118324448405
 20
91.36157875211466
 10
204.2625955688405
 20
91.36157875211466
 10
204.3227786541408
 20
91.36157875211466
 10
204.3861017264406
 20
91.36157875211466
 10
204.4462848116407
 20
91.36157875211466
 10
204.4970479357409
 20
91.36157875211466
 10
204.5321111245403
 20
91.36157875211466
 10
204.5451944039406
 20
91.36157875211466
 10
204.5456184420406
 20
91.35013591231459
 10
204.5467548643409
 20
91.31946910151446
 10
204.5484001323407
 20
91.27507088301431
 10
204.5503507078408
 20
91.22243381981444
 10
204.5524030525407
 20
91.16705047511471
 10
204.5543536280408
 20
91.11441341191484
 10
204.5559988960406
 20
91.07001519341471
 10
204.5571353183409
 20
91.03934838261459
 10
204.5575593564409
 20
91.02790554281449
 10
204.5575593564409
 20
91.02790554281449
 10
204.5575593564409
 20
91.02790554281449
 10
204.5575593564409
 20
91.02790554281449
 10
204.5575593564409
 20
91.02790554281449
 10
204.5575593564409
 20
91.02790554281449
 10
204.5575593564409
 20
91.02790554281449
 10
204.5575593564409
 20
91.02790554281449
 10
204.5575593564409
 20
91.02790554281449
 10
204.5575593564409
 20
91.02790554281449
  0
LWPOLYLINE
  5
9F
330
70
100
AcDbEntity
  8
CK_LEVEL_1
 62
     1
420
 16711680
370
    25
100
AcDbPolyline
 90
      307
 70
     0
 43
0.0
 10
206.4113996914403
 20
89.93175700981453
 10
206.4243715448404
 20
89.93175700981453
 10
206.4591361116406
 20
89.93175700981453
 10
206.5094669025404
 20
89.93175700981453
 10
206.5691374278407
 20
89.93175700981453
 10
206.6319211978408
 20
89.93175700981453
 10
206.6915917230404
 20
89.93175700981453
 10
206.7419225139409
 20
89.93175700981453
 10
206.7766870808405
 20
89.93175700981453
 10
206.7896589341405
 20
89.93175700981453
 10
206.7896589341405
 20
89.93147534941471
 10
206.7896589341405
 20
89.93072049961446
 10
206.7896589341405
 20
89.9296276573143
 10
206.7896589341405
 20
89.92833201951482
 10
206.7896589341405
 20
89.92696878331482
 10
206.7896589341405
 20
89.9256731456148
 10
206.7896589341405
 20
89.92458030331462
 10
206.7896589341405
 20
89.92382545351437
 10
206.7896589341405
 20
89.92354379311457
 10
206.7911069780408
 20
89.8871483197149
 10
206.7954535857408
 20
89.85244206581462
 10
206.8027024715407
 20
89.8194094317146
 10
206.8128573496408
 20
89.78803481781451
 10
206.8259219342408
 20
89.75830262431442
 10
206.8418999395407
 20
89.73019725161462
 10
206.8607950796409
 20
89.70370310011483
 10
206.8826110689405
 20
89.6788045702147
 10
206.9073516214407
 20
89.65548606211431
 10
206.9345173007405
 20
89.63429467791454
 10
206.9636619073409
 20
89.61555466771461
 10
206.9947787556407
 20
89.59927717381487
 10
207.0278611601409
 20
89.5854733391145
 10
207.0629024351408
 20
89.57415430601463
 10
207.0998958951408
 20
89.56533121731489
 10
207.1388348545404
 20
89.55901521541456
 10
207.1797126278404
 20
89.55521744301444
 10
207.2225225294404
 20
89.55394904271463
 10
207.2638472451409
 20
89.5550709796146
 10
207.3034545134408
 20
89.55843183791488
 10
207.3413317060406
 20
89.56402418931446
 10
207.3774661947407
 20
89.57184060531469
 10
207.4118453511409
 20
89.5818736575144
 10
207.4444565470404
 20
89.59411591761455
 10
207.4752871541404
 20
89.60855995711449
 10
207.5043245441406
 20
89.62519834761442
 10
207.5315560886408
 20
89.64402366081461
 10
207.5563090218403
 20
89.66453200301467
 10
207.5781581913406
 20
89.68634625901451
 10
207.5971013684404
 20
89.70946865711468
 10
207.6131363248407
 20
89.73390142611433
 10
207.6262608319406
 20
89.75964679431468
 10
207.6364726611404
 20
89.78670699031466
 10
207.6437695839407
 20
89.8150842426144
 10
207.6481493719408
 20
89.84478077971465
 10
207.6496097964404
 20
89.87579883021435
 10
207.6488803270403
 20
89.89888606731467
 10
207.6466889473405
 20
89.92096898391466
 10
207.6430312004407
 20
89.94203940881446
 10
207.6379026292407
 20
89.96208917081485
 10
207.6312987766405
 20
89.9811100986146
 10
207.6232151856408
 20
89.99909402101451
 10
207.6136473991405
 20
90.01603276671461
 10
207.6025909602407
 20
90.03191816461452
 10
207.5900414117404
 20
90.04674204321473
 10
207.5760159629405
 20
90.0609242314147
 10
207.5602507815406
 20
90.07423655331431
 10
207.5427711240408
 20
90.08669163721435
 10
207.5236022471405
 20
90.09830211141446
 10
207.5027694073404
 20
90.10908060411466
 10
207.4802978613407
 20
90.11903974371469
 10
207.4562128656408
 20
90.1281921585147
 10
207.4305396767405
 20
90.1365504767148
 10
207.4033035513409
 20
90.14412732661456
 10
207.3884405497408
 20
90.14763105791487
 10
207.3486077055404
 20
90.15702105791479
 10
207.2909392594406
 20
90.17061553541463
 10
207.2225694521407
 20
90.18673269941428
 10
207.1506325245406
 20
90.20369075901443
 10
207.0822627172407
 20
90.21980792311486
 10
207.0245942711403
 20
90.2334024006147
 10
206.9847614269406
 20
90.2427924005145
 10
206.9698984253405
 20
90.24629613181481
 10
206.9105847111408
 20
90.26114922891471
 10
206.8547311483408
 20
90.27773388731477
 10
206.8023414510406
 20
90.29605679261482
 10
206.7534193335405
 20
90.31612463031461
 10
206.7079685099407
 20
90.3379440862148
 10
206.6659926944408
 20
90.3615218456143
 10
206.6274956013404
 20
90.38686459421432
 10
206.5924809448406
 20
90.41397901761472
 10
206.5609524390407
 20
90.44287180121445
 10
206.5328136385407
 20
90.47325138031439
 10
206.5079685931408
 20
90.50536474921463
 10
206.4864217597407
 20
90.53921413651471
 10
206.4681775955407
 20
90.57480177071481
 10
206.4532405575405
 20
90.6121298804145
 10
206.4416151027409
 20
90.65120069401443
 10
206.4333056882404
 20
90.69201644011483
 10
206.4283167710406
 20
90.73457934721457
 10
206.426652808141
 20
90.77889164391448
 10
206.4294638406404
 20
90.83997678511472
 10
206.4378959476405
 20
90.89843598511489
 10
206.4519476435404
 20
90.95426404371428
 10
206.4716174426408
 20
91.00745576121466
 10
206.4969038591407
 20
91.05800593761433
 10
206.5278054075409
 20
91.10590937311426
 10
206.5643206019404
 20
91.15116086781478
 10
206.6064479569408
 20
91.19375522181485
 10
206.6541859865408
 20
91.23368723531489
 10
206.7066029213407
 20
91.27018794441482
 10
206.7625825194405
 20
91.30237497831457
 10
206.8221173525405
 20
91.33025353701452
 10
206.8851999920406
 20
91.35382882031432
 10
206.9518230097405
 20
91.37310602811432
 10
207.0219789771404
 20
91.38809036031426
 10
207.0956604658409
 20
91.3987870168145
 10
207.172860047441
 20
91.40520119741463
 10
207.2535702935408
 20
91.40733810211449
 10
207.328317510841
 20
91.40555107531465
 10
207.3994834937406
 20
91.40019544251453
 10
207.4670637853408
 20
91.39127937481452
 10
207.531053928441
 20
91.37881104361467
 10
207.5914494660404
 20
91.36279862011484
 10
207.6482459411407
 20
91.34325027551488
 10
207.701438896741
 20
91.32017418101465
 10
207.7510238756409
 20
91.29357850801481
 10
207.7969964209407
 20
91.26347142761451
 10
207.8386032922408
 20
91.23000670791439
 10
207.8753319295405
 20
91.19393387501451
 10
207.9071778758404
 20
91.15525218601479
 10
207.9341366741408
 20
91.11396089821468
 10
207.9562038673407
 20
91.07005926861461
 10
207.973374998341
 20
91.02354655441457
 10
207.9856456101408
 20
90.97442201281452
 10
207.9930112457405
 20
90.92268490091441
 10
207.9954674480405
 20
90.8683344760143
 10
207.9954663337403
 20
90.86298305261486
 10
207.9954585339405
 20
90.8579413937147
 10
207.9954373630405
 20
90.85321172781458
 10
207.9953961353409
 20
90.84879628351474
 10
207.9953281654409
 20
90.84469728931466
 10
207.9952267677406
 20
90.84091697371446
 10
207.9950852565409
 20
90.83745756521429
 10
207.9948969465407
 20
90.83432129231487
 10
207.9946551519407
 20
90.83151038361455
 10
207.9944461660407
 20
90.82871829361446
 10
207.9941866671408
 20
90.82599454491436
 10
207.9938863119406
 20
90.82333393761455
 10
207.9935547574409
 20
90.82073127191474
 10
207.9932016605405
 20
90.81818134781448
 10
207.9928366782406
 20
90.81567896561429
 10
207.9924694673404
 20
90.8132189253143
 10
207.9921096849409
 20
90.81079602701482
 10
207.9917669877404
 20
90.80840507081481
 10
207.9788570378408
 20
90.80840507081481
 10
207.9442583720409
 20
90.80840507081481
 10
207.8941677662405
 20
90.80840507081481
 10
207.8347819965406
 20
90.80840507081481
 10
207.7722978389407
 20
90.80840507081481
 10
207.7129120692408
 20
90.80840507081481
 10
207.6628214634404
 20
90.80840507081481
 10
207.6282227976404
 20
90.80840507081481
 10
207.6153128477409
 20
90.80840507081481
 10
207.6153128477409
 20
90.80894053501443
 10
207.6153128477409
 20
90.81037557921458
 10
207.6153128477409
 20
90.81245318041473
 10
207.6153128477409
 20
90.81491631591473
 10
207.6153128477409
 20
90.81750796291435
 10
207.6153128477409
 20
90.81997109841436
 10
207.6153128477409
 20
90.82204869961449
 10
207.6153128477409
 20
90.82348374381464
 10
207.6153128477409
 20
90.82401920801491
 10
207.6140398666404
 20
90.85611437731456
 10
207.610210028241
 20
90.88663843891442
 10
207.6038069902409
 20
90.91559807821479
 10
207.5948144100404
 20
90.94299998081481
 10
207.5832159450408
 20
90.96885083241447
 10
207.5689952529407
 20
90.99315731841466
 10
207.5521359912407
 20
91.01592612451467
 10
207.5326218172404
 20
91.03716393611479
 10
207.5104363886407
 20
91.05687743901441
 10
207.486539331541
 20
91.07491236981429
 10
207.4606997464407
 20
91.09081163391474
 10
207.4329206045404
 20
91.1045789457143
 10
207.4032048773406
 20
91.11621801921428
 10
207.3715555362407
 20
91.1257325687144
 10
207.3379755524408
 20
91.13312630851437
 10
207.3024678973406
 20
91.13840295261484
 10
207.2650355423409
 20
91.1415662153149
 10
207.2256814589407
 20
91.14261981091486
 10
207.1871144149404
 20
91.1415662153149
 10
207.1501103076408
 20
91.13840295261484
 10
207.1146609655406
 20
91.13312630851437
 10
207.0807582175406
 20
91.1257325687144
 10
207.0483938922408
 20
91.11621801921428
 10
207.0175598186409
 20
91.1045789457143
 10
206.9882478252407
 20
91.09081163391474
 10
206.9604497409406
 20
91.07491236981429
 10
206.9341573945405
 20
91.05687743901441
 10
206.9100048003406
 20
91.03741452101489
 10
206.8886408295408
 20
91.01692796881456
 10
206.8700795962409
 20
90.99541035381466
 10
206.8543352143403
 20
90.97285424781487
 10
206.8414217978408
 20
90.94925222221455
 10
206.8313534606406
 20
90.92459684871457
 10
206.8241443167407
 20
90.89888069891445
 10
206.8198084802408
 20
90.87209634441435
 10
206.8183600649405
 20
90.84423635671432
 10
206.8192310455403
 20
90.82273310341442
 10
206.8218380444406
 20
90.80215097231432
 10
206.8261721477409
 20
90.78249516341449
 10
206.8322244411403
 20
90.76377087661468
 10
206.8399860108407
 20
90.74598331171445
 10
206.8494479424409
 20
90.72913766871431
 10
206.8606013220407
 20
90.71323914741451
 10
206.8734372355407
 20
90.69829294761467
 10
206.887946768841
 20
90.68430426941466
 10
206.9045877593405
 20
90.67089389261443
 10
206.9234654427408
 20
90.65797007631482
 10
206.9445835332404
 20
90.64551796371489
 10
206.9679457451407
 20
90.63352269811442
 10
206.9935557925406
 20
90.62196942271432
 10
207.0214173896404
 20
90.61084328061488
 10
207.0515342507405
 20
90.60012941491429
 10
207.0839100900404
 20
90.58981296901441
 10
207.1185486216409
 20
90.5798790860148
 10
207.1345073130408
 20
90.57551799291454
 10
207.1772766060409
 20
90.56383026331451
 10
207.2391963286406
 20
90.54690922191444
 10
207.3126063091405
 20
90.52684819351481
 10
207.3898463755407
 20
90.50574050271462
 10
207.4632563560407
 20
90.48567947431434
 10
207.5251760786409
 20
90.46875843301439
 10
207.5679453716404
 20
90.45707070341434
 10
207.5839040630403
 20
90.4527096102146
 10
207.6358322087406
 20
90.43757472901457
 10
207.6846864801405
 20
90.42069565811472
 10
207.7304549919406
 20
90.40207982601435
 10
207.7731258585406
 20
90.38173466111457
 10
207.8126871945405
 20
90.35966759181459
 10
207.8491271144406
 20
90.33588604641479
 10
207.8824337329404
 20
90.3103974534145
 10
207.9125951645409
 20
90.28320924121484
 10
207.9395995236406
 20
90.25432883831445
 10
207.9638916480408
 20
90.22321842791477
 10
207.9853230935408
 20
90.19012091901469
 10
208.0038946028405
 20
90.15504151161463
 10
208.0196069187403
 20
90.1179854054148
 10
208.0324607842407
 20
90.07895780031487
 10
208.0424569420407
 20
90.03796389631471
 10
208.0495961350407
 20
89.99500889321453
 10
208.0538791061406
 20
89.95009799081461
 10
208.0553065981404
 20
89.90323638921486
 10
208.0525881730404
 20
89.8404381338145
 10
208.0444299266403
 20
89.78045672981483
 10
208.030827401641
 20
89.72330777681492
 10
208.0117761411409
 20
89.66900687461466
 10
207.9872716881404
 20
89.61756962271492
 10
207.9573095854405
 20
89.56901162081484
 10
207.9218853761409
 20
89.52334846861427
 10
207.8809946031407
 20
89.48059576581426
 10
207.8346328094408
 20
89.44076911191441
 10
207.7836339573404
 20
89.40442959921483
 10
207.7288295329405
 20
89.37236810531437
 10
207.6702113651409
 20
89.34458388741429
 10
207.6077712827409
 20
89.32107620261446
 10
207.5415011143405
 20
89.3018443080148
 10
207.4713926887406
 20
89.28688746091475
 10
207.3974378346406
 20
89.27620491841485
 10
207.3196283809406
 20
89.26979593771443
 10
207.2379561563407
 20
89.26765977581458
 10
207.1460586075403
 20
89.26950239181442
 10
207.0597167633407
 20
89.27503321121482
 10
206.9789239381408
 20
89.28425669111485
 10
206.9036734463407
 20
89.29717728841463
 10
206.8339586024407
 20
89.31379946021456
 10
206.7697727208404
 20
89.3341276636143
 10
206.7111091160406
 20
89.35816635561478
 10
206.6579611023407
 20
89.38591999331441
 10
206.6103219942405
 20
89.41739303361464
 10
206.5685332508404
 20
89.45240286171488
 10
206.5316747401407
 20
89.49160973901468
 10
206.4997427481407
 20
89.5350188653143
 10
206.4727335605406
 20
89.58263544051471
 10
206.4506434631404
 20
89.63446466461446
 10
206.433468741741
 20
89.69051173741446
 10
206.4212056821407
 20
89.75078185881443
 10
206.4138505701409
 20
89.81528022871472
 10
206.4113996914403
 20
89.88401204691431
 10
206.4113996914403
 20
89.88564939131448
 10
206.4113996914403
 20
89.89003747431487
 10
206.4113996914403
 20
89.89639037061484
 10
206.4113996914403
 20
89.90392215491448
 10
206.4113996914403
 20
89.91184690181436
 10
206.4113996914403
 20
89.91937868611463
 10
206.4113996914403
 20
89.92573158231449
 10
206.4113996914403
 20
89.93011966541434
 10
206.4113996914403
 20
89.93175700981453
 10
206.4113996914403
 20
89.93175700981453
 10
206.4113996914403
 20
89.93175700981453
 10
206.4113996914403
 20
89.93175700981453
 10
206.4113996914403
 20
89.93175700981453
 10
206.4113996914403
 20
89.93175700981453
 10
206.4113996914403
 20
89.93175700981453
 10
206.4113996914403
 20
89.93175700981453
 10
206.4113996914403
 20
89.93175700981453
 10
206.4113996914403
 20
89.93175700981453
  0
LWPOLYLINE
  5
A0
330
70
100
AcDbEntity
  8
CK_LEVEL_1
 62
     1
420
 16711680
370
    25
100
AcDbPolyline
 90
       15
 70
     0
 43
0.0
 10
210.1416441435405
 20
91.36157875211466
 10
210.6063677991407
 20
89.72110154031474
 10
211.127681420141
 20
91.36157875211466
 10
211.493395199941
 20
91.36157875211466
 10
210.7857047390407
 20
89.31739035151446
 10
210.3898457463408
 20
89.31739035151446
 10
209.8963307049406
 20
91.03530646331462
 10
209.3594932018404
 20
89.31739035151446
 10
208.9591214527406
 20
89.31739035151446
 10
208.2897894214408
 20
91.36157875211466
 10
208.6592939166405
 20
91.36157875211466
 10
209.1685133504403
 20
89.72110154031474
 10
209.6817040098408
 20
91.36157875211466
 10
210.1416441435405
 20
91.36157875211466
 10
210.1416441435405
 20
91.36157875211466
  0
LWPOLYLINE
  5
A1
330
70
100
AcDbEntity
  8
CK_LEVEL_1
 62
     1
420
 16711680
370
    25
100
AcDbPolyline
 90
       73
 70
     0
 43
0.0
 10
212.1416075313409
 20
90.54260371801479
 10
212.1777652956408
 20
90.54260371801479
 10
212.2746681041408
 20
90.54260371801479
 10
212.4149602298407
 20
90.54260371801479
 10
212.5812859458407
 20
90.54260371801479
 10
212.7562895253405
 20
90.54260371801479
 10
212.9226152414406
 20
90.54260371801479
 10
213.0629073671404
 20
90.54260371801479
 10
213.1598101755403
 20
90.54260371801479
 10
213.1959679399404
 20
90.54260371801479
 10
213.1959679399404
 20
90.54415749281455
 10
213.1959679399404
 20
90.54832160941492
 10
213.1959679399404
 20
90.55435025581465
 10
213.1959679399404
 20
90.56149762011454
 10
213.1959679399404
 20
90.56901789031462
 10
213.1959679399404
 20
90.57616525461449
 10
213.1959679399404
 20
90.58219390101486
 10
213.1959679399404
 20
90.58635801761459
 10
213.1959679399404
 20
90.58791179241435
 10
213.1942270930408
 20
90.64329154681436
 10
213.1890075238404
 20
90.69625038371468
 10
213.1803136893408
 20
90.74678756041477
 10
213.168150046541
 20
90.7949023341146
 10
213.1525210525406
 20
90.84059396181466
 10
213.1334311643405
 20
90.88386170081435
 10
213.1108848390405
 20
90.92470480821488
 10
213.0848865336408
 20
90.96312254121491
 10
213.0554407052404
 20
90.99911415691437
 10
213.0233788399406
 20
91.03170925791435
 10
212.9892838199404
 20
91.0604779872143
 10
212.9531482170409
 20
91.08541811621465
 10
212.9149646026408
 20
91.10652741651474
 10
212.8747255484408
 20
91.12380365941488
 10
212.8324236259405
 20
91.1372446165144
 10
212.7880514068408
 20
91.14684805931444
 10
212.7416014627405
 20
91.15261175931427
 10
212.693066365141
 20
91.15453348781484
 10
212.6399103040404
 20
91.15246281971463
 10
212.5889924214407
 20
91.14624487281441
 10
212.5403179174405
 20
91.13587073291473
 10
212.4938919918406
 20
91.12133148601447
 10
212.4497198444409
 20
91.10261821801429
 10
212.4078066752409
 20
91.07972201481491
 10
212.3681576840404
 20
91.05263396231441
 10
212.3307780707409
 20
91.02134514641475
 10
212.2956730352404
 20
90.98584665301469
 10
212.2633382998409
 20
90.94694669271447
 10
212.2348076509406
 20
90.90545941881467
 10
212.210081088641
 20
90.86138483111444
 10
212.1891586127404
 20
90.81472292981464
 10
212.1720402234404
 20
90.76547371481451
 10
212.1587259206409
 20
90.7136371861147
 10
212.1492157043406
 20
90.65921334371456
 10
212.1435095745408
 20
90.60220218771483
 10
212.1416075313409
 20
90.54260371801479
 10
212.1416075313409
 20
90.54260371801479
 10
212.1416075313409
 20
90.54260371801479
 10
212.1416075313409
 20
90.54260371801479
 10
212.1416075313409
 20
90.54260371801479
 10
212.1416075313409
 20
90.54260371801479
 10
212.1416075313409
 20
90.54260371801479
 10
212.1416075313409
 20
90.54260371801479
 10
212.1416075313409
 20
90.54260371801479
 10
212.1416075313409
 20
90.54260371801479
 10
212.1416075313409
 20
90.54260371801479
 10
212.1416075313409
 20
90.54260371801479
 10
212.1416075313409
 20
90.54260371801479
 10
212.1416075313409
 20
90.54260371801479
 10
212.1416075313409
 20
90.54260371801479
 10
212.1416075313409
 20
90.54260371801479
 10
212.1416075313409
 20
90.54260371801479
 10
212.1416075313409
 20
90.54260371801479
 10
212.1416075313409
 20
90.54260371801479
  0
LWPOLYLINE
  5
A2
330
70
100
AcDbEntity
  8
CK_LEVEL_1
 62
     1
420
 16711680
370
    25
100
AcDbPolyline
 90
      172
 70
     0
 43
0.0
 10
213.541464571041
 20
89.97381589951487
 10
213.5382935084404
 20
89.90453982681485
 10
213.5296142831409
 20
89.83835099941471
 10
213.5154142667403
 20
89.77524793171445
 10
213.4956808310406
 20
89.71522913811471
 10
213.4704013476406
 20
89.6582931327145
 10
213.4395631884404
 20
89.60443843011466
 10
213.403153724941
 20
89.5536635444149
 10
213.3611603289408
 20
89.50596698991441
 10
213.3135703721404
 20
89.46134728111458
 10
213.2616148651406
 20
89.42064135161459
 10
213.2061041232408
 20
89.38474382911477
 10
213.1470262609407
 20
89.35364951361469
 10
213.0843693928408
 20
89.32735320531472
 10
213.0181216334405
 20
89.30584970431448
 10
212.9482710973408
 20
89.28913381081438
 10
212.8748058990408
 20
89.27720032481458
 10
212.7977141531406
 20
89.27004404641474
 10
212.7169839741405
 20
89.26765977581458
 10
212.6136802323407
 20
89.2708994273148
 10
212.5160555066408
 20
89.28062036271468
 10
212.4241194539409
 20
89.29682555341448
 10
212.3378817312409
 20
89.31951797071436
 10
212.2573519954408
 20
89.3487005860145
 10
212.1825399033406
 20
89.38437637061442
 10
212.1134551120404
 20
89.42654829601446
 10
212.0501072784406
 20
89.47521933341462
 10
211.9925060593408
 20
89.53039245431465
 10
211.9407839281409
 20
89.59154061321484
 10
211.8951300614403
 20
89.6587912073147
 10
211.8555489163406
 20
89.73213606551446
 10
211.8220449499409
 20
89.8115670163146
 10
211.7946226191407
 20
89.89707588861476
 10
211.7732863811405
 20
89.98865451121444
 10
211.7580406928404
 20
90.08629471271484
 10
211.7488900113407
 20
90.18998832201431
 10
211.7458387937405
 20
90.29972716781481
 10
211.7488570787409
 20
90.41646864771429
 10
211.7579109433409
 20
90.52692123951471
 10
211.7729989018407
 20
90.63109385711456
 10
211.7941194684406
 20
90.7289954147145
 10
211.8212711576406
 20
90.82063482641453
 10
211.8544524837407
 20
90.90602100621451
 10
211.8936619608406
 20
90.98516286831445
 10
211.9388981035409
 20
91.05806932671491
 10
211.9901594260404
 20
91.12474929551455
 10
212.0468223136406
 20
91.18487567721459
 10
212.1086360577406
 20
91.2379339310147
 10
212.1756170007406
 20
91.28392257111469
 10
212.2477814852406
 20
91.32284011201461
 10
212.3251458536409
 20
91.35468506791491
 10
212.4077264484407
 20
91.37945595301472
 10
212.4955396121404
 20
91.39715128191486
 10
212.5886016873406
 20
91.40776956871437
 10
212.6869290164409
 20
91.41130932781454
 10
212.7771446503407
 20
91.40836247931487
 10
212.8629515255404
 20
91.39952787641485
 10
212.9443533561404
 20
91.38481443341463
 10
213.0213538565409
 20
91.36423106431474
 10
213.0939567407407
 20
91.33778668311437
 10
213.1621657230409
 20
91.30549020401486
 10
213.2259845175408
 20
91.26735054101484
 10
213.2854168386404
 20
91.22337660831432
 10
213.3404664003404
 20
91.17357731991445
 10
213.3905022834404
 20
91.11873290591427
 10
213.4347016683406
 20
91.05962013011444
 10
213.4730511837403
 20
90.99624270671453
 10
213.5055374586408
 20
90.92860434981469
 10
213.5321471218405
 20
90.85670877361453
 10
213.5528668022406
 20
90.78055969231426
 10
213.5676831286405
 20
90.7001608202149
 10
213.5765827300409
 20
90.61551587151475
 10
213.5795522351407
 20
90.5266285603146
 10
213.5795201692408
 20
90.50511676431474
 10
213.5794294188408
 20
90.48475562831452
 10
213.5792881553406
 20
90.46555926631427
 10
213.5791045499409
 20
90.44754179221486
 10
213.5788867738408
 20
90.43071732021488
 10
213.5786429983404
 20
90.41509996401435
 10
213.5783813946406
 20
90.40070383771434
 10
213.5781101340409
 20
90.38754305531453
 10
213.5778373877404
 20
90.37563173071447
 10
213.5771898783407
 20
90.36408155041431
 10
213.5765616828405
 20
90.35271336601459
 10
213.5759386872406
 20
90.3415219777144
 10
213.5753067775408
 20
90.33050218561468
 10
213.5746518397407
 20
90.31964878981442
 10
213.5739597599407
 20
90.30895659031445
 10
213.5732164242407
 20
90.2984203874146
 10
213.5724077184407
 20
90.28803498111441
 10
213.5715195287406
 20
90.27779517161427
 10
213.5218049241405
 20
90.27779517161427
 10
213.3885697837405
 20
90.27779517161427
 10
213.1956771178404
 20
90.27779517161427
 10
212.9669899366406
 20
90.27779517161427
 10
212.7263712503404
 20
90.27779517161427
 10
212.4976840690405
 20
90.27779517161427
 10
212.3047914031404
 20
90.27779517161427
 10
212.1715562628405
 20
90.27779517161427
 10
212.1218416582404
 20
90.27779517161427
 10
212.1218416582404
 20
90.27642710691456
 10
212.1218416582404
 20
90.27276069351438
 10
212.1218416582404
 20
90.26745260251484
 10
212.1218416582404
 20
90.26115950481489
 10
212.1218416582404
 20
90.25453807171457
 10
212.1218416582404
 20
90.24824497401461
 10
212.1218416582404
 20
90.24293688301444
 10
212.1218416582404
 20
90.23927046961491
 10
212.1218416582404
 20
90.23790240491456
 10
212.1218416582404
 20
90.23510437211463
 10
212.1218416582404
 20
90.22760564431472
 10
212.1218416582404
 20
90.21674927711485
 10
212.1218416582404
 20
90.2038783263147
 10
212.1218416582404
 20
90.19033584761441
 10
212.1218416582404
 20
90.1774648968149
 10
212.1218416582404
 20
90.16660852961441
 10
212.1218416582404
 20
90.15910980171438
 10
212.1218416582404
 20
90.15631176891446
 10
212.1236938073404
 20
90.0933968875147
 10
212.129251245241
 20
90.03377576121449
 10
212.1385154574405
 20
89.97744616141487
 10
212.1514879298409
 20
89.92440585961446
 10
212.1681701479405
 20
89.8746526272143
 10
212.1885635974408
 20
89.82818423591449
 10
212.2126697641409
 20
89.78499845701469
 10
212.2404901336406
 20
89.74509306201474
 10
212.2720261916408
 20
89.70846582241456
 10
212.3064980793409
 20
89.67529625801487
 10
212.3440319558407
 20
89.64600952121449
 10
212.3846345067406
 20
89.62061081191434
 10
212.4283124175408
 20
89.59910533011429
 10
212.4750723738408
 20
89.5814982754144
 10
212.5249210611407
 20
89.56779484801471
 10
212.5778651650405
 20
89.55800024761467
 10
212.6339113712407
 20
89.55211967411468
 10
212.693066365141
 20
89.55015832741446
 10
212.7419300458405
 20
89.5515687340144
 10
212.7884671499405
 20
89.55579896341463
 10
212.8326910485409
 20
89.5628475298143
 10
212.8746151128408
 20
89.57271294771476
 10
212.9142527137403
 20
89.58539373141462
 10
212.9516172226405
 20
89.60088839501485
 10
212.9867220104407
 20
89.61919545311436
 10
213.0195804484408
 20
89.64031341981472
 10
213.0502059077409
 20
89.66424080951467
 10
213.0780699810406
 20
89.69079859771465
 10
213.1027034407404
 20
89.71932491331434
 10
213.1241181722404
 20
89.74981604231437
 10
213.1423260610404
 20
89.78226827031432
 10
213.1573389926409
 20
89.81667788321466
 10
213.1691688524404
 20
89.85304116681453
 10
213.1778275258406
 20
89.89135440681485
 10
213.1833268982406
 20
89.93161388911481
 10
213.1856788553406
 20
89.97381589951487
 10
213.197880011541
 20
89.97381589951487
 10
213.2305791102408
 20
89.97381589951487
 10
213.2779195964405
 20
89.97381589951487
 10
213.3340449150407
 20
89.97381589951487
 10
213.3930985112407
 20
89.97381589951487
 10
213.4492238299404
 20
89.97381589951487
 10
213.4965643161408
 20
89.97381589951487
 10
213.5292634148406
 20
89.97381589951487
 10
213.541464571041
 20
89.97381589951487
 10
213.541464571041
 20
89.97381589951487
 10
213.541464571041
 20
89.97381589951487
 10
213.541464571041
 20
89.97381589951487
 10
213.541464571041
 20
89.97381589951487
 10
213.541464571041
 20
89.97381589951487
 10
213.541464571041
 20
89.97381589951487
 10
213.541464571041
 20
89.97381589951487
 10
213.541464571041
 20
89.97381589951487
 10
213.541464571041
 20
89.97381589951487
  0
LWPOLYLINE
  5
A3
330
70
100
AcDbEntity
  8
CK_LEVEL_1
 62
     1
420
 16711680
370
    25
100
AcDbPolyline
 90
      154
 70
     0
 43
0.0
 10
214.0964433548407
 20
89.31739035151446
 10
214.0964433548407
 20
89.37644617621462
 10
214.0964433548407
 20
89.53471578631475
 10
214.0964433548407
 20
89.76385238611474
 10
214.0964433548407
 20
90.03550917961476
 10
214.0964433548407
 20
90.32133937111471
 10
214.0964433548407
 20
90.59299616461473
 10
214.0964433548407
 20
90.82213276441471
 10
214.0964433548407
 20
90.98040237451485
 10
214.0964433548407
 20
91.03945819921436
 10
214.0964277552404
 20
91.06171320721459
 10
214.0963720421405
 20
91.08323874581477
 10
214.0962628446404
 20
91.10404744321439
 10
214.0960867913408
 20
91.12415192781433
 10
214.0958305114407
 20
91.14356482791485
 10
214.0954806335407
 20
91.16229877161465
 10
214.0950237865406
 20
91.18036638741477
 10
214.0944465994409
 20
91.19778030341457
 10
214.0937357010408
 20
91.21455314811447
 10
214.0930964867409
 20
91.23087446951442
 10
214.0923792741403
 20
91.24722030471479
 10
214.0915796062407
 20
91.26358173951484
 10
214.0906930260405
 20
91.27994985981462
 10
214.0897150764407
 20
91.29631575171437
 10
214.0886413004404
 20
91.31267050091459
 10
214.0874672409404
 20
91.32900519341475
 10
214.0861884409407
 20
91.34531091521436
 10
214.0848004433407
 20
91.36157875211466
 10
214.0977722966407
 20
91.36157875211466
 10
214.1325368635409
 20
91.36157875211466
 10
214.1828676543406
 20
91.36157875211466
 10
214.2425381796404
 20
91.36157875211466
 10
214.3053219496404
 20
91.36157875211466
 10
214.3649924749408
 20
91.36157875211466
 10
214.4153232657405
 20
91.36157875211466
 10
214.4500878326407
 20
91.36157875211466
 10
214.4630596859407
 20
91.36157875211466
 10
214.4633382511405
 20
91.34816119441468
 10
214.4640848059405
 20
91.3122021399144
 10
214.4651656389407
 20
91.26014201621458
 10
214.4664470389407
 20
91.19842125101481
 10
214.4677952945406
 20
91.13348027201464
 10
214.4690766945406
 20
91.07175950681485
 10
214.4701575275408
 20
91.01969938311439
 10
214.4709040823407
 20
90.98374032861475
 10
214.4711826475405
 20
90.97032277101488
 10
214.4846491088407
 20
91.01227048231457
 10
214.5003121497404
 20
91.05188641711485
 10
214.5181621131407
 20
91.08916537541459
 10
214.5381893423407
 20
91.12410215751493
 10
214.5603841802409
 20
91.15669156341473
 10
214.5847369700405
 20
91.18692839331442
 10
214.6112380546409
 20
91.21480744721482
 10
214.6398777773409
 20
91.24032352531436
 10
214.6706464810404
 20
91.26347142761451
 10
214.7037329710408
 20
91.28416486101452
 10
214.7389699845409
 20
91.30238760661475
 10
214.7763552929404
 20
91.31814932151479
 10
214.8158866677407
 20
91.33145966251447
 10
214.8575618803408
 20
91.34232828651443
 10
214.9013787023406
 20
91.35076485061482
 10
214.9473349051407
 20
91.35677901161486
 10
214.9954282601407
 20
91.36038042641454
 10
215.0456565390407
 20
91.36157875211466
 10
215.0549780738408
 20
91.36155745731471
 10
215.0641770399404
 20
91.36148862081428
 10
215.0732645799403
 20
91.36136481401463
 10
215.0822518365408
 20
91.36117860861469
 10
215.0911499521404
 20
91.36092257621465
 10
215.0999700695406
 20
91.36058928841464
 10
215.1087233313409
 20
91.36017131681485
 10
215.1174208800408
 20
91.35966123301477
 10
215.1260738583409
 20
91.35905160851448
 10
215.134671618841
 20
91.35831037741466
 10
215.1431965809408
 20
91.35741389271428
 10
215.1516494874409
 20
91.35636735411479
 10
215.1600310813408
 20
91.35517596171483
 10
215.1683421053406
 20
91.35384491521454
 10
215.1765833023409
 20
91.3523794146144
 10
215.1847554152405
 20
91.35078465971465
 10
215.1928591867407
 20
91.34906585041438
 10
215.2008953597409
 20
91.34722818671468
 10
215.2008953597409
 20
91.3351755986145
 10
215.2008953597409
 20
91.30287466241465
 10
215.2008953597409
 20
91.25611062051449
 10
215.2008953597409
 20
91.20066871521455
 10
215.2008953597409
 20
91.1423341887146
 10
215.2008953597409
 20
91.08689228331455
 10
215.2008953597409
 20
91.04012824141438
 10
215.2008953597409
 20
91.00782730521453
 10
215.2008953597409
 20
90.99577471711436
 10
215.187109724541
 20
90.99841328681486
 10
215.1736583676407
 20
91.00085797511473
 10
215.1605212323408
 20
91.00311546761444
 10
215.1476782618409
 20
91.00519244981438
 10
215.1351093995407
 20
91.00709560731436
 10
215.1227945887405
 20
91.00883162571488
 10
215.1107137726409
 20
91.01040719051438
 10
215.0988468946408
 20
91.01182898741472
 10
215.0871738980407
 20
91.0131037018149
 10
215.0758247799408
 20
91.01444069101491
 10
215.0647609126405
 20
91.01562316931426
 10
215.0539800675409
 20
91.01665039401437
 10
215.0434800162407
 20
91.01752162221442
 10
215.0332585300408
 20
91.01823611101435
 10
215.0233133806407
 20
91.01879311761479
 10
215.0136423393406
 20
91.01919189921444
 10
215.0042431777407
 20
91.01943171291447
 10
214.9951136672405
 20
91.01951181591486
 10
214.940568618041
 20
91.01775227421427
 10
214.8888597341408
 20
91.0124686969144
 10
214.8400018723405
 20
91.00365365561472
 10
214.7940098893408
 20
90.9912997218147
 10
214.7508986421404
 20
90.97539946721456
 10
214.7106829873406
 20
90.95594546331437
 10
214.6733777819408
 20
90.93293028181438
 10
214.6389978826405
 20
90.90634649421465
 10
214.6075581463407
 20
90.87618667211469
 10
214.5788489681407
 20
90.84292734791473
 10
214.5535479423406
 20
90.80657409261485
 10
214.5316468979407
 20
90.76713507771456
 10
214.5131376634409
 20
90.72461847431487
 10
214.4980120677409
 20
90.67903245371445
 10
214.4862619395405
 20
90.63038518721455
 10
214.4778791075407
 20
90.5786848460144
 10
214.4728554006409
 20
90.52393960131446
 10
214.4711826475405
 20
90.46615762431461
 10
214.4711826475405
 20
90.42676231321484
 10
214.4711826475405
 20
90.32118287931478
 10
214.4711826475405
 20
90.16832907211426
 10
214.4711826475405
 20
89.98711064091486
 10
214.4711826475405
 20
89.79643733501431
 10
214.4711826475405
 20
89.6152189037148
 10
214.4711826475405
 20
89.46236509651429
 10
214.4711826475405
 20
89.35678566261485
 10
214.4711826475405
 20
89.31739035151446
 10
214.4583315057407
 20
89.31739035151446
 10
214.4238904459407
 20
89.31739035151446
 10
214.3740280160404
 20
89.31739035151446
 10
214.3149127641409
 20
89.31739035151446
 10
214.252713238241
 20
89.31739035151446
 10
214.1935979862407
 20
89.31739035151446
 10
214.1437355564405
 20
89.31739035151446
 10
214.1092944965404
 20
89.31739035151446
 10
214.0964433548407
 20
89.31739035151446
 10
214.0964433548407
 20
89.31739035151446
 10
214.0964433548407
 20
89.31739035151446
 10
214.0964433548407
 20
89.31739035151446
 10
214.0964433548407
 20
89.31739035151446
 10
214.0964433548407
 20
89.31739035151446
 10
214.0964433548407
 20
89.31739035151446
 10
214.0964433548407
 20
89.31739035151446
 10
214.0964433548407
 20
89.31739035151446
 10
214.0964433548407
 20
89.31739035151446
  0
LWPOLYLINE
  5
A4
330
70
100
AcDbEntity
  8
CK_LEVEL_1
 62
     1
420
 16711680
370
    25
100
AcDbPolyline
 90
       13
 70
     0
 43
0.0
 10
215.9825047706405
 20
89.31739035151446
 10
215.6046065485405
 20
89.31739035151446
 10
215.6046065485405
 20
92.2506820208148
 10
215.9825047706405
 20
92.2506820208148
 10
215.9825047706405
 20
90.52680907061439
 10
216.7565327508409
 20
91.36600125341434
 10
217.2175559461403
 20
91.36600125341434
 10
216.3659085556405
 20
90.48285482311445
 10
217.2766730551406
 20
89.31739035151446
 10
216.8138447573407
 20
89.31739035151446
 10
215.9825047706405
 20
90.41254607811429
 10
215.9825047706405
 20
89.31739035151446
 10
215.9825047706405
 20
89.31739035151446
  0
LWPOLYLINE
  5
A5
330
70
100
AcDbEntity
  8
CK_LEVEL_1
 62
     1
420
 16711680
370
    25
100
AcDbPolyline
 90
       12
 70
     0
 43
0.0
 10
217.4301970284404
 20
89.31739035151446
 10
217.4301970284404
 20
89.69510806341473
 10
218.5199374473404
 20
91.08133657871439
 10
217.4978883746407
 20
91.08133657871439
 10
217.4978883746407
 20
91.36157875211466
 10
218.9352915477408
 20
91.36157875211466
 10
218.9352915477408
 20
91.03187676841445
 10
217.8149546402405
 20
89.60593599661475
 10
218.9315008323405
 20
89.60593599661475
 10
218.9315008323405
 20
89.31739035151446
 10
217.4301970284404
 20
89.31739035151446
 10
217.4301970284404
 20
89.31739035151446
  0
LWPOLYLINE
  5
A6
330
70
100
AcDbEntity
  8
CK_LEVEL_1
 62
     1
420
 16711680
370
    25
100
AcDbPolyline
 90
       73
 70
     0
 43
0.0
 10
219.6857629394405
 20
90.54260371801479
 10
219.7219083231405
 20
90.54260371801479
 10
219.8187779513404
 20
90.54260371801479
 10
219.9590220400406
 20
90.54260371801479
 10
220.1252908049408
 20
90.54260371801479
 10
220.3002344619407
 20
90.54260371801479
 10
220.4665032269404
 20
90.54260371801479
 10
220.6067473156406
 20
90.54260371801479
 10
220.7036169438405
 20
90.54260371801479
 10
220.7397623275405
 20
90.54260371801479
 10
220.7397623275405
 20
90.54415749281455
 10
220.7397623275405
 20
90.54832160941492
 10
220.7397623275405
 20
90.55435025581465
 10
220.7397623275405
 20
90.56149762011454
 10
220.7397623275405
 20
90.56901789031462
 10
220.7397623275405
 20
90.57616525461449
 10
220.7397623275405
 20
90.58219390101486
 10
220.7397623275405
 20
90.58635801761459
 10
220.7397623275405
 20
90.58791179241435
 10
220.7380190045405
 20
90.64329154681436
 10
220.7327954735404
 20
90.69625038371468
 10
220.7241013914406
 20
90.74678756041477
 10
220.7119464150403
 20
90.7949023341146
 10
220.6963402015407
 20
90.84059396181466
 10
220.6772924076406
 20
90.88386170081435
 10
220.6548126903409
 20
90.92470480821488
 10
220.6289107066409
 20
90.96312254121491
 10
220.5995961133406
 20
90.99911415691437
 10
220.5674480785409
 20
91.03170925791435
 10
220.5332312327404
 20
91.0604779872143
 10
220.4969626613404
 20
91.08541811621465
 10
220.4586594496408
 20
91.10652741651474
 10
220.4183386829405
 20
91.12380365941488
 10
220.3760174466409
 20
91.1372446165144
 10
220.3317128260405
 20
91.14684805931444
 10
220.2854419064404
 20
91.15261175931427
 10
220.2372217732405
 20
91.15453348781484
 10
220.1839580002405
 20
91.15246281971463
 10
220.1329546910404
 20
91.14624487281441
 10
220.0842125885408
 20
91.13587073291473
 10
220.0377324355406
 20
91.12133148601447
 10
219.993514974841
 20
91.10261821801429
 10
219.9515609494409
 20
91.07972201481491
 10
219.9118711020409
 20
91.05263396231441
 10
219.8744461754404
 20
91.02134514641475
 10
219.8392869126408
 20
90.98584665301469
 10
219.8069232064407
 20
90.94694669271447
 10
219.7784170713408
 20
90.90545941881467
 10
219.7537551360408
 20
90.86138483111444
 10
219.7329240296406
 20
90.81472292981464
 10
219.7159103807403
 20
90.76547371481451
 10
219.7027008184407
 20
90.7136371861147
 10
219.6932819715406
 20
90.65921334371456
 10
219.6876404689407
 20
90.60220218771483
 10
219.6857629394405
 20
90.54260371801479
 10
219.6857629394405
 20
90.54260371801479
 10
219.6857629394405
 20
90.54260371801479
 10
219.6857629394405
 20
90.54260371801479
 10
219.6857629394405
 20
90.54260371801479
 10
219.6857629394405
 20
90.54260371801479
 10
219.6857629394405
 20
90.54260371801479
 10
219.6857629394405
 20
90.54260371801479
 10
219.6857629394405
 20
90.54260371801479
 10
219.6857629394405
 20
90.54260371801479
 10
219.6857629394405
 20
90.54260371801479
 10
219.6857629394405
 20
90.54260371801479
 10
219.6857629394405
 20
90.54260371801479
 10
219.6857629394405
 20
90.54260371801479
 10
219.6857629394405
 20
90.54260371801479
 10
219.6857629394405
 20
90.54260371801479
 10
219.6857629394405
 20
90.54260371801479
 10
219.6857629394405
 20
90.54260371801479
 10
219.6857629394405
 20
90.54260371801479
  0
LWPOLYLINE
  5
A7
330
70
100
AcDbEntity
  8
CK_LEVEL_1
 62
     1
420
 16711680
370
    25
100
AcDbPolyline
 90
      172
 70
     0
 43
0.0
 10
221.0849881932405
 20
89.97381589951487
 10
221.0819546800405
 20
89.90453982681485
 10
221.0733892331406
 20
89.83835099941471
 10
221.0592821956409
 20
89.77524793171445
 10
221.0396239105406
 20
89.71522913811471
 10
221.0144047211407
 20
89.6582931327145
 10
220.9836149702408
 20
89.60443843011466
 10
220.9472450011406
 20
89.5536635444149
 10
220.9052851567405
 20
89.50596698991441
 10
220.8577257802406
 20
89.46134728111458
 10
220.8057727493405
 20
89.42064135161459
 10
220.7502191703407
 20
89.38474382911477
 10
220.6910680144404
 20
89.35364951361469
 10
220.6283222530407
 20
89.32735320531472
 10
220.5619848576405
 20
89.30584970431448
 10
220.4920587993404
 20
89.28913381081438
 10
220.4185470497408
 20
89.27720032481458
 10
220.3414525800406
 20
89.27004404641474
 10
220.2607783617406
 20
89.26765977581458
 10
220.1574394588408
 20
89.2708994273148
 10
220.0598226567406
 20
89.28062036271468
 10
219.9679272127407
 20
89.29682555341448
 10
219.8817523838407
 20
89.31951797071436
 10
219.8012974272408
 20
89.3487005860145
 10
219.7265616001403
 20
89.38437637061442
 10
219.6575441597405
 20
89.42654829601446
 10
219.5942443631405
 20
89.47521933341462
 10
219.5366614674404
 20
89.53039245431465
 10
219.4848081010409
 20
89.59154061321484
 10
219.4390579127407
 20
89.6587912073147
 10
219.3994101596407
 20
89.73213606551446
 10
219.3658640988409
 20
89.8115670163146
 10
219.3384189876407
 20
89.89707588861476
 10
219.3170740831408
 20
89.98865451121444
 10
219.3018286424408
 20
90.08629471271484
 10
219.2926819228405
 20
90.18998832201431
 10
219.2896331813406
 20
90.29972716781481
 10
219.2926632280407
 20
90.41646864771429
 10
219.3017459395403
 20
90.52692123951471
 10
219.3168701734408
 20
90.63109385711456
 10
219.3380247869406
 20
90.7289954147145
 10
219.3651986375404
 20
90.82063482641453
 10
219.3983805826407
 20
90.90602100621451
 10
219.4375594795407
 20
90.98516286831445
 10
219.4827241857404
 20
91.05806932671491
 10
219.5338635585403
 20
91.12474929551455
 10
219.5904193532407
 20
91.18487567721459
 10
219.6521988028405
 20
91.2379339310147
 10
219.7191974502407
 20
91.28392257111469
 10
219.7914108384409
 20
91.32284011201461
 10
219.8688345102409
 20
91.35468506791491
 10
219.9514640087409
 20
91.37945595301472
 10
220.0392948768407
 20
91.39715128191486
 10
220.1323226575408
 20
91.40776956871437
 10
220.2305428937406
 20
91.41130932781454
 10
220.3207444137408
 20
91.40836247931487
 10
220.4065661457409
 20
91.39952787641485
 10
220.4880073469409
 20
91.38481443341463
 10
220.5650672745408
 20
91.36423106431474
 10
220.6377451856404
 20
91.33778668311437
 10
220.7060403374405
 20
91.30549020401486
 10
220.7699519870409
 20
91.26735054101484
 10
220.8294793916409
 20
91.22337660831432
 10
220.8846218084406
 20
91.17357731991445
 10
220.9346866623407
 20
91.11873290591427
 10
220.9788615335405
 20
91.05962013011444
 10
221.0171464218405
 20
90.99624270671453
 10
221.0495413273407
 20
90.92860434981469
 10
221.0760462499405
 20
90.85670877361453
 10
221.0966611898406
 20
90.78055969231426
 10
221.1113861468403
 20
90.7001608202149
 10
221.120221121141
 20
90.61551587151475
 10
221.1231661125405
 20
90.5266285603146
 10
221.1231428368407
 20
90.50511676431474
 10
221.1230735050403
 20
90.48475562831452
 10
221.1229588600403
 20
90.46555926631427
 10
221.1227996445405
 20
90.44754179221486
 10
221.1225966014403
 20
90.43071732021488
 10
221.1223504735404
 20
90.41509996401435
 10
221.1220620038405
 20
90.40070383771434
 10
221.121731935041
 20
90.38754305531453
 10
221.1213610099405
 20
90.37563173071447
 10
221.1208379263408
 20
90.36408155041431
 10
221.1202851292405
 20
90.35271336601459
 10
221.1196929614406
 20
90.3415219777144
 10
221.1190517662409
 20
90.33050218561468
 10
221.1183518866404
 20
90.31964878981442
 10
221.1175836656405
 20
90.30895659031445
 10
221.1167374464406
 20
90.2984203874146
 10
221.1158035720407
 20
90.28803498111441
 10
221.1147723855408
 20
90.27779517161427
 10
221.0651073036406
 20
90.27779517161427
 10
220.9320048841408
 20
90.27779517161427
 10
220.7393043663404
 20
90.27779517161427
 10
220.5108449895407
 20
90.27779517161427
 10
220.2704659931407
 20
90.27779517161427
 10
220.0420066163403
 20
90.27779517161427
 10
219.8493060985405
 20
90.27779517161427
 10
219.7162036790408
 20
90.27779517161427
 10
219.6665385970404
 20
90.27779517161427
 10
219.6665385970404
 20
90.27642710691456
 10
219.6665385970404
 20
90.27276069351438
 10
219.6665385970404
 20
90.26745260251484
 10
219.6665385970404
 20
90.26115950481489
 10
219.6665385970404
 20
90.25453807171457
 10
219.6665385970404
 20
90.24824497401461
 10
219.6665385970404
 20
90.24293688301444
 10
219.6665385970404
 20
90.23927046961491
 10
219.6665385970404
 20
90.23790240491456
 10
219.6665385970404
 20
90.23510437211463
 10
219.6665385970404
 20
90.22760564431472
 10
219.6665385970404
 20
90.21674927711485
 10
219.6665385970404
 20
90.2038783263147
 10
219.6665385970404
 20
90.19033584761441
 10
219.6665385970404
 20
90.1774648968149
 10
219.6665385970404
 20
90.16660852961441
 10
219.6665385970404
 20
90.15910980171438
 10
219.6665385970404
 20
90.15631176891446
 10
219.6683352808403
 20
90.0933968875147
 10
219.6737451410409
 20
90.03377576121449
 10
219.6827978913409
 20
89.97744616141487
 10
219.6955232453404
 20
89.92440585961446
 10
219.7119509167407
 20
89.8746526272143
 10
219.7321106191406
 20
89.82818423591449
 10
219.7560320661409
 20
89.78499845701469
 10
219.7837449714408
 20
89.74509306201474
 10
219.8152790485405
 20
89.70846582241456
 10
219.8498799428405
 20
89.67529625801487
 10
219.8875547114404
 20
89.64600952121449
 10
219.9283018686406
 20
89.62061081191434
 10
219.9721199286409
 20
89.59910533011429
 10
220.0190074058407
 20
89.5814982754144
 10
220.0689628146404
 20
89.56779484801471
 10
220.1219846692407
 20
89.55800024761467
 10
220.1780714840408
 20
89.55211967411468
 10
220.2372217732405
 20
89.55015832741446
 10
220.2859391144408
 20
89.5515687340144
 10
220.3323878204406
 20
89.55579896341463
 10
220.3765656629406
 20
89.5628475298143
 10
220.4184704133405
 20
89.57271294771476
 10
220.4580998430407
 20
89.58539373141462
 10
220.4954517236407
 20
89.60088839501485
 10
220.5305238265408
 20
89.61919545311436
 10
220.5633139231407
 20
89.64031341981472
 10
220.5938197851407
 20
89.66424080951467
 10
220.6215449472407
 20
89.69079859771465
 10
220.6461152654409
 20
89.71932491331434
 10
220.6675314826404
 20
89.74981604231437
 10
220.6857943416407
 20
89.78226827031432
 10
220.7009045853407
 20
89.81667788321466
 10
220.7128629565409
 20
89.85304116681453
 10
220.7216701980407
 20
89.89135440681485
 10
220.7273270527409
 20
89.93161388911481
 10
220.7298342634408
 20
89.97381589951487
 10
220.7420137534406
 20
89.97381589951487
 10
220.7746547868407
 20
89.97381589951487
 10
220.8219112082409
 20
89.97381589951487
 10
220.8779368624405
 20
89.97381589951487
 10
220.9368855942408
 20
89.97381589951487
 10
220.9929112484404
 20
89.97381589951487
 10
221.0401676698406
 20
89.97381589951487
 10
221.0728087032407
 20
89.97381589951487
 10
221.0849881932405
 20
89.97381589951487
 10
221.0849881932405
 20
89.97381589951487
 10
221.0849881932405
 20
89.97381589951487
 10
221.0849881932405
 20
89.97381589951487
 10
221.0849881932405
 20
89.97381589951487
 10
221.0849881932405
 20
89.97381589951487
 10
221.0849881932405
 20
89.97381589951487
 10
221.0849881932405
 20
89.97381589951487
 10
221.0849881932405
 20
89.97381589951487
 10
221.0849881932405
 20
89.97381589951487
  0
LWPOLYLINE
  5
A8
330
70
100
AcDbEntity
  8
CK_LEVEL_1
 62
     1
420
 16711680
370
    25
100
AcDbPolyline
 90
      190
 70
     0
 43
0.0
 10
223.0169894693405
 20
89.63924013901483
 10
223.0001753970405
 20
89.60337913941456
 10
222.9807814394407
 20
89.56914496071471
 10
222.9588083394404
 20
89.53653983131465
 10
222.9342568398406
 20
89.50556597981464
 10
222.9071276834409
 20
89.47622563471478
 10
222.8774216132405
 20
89.44852102461466
 10
222.845139371841
 20
89.42245437781485
 10
222.8102817022407
 20
89.39802792301438
 10
222.7728493473404
 20
89.37524388871466
 10
222.7334732262408
 20
89.35463414881436
 10
222.6928379904408
 20
89.33648246821466
 10
222.6509347257404
 20
89.32077993301454
 10
222.6077545181403
 20
89.30751762901458
 10
222.5632884534405
 20
89.29668664221429
 10
222.5175276177406
 20
89.28827805851431
 10
222.4704630968405
 20
89.28228296371463
 10
222.4220859766408
 20
89.27869244381474
 10
222.3723873431405
 20
89.27749758481473
 10
222.3287054705405
 20
89.27842266891447
 10
222.2857552958406
 20
89.28119445471439
 10
222.2435464761403
 20
89.28580774221469
 10
222.2020886681408
 20
89.29225733151433
 10
222.1613915289404
 20
89.3005380229145
 10
222.1214647153407
 20
89.31064461641467
 10
222.0823178843406
 20
89.32257191201442
 10
222.0439606929409
 20
89.33631471011432
 10
222.0064027979406
 20
89.35186781051436
 10
221.9702356242408
 20
89.36920880441478
 10
221.9357502416407
 20
89.38790548231429
 10
221.9029570497405
 20
89.40796972971437
 10
221.8718664485408
 20
89.42941343201445
 10
221.8424888375406
 20
89.45224847471477
 10
221.8148346167407
 20
89.47648674321476
 10
221.7889141857405
 20
89.5021401230146
 10
221.7647379444408
 20
89.52922049951441
 10
221.7423162925409
 20
89.5577397581149
 10
221.7307607885406
 20
89.57386459821474
 10
221.7199837815405
 20
89.59076719241467
 10
221.7099882427406
 20
89.60844308351488
 10
221.7007771435406
 20
89.62688781471468
 10
221.6923534553406
 20
89.64609692881429
 10
221.684720149541
 20
89.6660659688147
 10
221.6778801974405
 20
89.6867904776143
 10
221.6718365704406
 20
89.70826599831486
 10
221.6665922399404
 20
89.73048807371462
 10
221.6620336750409
 20
89.75484977751481
 10
221.6579891557408
 20
89.7828053440145
 10
221.6544646249404
 20
89.81435180181476
 10
221.6514660251406
 20
89.84948617941457
 10
221.6489992992408
 20
89.88820550571468
 10
221.6470703899406
 20
89.93050680911464
 10
221.6456852399404
 20
89.97638711831433
 10
221.6448497919407
 20
90.02584346201487
 10
221.644569988641
 20
90.07887286891486
 10
221.644569988641
 20
90.12286141081487
 10
221.644569988641
 20
90.2407507032143
 10
221.644569988641
 20
90.41142624601476
 10
221.644569988641
 20
90.61377353901452
 10
221.644569988641
 20
90.82667808201438
 10
221.644569988641
 20
91.02902537491466
 10
221.644569988641
 20
91.19970091771447
 10
221.644569988641
 20
91.31759021011456
 10
221.644569988641
 20
91.36157875211466
 10
221.6573901786407
 20
91.36157875211466
 10
221.6917482879407
 20
91.36157875211466
 10
221.7414906252408
 20
91.36157875211466
 10
221.8004634994409
 20
91.36157875211466
 10
221.8625132191408
 20
91.36157875211466
 10
221.9214860933408
 20
91.36157875211466
 10
221.971228430641
 20
91.36157875211466
 10
222.0055865399409
 20
91.36157875211466
 10
222.0184067299407
 20
91.36157875211466
 10
222.0184067299407
 20
91.31677927581442
 10
222.0184067299407
 20
91.19671667961474
 10
222.0184067299407
 20
91.02289471181448
 10
222.0184067299407
 20
90.8168171211148
 10
222.0184067299407
 20
90.59998765621438
 10
222.0184067299407
 20
90.39391006551472
 10
222.0184067299407
 20
90.22008809781455
 10
222.0184067299407
 20
90.10002550151476
 10
222.0184067299407
 20
90.05522602531462
 10
222.0198017845405
 20
89.99936305311477
 10
222.0239780342406
 20
89.94688594831483
 10
222.0309221077407
 20
89.8978043676146
 10
222.0406206341406
 20
89.85212796811488
 10
222.0530602422408
 20
89.80986640661489
 10
222.0682275608408
 20
89.77102934021486
 10
222.0861092188406
 20
89.73562642571456
 10
222.1066918451405
 20
89.70366732001467
 10
222.1299620685408
 20
89.6751616800145
 10
222.1561392747404
 20
89.64968757241454
 10
222.1853309279409
 20
89.62718259861452
 10
222.2175362852404
 20
89.6076541869148
 10
222.2527546039408
 20
89.59110976571464
 10
222.2909851410405
 20
89.57755676341447
 10
222.3322271538405
 20
89.56700260851491
 10
222.3764798994405
 20
89.55945472941451
 10
222.4237426349404
 20
89.5549205544143
 10
222.4740146175409
 20
89.55340751201486
 10
222.5259609628405
 20
89.55500164781428
 10
222.5757783270405
 20
89.55979594081478
 10
222.6234637388408
 20
89.56780821911491
 10
222.6690142269406
 20
89.57905631091456
 10
222.7124268198409
 20
89.59355804441432
 10
222.7536985462409
 20
89.61133124761452
 10
222.7928264347409
 20
89.6323937489147
 10
222.829807514041
 20
89.65676337641461
 10
222.8646388128407
 20
89.68445795821475
 10
222.8964630929407
 20
89.71447626921436
 10
222.9245961983405
 20
89.74634722441434
 10
222.9490240149406
 20
89.78007156691433
 10
222.9697324289407
 20
89.81565003951436
 10
222.9867073262405
 20
89.85308338491432
 10
222.9999345928408
 20
89.89237234601432
 10
223.009400114941
 20
89.93351766571448
 10
223.0150897784406
 20
89.97652008681482
 10
223.0169894693405
 20
90.02138035211466
 10
223.0169894693405
 20
90.06734051681464
 10
223.0169894693405
 20
90.19051375791461
 10
223.0169894693405
 20
90.36883919661475
 10
223.0169894693405
 20
90.5802559538143
 10
223.0169894693405
 20
90.8027031505145
 10
223.0169894693405
 20
91.01411990761459
 10
223.0169894693405
 20
91.19244534631473
 10
223.0169894693405
 20
91.3156185875148
 10
223.0169894693405
 20
91.36157875211466
 10
223.0299427516406
 20
91.36157875211466
 10
223.0646575482408
 20
91.36157875211466
 10
223.1149162835409
 20
91.36157875211466
 10
223.1745013821407
 20
91.36157875211466
 10
223.2371952684406
 20
91.36157875211466
 10
223.2967803670404
 20
91.36157875211466
 10
223.3470391023405
 20
91.36157875211466
 10
223.3817538989407
 20
91.36157875211466
 10
223.3947071812408
 20
91.36157875211466
 10
223.3947071812408
 20
91.30530238921449
 10
223.3947071812408
 20
91.15448173661485
 10
223.3947071812408
 20
90.93612944851448
 10
223.3947071812408
 20
90.67725817911471
 10
223.3947071812408
 20
90.40488058261427
 10
223.3947071812408
 20
90.14600931321449
 10
223.3947071812408
 20
89.92765702511475
 10
223.3947071812408
 20
89.77683637251448
 10
223.3947071812408
 20
89.72056000961432
 10
223.3947612847407
 20
89.69388559541432
 10
223.3949260715409
 20
89.66777871151473
 10
223.3952052558403
 20
89.64224530051451
 10
223.3956025517405
 20
89.6172913051147
 10
223.396121673441
 20
89.59292266811445
 10
223.3967663352408
 20
89.5691453321147
 10
223.3975402513409
 20
89.54596524001473
 10
223.3984471358406
 20
89.5233883344148
 10
223.3994907030405
 20
89.50142055811474
 10
223.4002397339409
 20
89.47956928391482
 10
223.4012108741404
 20
89.45810874391449
 10
223.4023855527407
 20
89.43702185271446
 10
223.4037451985409
 20
89.41629152491483
 10
223.4052712406406
 20
89.3959006753146
 10
223.4069451080404
 20
89.37583221851449
 10
223.4087482297404
 20
89.35606906911459
 10
223.4106620346407
 20
89.33659414191456
 10
223.4126679517406
 20
89.31739035151446
 10
223.3995041979405
 20
89.31739035151446
 10
223.3642253378408
 20
89.31739035151446
 10
223.313149973041
 20
89.31739035151446
 10
223.2525967056405
 20
89.31739035151446
 10
223.1888841372404
 20
89.31739035151446
 10
223.1283308698406
 20
89.31739035151446
 10
223.0772555051409
 20
89.31739035151446
 10
223.0419766449404
 20
89.31739035151446
 10
223.028812891141
 20
89.31739035151446
 10
223.0284074240409
 20
89.32842772421453
 10
223.0273207720407
 20
89.35800788301442
 10
223.0257475595405
 20
89.40083288901433
 10
223.0238824107409
 20
89.45160480331452
 10
223.0219199497406
 20
89.50502568711465
 10
223.020054800941
 20
89.55579760151429
 10
223.0184815884407
 20
89.59862260751487
 10
223.0173949365406
 20
89.62820276631475
 10
223.0169894693405
 20
89.63924013901483
 10
223.0169894693405
 20
89.63924013901483
 10
223.0169894693405
 20
89.63924013901483
 10
223.0169894693405
 20
89.63924013901483
 10
223.0169894693405
 20
89.63924013901483
 10
223.0169894693405
 20
89.63924013901483
 10
223.0169894693405
 20
89.63924013901483
 10
223.0169894693405
 20
89.63924013901483
 10
223.0169894693405
 20
89.63924013901483
 10
223.0169894693405
 20
89.63924013901483
  0
LWPOLYLINE
  5
A9
330
70
100
AcDbEntity
  8
CK_LEVEL_1
 62
     1
420
 16711680
370
    25
100
AcDbPolyline
 90
       91
 70
     0
 43
0.0
 10
225.4725607446404
 20
90.42915302171451
 10
225.4706390161405
 20
90.50080407961484
 10
225.4648619450405
 20
90.56913018311483
 10
225.4552117033406
 20
90.63414247481459
 10
225.4416704627408
 20
90.69585209741427
 10
225.4242203950406
 20
90.75427019341455
 10
225.4028436722403
 20
90.8094079056144
 10
225.3775224659403
 20
90.86127637641435
 10
225.3482389482405
 20
90.90988674851461
 10
225.3149752906405
 20
90.95525016451459
 10
225.2784306301404
 20
90.9962257452145
 10
225.239370711541
 20
91.0323862333144
 10
225.1977873635404
 20
91.06373014321428
 10
225.1536724148405
 20
91.09025598921464
 10
225.1070176943409
 20
91.11196228561473
 10
225.0578150307405
 20
91.1288475468145
 10
225.0060562526404
 20
91.14091028711454
 10
224.9517331890404
 20
91.14814902081471
 10
224.8948376684404
 20
91.15056226211477
 10
224.8379656712404
 20
91.14798051981493
 10
224.7837738427404
 20
91.14023083561479
 10
224.7322547546407
 20
91.12730652411476
 10
224.6834009784406
 20
91.10920089961487
 10
224.6372050857403
 20
91.08590727671488
 10
224.5936596481406
 20
91.05741896971483
 10
224.5527572373405
 20
91.02372929321447
 10
224.5144904248407
 20
90.98483156141437
 10
224.4788517822406
 20
90.94071908891491
 10
224.446003496341
 20
90.8918440179149
 10
224.4170670089407
 20
90.83926365821447
 10
224.3920296915407
 20
90.78297652411489
 10
224.3708789160409
 20
90.72298112991466
 10
224.3536020540404
 20
90.65927599001449
 10
224.3401864773405
 20
90.59185961861476
 10
224.3306195575407
 20
90.52073053001471
 10
224.3248886664404
 20
90.44588723871443
 10
224.3229811756405
 20
90.36732825891435
 10
224.3249203609409
 20
90.29524771541479
 10
224.3307394025405
 20
90.22660280951448
 10
224.3404405288406
 20
90.16139279841473
 10
224.3540259684407
 20
90.09961693921473
 10
224.371497949841
 20
90.0412744890144
 10
224.3928587016409
 20
89.98636470521459
 10
224.4181104523408
 20
89.93488684471431
 10
224.4472554303405
 20
89.88684016471488
 10
224.4802958642404
 20
89.84222392251444
 10
224.5167122609406
 20
89.80134751111474
 10
224.555743456441
 20
89.76529956331452
 10
224.5973901934408
 20
89.73407487931483
 10
224.6416532150405
 20
89.70766825921463
 10
224.6885332638409
 20
89.68607450311489
 10
224.7380310828407
 20
89.66928841111457
 10
224.7901474147407
 20
89.65730478341471
 10
224.8448830025406
 20
89.65011842001485
 10
224.9022385890405
 20
89.64772412101462
 10
224.9583859452407
 20
89.6503236916145
 10
225.0120180434409
 20
89.65811794621433
 10
225.0631267121405
 20
89.67110019931437
 10
225.1117037802409
 20
89.68926376531483
 10
225.1577410764403
 20
89.71260195861452
 10
225.2012304295408
 20
89.74110809381448
 10
225.2421636682404
 20
89.77477548511467
 10
225.2805326213406
 20
89.81359744721428
 10
225.3163291175408
 20
89.85756729431457
 10
225.3493086386406
 20
89.90602984121474
 10
225.3783414477406
 20
89.95826973231489
 10
225.4034453730409
 20
90.01428028211462
 10
225.4246382429407
 20
90.07405480501473
 10
225.4419378853405
 20
90.13758661551484
 10
225.4553621285409
 20
90.20486902801451
 10
225.4649288007404
 20
90.27589535691452
 10
225.4706557300403
 20
90.3506589167145
 10
225.4725607446404
 20
90.42915302171451
 10
225.4725607446404
 20
90.42915302171451
 10
225.4725607446404
 20
90.42915302171451
 10
225.4725607446404
 20
90.42915302171451
 10
225.4725607446404
 20
90.42915302171451
 10
225.4725607446404
 20
90.42915302171451
 10
225.4725607446404
 20
90.42915302171451
 10
225.4725607446404
 20
90.42915302171451
 10
225.4725607446404
 20
90.42915302171451
 10
225.4725607446404
 20
90.42915302171451
 10
225.4725607446404
 20
90.42915302171451
 10
225.4725607446404
 20
90.42915302171451
 10
225.4725607446404
 20
90.42915302171451
 10
225.4725607446404
 20
90.42915302171451
 10
225.4725607446404
 20
90.42915302171451
 10
225.4725607446404
 20
90.42915302171451
 10
225.4725607446404
 20
90.42915302171451
 10
225.4725607446404
 20
90.42915302171451
 10
225.4725607446404
 20
90.42915302171451
  0
LWPOLYLINE
  5
AA
330
70
100
AcDbEntity
  8
CK_LEVEL_1
 62
     1
420
 16711680
370
    25
100
AcDbPolyline
 90
      217
 70
     0
 43
0.0
 10
225.4268013946406
 20
89.7053971480145
 10
225.4120324861407
 20
89.67892911981437
 10
225.3943791278409
 20
89.6533175867143
 10
225.3738383482408
 20
89.62856329161443
 10
225.3504071759408
 20
89.60466697731472
 10
225.3240826397409
 20
89.58162938681478
 10
225.2948617681408
 20
89.55945126281449
 10
225.2627415899404
 20
89.53813334811449
 10
225.2277191335406
 20
89.51767638571441
 10
225.1897914277407
 20
89.49808111831472
 10
225.1505144758406
 20
89.47981788791437
 10
225.1107873626409
 20
89.46366432461475
 10
225.0706145450406
 20
89.44963082841486
 10
225.0300004801407
 20
89.43772779881443
 10
224.9889496249408
 20
89.42796563581444
 10
224.9474664366406
 20
89.42035473901475
 10
224.9055553721403
 20
89.41490550821475
 10
224.8632208884408
 20
89.41162834331469
 10
224.8204674427407
 20
89.41053364391441
 10
224.7270318426408
 20
89.41371188721456
 10
224.6385547032406
 20
89.4232436459144
 10
224.5550471671408
 20
89.43912446291481
 10
224.4765203771406
 20
89.46134988111481
 10
224.4029854756409
 20
89.48991544351482
 10
224.3344536053409
 20
89.52481669301445
 10
224.2709359087403
 20
89.56604917271485
 10
224.2124435286409
 20
89.61360842541429
 10
224.1589876075406
 20
89.66748999411443
 10
224.1102307720405
 20
89.72730809701465
 10
224.0672628930405
 20
89.79279630201432
 10
224.0300698565404
 20
89.86394866621477
 10
223.9986375486405
 20
89.94075924691435
 10
223.9729518552404
 20
90.02322210151472
 10
223.9529986625406
 20
90.11133128721475
 10
223.9387638564408
 20
90.20508086131476
 10
223.9302333230406
 20
90.30446488111435
 10
223.9273929483405
 20
90.40947740381431
 10
223.9303055024408
 20
90.50867001831425
 10
223.9390471263405
 20
90.60328970631486
 10
223.9536237628408
 20
90.69332978221435
 10
223.9740413547409
 20
90.7787835606144
 10
224.0003058447406
 20
90.85964435571431
 10
224.0324231754406
 20
90.93590548201438
 10
224.0703992897404
 20
91.00756025411429
 10
224.1142401301406
 20
91.07460198621467
 10
224.1639516396408
 20
91.13702399291462
 10
224.2186156671409
 20
91.19374073651464
 10
224.2773081189409
 20
91.24379048601483
 10
224.3400260237407
 20
91.28717175581455
 10
224.4067664102407
 20
91.32388306011483
 10
224.4775263070407
 20
91.35392291341451
 10
224.5523027427405
 20
91.37728983001473
 10
224.6310927459404
 20
91.39398232401456
 10
224.7138933454405
 20
91.40399891001479
 10
224.8007015696409
 20
91.40733810211449
 10
224.8527479508405
 20
91.40640930381449
 10
224.9029246022409
 20
91.40362488981448
 10
224.9512270669407
 20
91.39898783141454
 10
224.9976508879409
 20
91.39250110001492
 10
225.0421916080405
 20
91.38416766691447
 10
225.0848447702404
 20
91.37399050361482
 10
225.125605917541
 20
91.3619725814148
 10
225.1644705929408
 20
91.34811687161457
 10
225.2014343392407
 20
91.33242634561431
 10
225.2367643316403
 20
91.31500834391481
 10
225.2702632220408
 20
91.29573249801449
 10
225.3019518099403
 20
91.27460623621438
 10
225.331850894941
 20
91.25163698701442
 10
225.3599812765409
 20
91.22683217881446
 10
225.3863637543407
 20
91.2001992399149
 10
225.4110191278407
 20
91.17174559881437
 10
225.4339681965408
 20
91.14147868391466
 10
225.4552317600406
 20
91.10940592361432
 10
225.4557146063404
 20
91.11805382591461
 10
225.4570086346406
 20
91.14123020381434
 10
225.4588820785406
 20
91.17478406431452
 10
225.4611031718404
 20
91.21456441451433
 10
225.4634401482409
 20
91.25642026121463
 10
225.4656612415407
 20
91.29620061141444
 10
225.4675346854407
 20
91.32975447191462
 10
225.4688287136408
 20
91.35293084991447
 10
225.4693115600407
 20
91.36157875211466
 10
225.4814415273406
 20
91.36157875211466
 10
225.5139498398404
 20
91.36157875211466
 10
225.561014113141
 20
91.36157875211466
 10
225.6168119629406
 20
91.36157875211466
 10
225.6755210048406
 20
91.36157875211466
 10
225.7313188546408
 20
91.36157875211466
 10
225.7783831279407
 20
91.36157875211466
 10
225.8108914404406
 20
91.36157875211466
 10
225.8230214078406
 20
91.36157875211466
 10
225.8214780327408
 20
91.34232172481448
 10
225.8199807137408
 20
91.32312263901486
 10
225.8185353936405
 20
91.30398595191433
 10
225.8171480150408
 20
91.28491612041431
 10
225.8158245208409
 20
91.26591760161451
 10
225.8145708535409
 20
91.24699485251454
 10
225.8133929560403
 20
91.22815233031488
 10
225.8122967709406
 20
91.20939449181426
 10
225.8112882411403
 20
91.19072579421445
 10
225.8103851946405
 20
91.17185690111424
 10
225.8095995169408
 20
91.15237962161431
 10
225.8089282366409
 20
91.13230064121433
 10
225.8083683824406
 20
91.11162664551482
 10
225.8079169830406
 20
91.09036432011428
 10
225.807571066941
 20
91.06852035051444
 10
225.8073276628405
 20
91.04610142241453
 10
225.807183799441
 20
91.02311422121486
 10
225.8071365052406
 20
90.99956543251463
 10
225.8071365052406
 20
90.94412476521448
 10
225.8071365052406
 20
90.79554377691463
 10
225.8071365052406
 20
90.58043398791491
 10
225.8071365052406
 20
90.32540691841443
 10
225.8071365052406
 20
90.05707408881439
 10
225.8071365052406
 20
89.80204701931455
 10
225.8071365052406
 20
89.58693723021474
 10
225.8071365052406
 20
89.43835624191489
 10
225.8071365052406
 20
89.38291557461473
 10
225.8043332725409
 20
89.2843764122148
 10
225.7959156509406
 20
89.1919508276146
 10
225.7818717548405
 20
89.10563510661456
 10
225.7621896989407
 20
89.02542553511452
 10
225.736857597741
 20
88.95131839871465
 10
225.7058635657405
 20
88.88330998341434
 10
225.6691957175404
 20
88.82139657491446
 10
225.6268421676406
 20
88.76557445901481
 10
225.5787910306409
 20
88.71583992151446
 10
225.5250106120408
 20
88.67172125861433
 10
225.4646278264406
 20
88.63280693671484
 10
225.3976322742405
 20
88.59909324161451
 10
225.3240135555408
 20
88.57057645911435
 10
225.2437612707406
 20
88.54725287501477
 10
225.1568650198406
 20
88.52911877501478
 10
225.0633144031405
 20
88.51617044491478
 10
224.9630990210408
 20
88.50840417071472
 10
224.8562084735407
 20
88.50581623801481
 10
224.7636969670408
 20
88.5078568210149
 10
224.6769016187408
 20
88.51397114161464
 10
224.5958224284405
 20
88.52414805731473
 10
224.5204593963407
 20
88.53837642551441
 10
224.4508125223407
 20
88.55664510341469
 10
224.3868818064405
 20
88.57894294861441
 10
224.3286672487409
 20
88.60525881831454
 10
224.2761688491403
 20
88.63558157011459
 10
224.2293866076409
 20
88.66990006121486
 10
224.1881833463407
 20
88.70887579121427
 10
224.1517595212407
 20
88.75252473121454
 10
224.1201143895409
 20
88.80086025231461
 10
224.0932472082404
 20
88.85389572571476
 10
224.0711572346405
 20
88.91164452241447
 10
224.0538437259408
 20
88.97412001361471
 10
224.0413059390407
 20
89.0413355704144
 10
224.0335431314407
 20
89.11330456401449
 10
224.0305545600404
 20
89.19004036551458
 10
224.0444735350407
 20
89.19004036551458
 10
224.0817763881406
 20
89.19004036551458
 10
224.1357820112406
 20
89.19004036551458
 10
224.1998092964408
 20
89.19004036551458
 10
224.2671771355409
 20
89.19004036551458
 10
224.331204420641
 20
89.19004036551458
 10
224.3852100438405
 20
89.19004036551458
 10
224.422512896841
 20
89.19004036551458
 10
224.4364318719407
 20
89.19004036551458
 10
224.4387620389409
 20
89.1456492040149
 10
224.4438748867409
 20
89.10374432981456
 10
224.4517518442405
 20
89.06431162901462
 10
224.4623743404408
 20
89.02733698761478
 10
224.475723804441
 20
88.99280629171478
 10
224.4917816650404
 20
88.96070542731434
 10
224.5105293513405
 20
88.93102028041438
 10
224.5319482923407
 20
88.90373673701462
 10
224.5560199169404
 20
88.87884068321483
 10
224.5829476396409
 20
88.85653132401438
 10
224.6125793020406
 20
88.83683824931429
 10
224.6449045043405
 20
88.81976368751452
 10
224.6799128467407
 20
88.8053098673148
 10
224.7175939294409
 20
88.79347901711453
 10
224.7579373527407
 20
88.78427336541442
 10
224.8009327169406
 20
88.77769514081474
 10
224.8465696220405
 20
88.77374657181432
 10
224.8948376684404
 20
88.77242988691458
 10
224.9533301724409
 20
88.77410944941455
 10
225.0083959528409
 20
88.77914070851463
 10
225.0600179243404
 20
88.78751252171484
 10
225.1081790017409
 20
88.79921374621487
 10
225.1528620996407
 20
88.81423323951478
 10
225.1940501326404
 20
88.83255985901442
 10
225.2317260155404
 20
88.8541824621144
 10
225.2658726628407
 20
88.87908990621459
 10
225.2964729893408
 20
88.90727104861486
 10
225.3239051008407
 20
88.93874161281473
 10
225.3480820850406
 20
88.97387883801435
 10
225.3690113702407
 20
89.01267232451441
 10
225.3867003849403
 20
89.05511167251479
 10
225.4011565575407
 20
89.10118648211469
 10
225.4123873163409
 20
89.15088635371485
 10
225.4204000898408
 20
89.20420088751459
 10
225.4252023065404
 20
89.26111968371445
 10
225.4268013946406
 20
89.32163234251436
 10
225.4268013946406
 20
89.33479300121449
 10
225.4268013946406
 20
89.37006356631462
 10
225.4268013946406
 20
89.42112692171438
 10
225.4268013946406
 20
89.48166595141479
 10
225.4268013946406
 20
89.54536353911469
 10
225.4268013946406
 20
89.60590256881449
 10
225.4268013946406
 20
89.65696592431434
 10
225.4268013946406
 20
89.69223648941447
 10
225.4268013946406
 20
89.7053971480145
 10
225.4268013946406
 20
89.7053971480145
 10
225.4268013946406
 20
89.7053971480145
 10
225.4268013946406
 20
89.7053971480145
 10
225.4268013946406
 20
89.7053971480145
 10
225.4268013946406
 20
89.7053971480145
 10
225.4268013946406
 20
89.7053971480145
 10
225.4268013946406
 20
89.7053971480145
 10
225.4268013946406
 20
89.7053971480145
 10
225.4268013946406
 20
89.7053971480145
  0
LWPOLYLINE
  5
AB
330
70
100
AcDbEntity
  8
CK_LEVEL_1
 62
     1
420
 16711680
370
    25
100
AcDbPolyline
 90
       73
 70
     0
 43
0.0
 10
226.7377571329406
 20
90.54260371801479
 10
226.7738994215407
 20
90.54260371801479
 10
226.870760754741
 20
90.54260371801479
 10
227.0109928341405
 20
90.54260371801479
 10
227.1772473612406
 20
90.54260371801479
 10
227.3521760376405
 20
90.54260371801479
 10
227.5184305648407
 20
90.54260371801479
 10
227.6586626442409
 20
90.54260371801479
 10
227.7555239774405
 20
90.54260371801479
 10
227.7916662659405
 20
90.54260371801479
 10
227.7916662659405
 20
90.54415749281455
 10
227.7916662659405
 20
90.54832160941492
 10
227.7916662659405
 20
90.55435025581465
 10
227.7916662659405
 20
90.56149762011454
 10
227.7916662659405
 20
90.56901789031462
 10
227.7916662659405
 20
90.57616525461449
 10
227.7916662659405
 20
90.58219390101486
 10
227.7916662659405
 20
90.58635801761459
 10
227.7916662659405
 20
90.58791179241435
 10
227.7899585993404
 20
90.64329154681436
 10
227.7848242091409
 20
90.69625038371468
 10
227.7762460101404
 20
90.74678756041477
 10
227.764206917041
 20
90.7949023341146
 10
227.7486898443407
 20
90.84059396181466
 10
227.729677706741
 20
90.88386170081435
 10
227.7071534190409
 20
90.92470480821488
 10
227.6810998958405
 20
90.96312254121491
 10
227.6515000517406
 20
90.99911415691437
 10
227.6195600123406
 20
91.03170925791435
 10
227.5855355622406
 20
91.0604779872143
 10
227.5494281872404
 20
91.08541811621465
 10
227.5112393729405
 20
91.10652741651474
 10
227.4709706051405
 20
91.12380365941488
 10
227.4286233694406
 20
91.1372446165144
 10
227.3841991514405
 20
91.14684805931444
 10
227.3376994370408
 20
91.15261175931427
 10
227.2891257116405
 20
91.15453348781484
 10
227.2359096042409
 20
91.15246281971463
 10
227.1849324183404
 20
91.14624487281441
 10
227.1362000965406
 20
91.13587073291473
 10
227.0897185816407
 20
91.12133148601447
 10
227.0454938164405
 20
91.10261821801429
 10
227.0035317435409
 20
91.07972201481491
 10
226.9638383057404
 20
91.05263396231441
 10
226.9264194456407
 20
91.02134514641475
 10
226.8912811062404
 20
90.98584665301469
 10
226.8591075672407
 20
90.94694669271447
 10
226.830702458341
 20
90.90545941881467
 10
226.8060702367404
 20
90.86138483111444
 10
226.7852153593405
 20
90.81472292981464
 10
226.7681422833409
 20
90.76547371481451
 10
226.7548554656407
 20
90.7136371861147
 10
226.7453593633407
 20
90.65921334371456
 10
226.7396584334406
 20
90.60220218771483
 10
226.7377571329406
 20
90.54260371801479
 10
226.7377571329406
 20
90.54260371801479
 10
226.7377571329406
 20
90.54260371801479
 10
226.7377571329406
 20
90.54260371801479
 10
226.7377571329406
 20
90.54260371801479
 10
226.7377571329406
 20
90.54260371801479
 10
226.7377571329406
 20
90.54260371801479
 10
226.7377571329406
 20
90.54260371801479
 10
226.7377571329406
 20
90.54260371801479
 10
226.7377571329406
 20
90.54260371801479
 10
226.7377571329406
 20
90.54260371801479
 10
226.7377571329406
 20
90.54260371801479
 10
226.7377571329406
 20
90.54260371801479
 10
226.7377571329406
 20
90.54260371801479
 10
226.7377571329406
 20
90.54260371801479
 10
226.7377571329406
 20
90.54260371801479
 10
226.7377571329406
 20
90.54260371801479
 10
226.7377571329406
 20
90.54260371801479
 10
226.7377571329406
 20
90.54260371801479
  0
LWPOLYLINE
  5
AC
330
70
100
AcDbEntity
  8
CK_LEVEL_1
 62
     1
420
 16711680
370
    25
100
AcDbPolyline
 90
      172
 70
     0
 43
0.0
 10
228.1376141727408
 20
89.97381589951487
 10
228.1343933398408
 20
89.90453982681485
 10
228.1256866294407
 20
89.83835099941471
 10
228.1114836416406
 20
89.77524793171445
 10
228.0917739768405
 20
89.71522913811471
 10
228.0665472351408
 20
89.6582931327145
 10
228.035793016841
 20
89.60443843011466
 10
227.9995009221403
 20
89.5536635444149
 10
227.9576605513407
 20
89.50596698991441
 10
227.9102615045407
 20
89.46134728111458
 10
227.8583285304407
 20
89.42064135161459
 10
227.8027749513408
 20
89.38474382911477
 10
227.7436037387405
 20
89.35364951361469
 10
227.6808178640407
 20
89.32735320531472
 10
227.6144202984409
 20
89.30584970431448
 10
227.5444140134407
 20
89.28913381081438
 10
227.4708019803409
 20
89.27720032481458
 10
227.3935871705405
 20
89.27004404641474
 10
227.3127725553409
 20
89.26765977581458
 10
227.2094129766407
 20
89.2708994273148
 10
227.1117918413407
 20
89.28062036271468
 10
227.0199046923404
 20
89.29682555341448
 10
226.9337470726408
 20
89.31951797071436
 10
226.8533145250408
 20
89.3487005860145
 10
226.7786025927405
 20
89.38437637061442
 10
226.7096068184405
 20
89.42654829601446
 10
226.6463227453408
 20
89.47521933341462
 10
226.5887459161408
 20
89.53039245431465
 10
226.5370268801409
 20
89.59154061321484
 10
226.4913813084405
 20
89.6587912073147
 10
226.4518121726409
 20
89.73213606551446
 10
226.4183224439406
 20
89.8115670163146
 10
226.3909150938406
 20
89.89707588861476
 10
226.3695930935404
 20
89.98865451121444
 10
226.3543594145409
 20
90.08629471271484
 10
226.3452170281409
 20
90.18998832201431
 10
226.3421689057408
 20
90.29972716781481
 10
226.3452009332407
 20
90.41646864771429
 10
226.3542841400408
 20
90.52692123951471
 10
226.3693992121404
 20
90.63109385711456
 10
226.3905268358408
 20
90.7289954147145
 10
226.4176476971407
 20
90.82063482641453
 10
226.4507424822408
 20
90.90602100621451
 10
226.4897918773404
 20
90.98516286831445
 10
226.5347765684408
 20
91.05806932671491
 10
226.5856772418408
 20
91.12474929551455
 10
226.6423736810405
 20
91.18487567721459
 10
226.7042752041409
 20
91.2379339310147
 10
226.7713788396405
 20
91.28392257111469
 10
226.8436816162404
 20
91.32284011201461
 10
226.9211805626404
 20
91.35468506791491
 10
227.0038727073409
 20
91.37945595301472
 10
227.0917550790405
 20
91.39715128191486
 10
227.1848247064403
 20
91.40776956871437
 10
227.2830786180406
 20
91.41130932781454
 10
227.3731253796407
 20
91.40836247931487
 10
227.4588398949405
 20
91.39952787641485
 10
227.5402154785404
 20
91.38481443341463
 10
227.6172454449407
 20
91.36423106431474
 10
227.6899231084408
 20
91.33778668311437
 10
227.7582417834409
 20
91.30549020401486
 10
227.8221947845406
 20
91.26735054101484
 10
227.8817754261408
 20
91.22337660831432
 10
227.9369770225403
 20
91.17357731991445
 10
227.9870418764404
 20
91.11873290591427
 10
228.0312167475408
 20
91.05962013011444
 10
228.0695016359409
 20
90.99624270671453
 10
228.1018965413403
 20
90.92860434981469
 10
228.1284014640409
 20
90.85670877361453
 10
228.1490164039404
 20
90.78055969231426
 10
228.1637413609407
 20
90.7001608202149
 10
228.1725763351406
 20
90.61551587151475
 10
228.1755213265408
 20
90.5266285603146
 10
228.1754919843407
 20
90.50511676431474
 10
228.1754069291404
 20
90.48475562831452
 10
228.1752706179403
 20
90.46555926631427
 10
228.1750875077404
 20
90.44754179221486
 10
228.1748620555408
 20
90.43071732021488
 10
228.1745987186408
 20
90.41509996401435
 10
228.1743019538405
 20
90.40070383771434
 10
228.1739762182408
 20
90.38754305531453
 10
228.1736259689407
 20
90.37563173071447
 10
228.1731777884404
 20
90.36408155041431
 10
228.1726746377409
 20
90.35271336601459
 10
228.1721150312403
 20
90.3415219777144
 10
228.1714974830403
 20
90.33050218561468
 10
228.1708205077404
 20
90.31964878981442
 10
228.1700826194408
 20
90.30895659031445
 10
228.1692823325409
 20
90.2984203874146
 10
228.1684181613407
 20
90.28803498111441
 10
228.1674886201406
 20
90.27779517161427
 10
228.1177987769405
 20
90.27779517161427
 10
227.9846299969406
 20
90.27779517161427
 10
227.7918334051407
 20
90.27779517161427
 10
227.563260126141
 20
90.27779517161427
 10
227.3227612847404
 20
90.27779517161427
 10
227.0941880057407
 20
90.27779517161427
 10
226.9013914138407
 20
90.27779517161427
 10
226.7682226339409
 20
90.27779517161427
 10
226.7185327906407
 20
90.27779517161427
 10
226.7185327906407
 20
90.27642710691456
 10
226.7185327906407
 20
90.27276069351438
 10
226.7185327906407
 20
90.26745260251484
 10
226.7185327906407
 20
90.26115950481489
 10
226.7185327906407
 20
90.25453807171457
 10
226.7185327906407
 20
90.24824497401461
 10
226.7185327906407
 20
90.24293688301444
 10
226.7185327906407
 20
90.23927046961491
 10
226.7185327906407
 20
90.23790240491456
 10
226.7185327906407
 20
90.23510437211463
 10
226.7185327906407
 20
90.22760564431472
 10
226.7185327906407
 20
90.21674927711485
 10
226.7185327906407
 20
90.2038783263147
 10
226.7185327906407
 20
90.19033584761441
 10
226.7185327906407
 20
90.1774648968149
 10
226.7185327906407
 20
90.16660852961441
 10
226.7185327906407
 20
90.15910980171438
 10
226.7185327906407
 20
90.15631176891446
 10
226.7203469311404
 20
90.0933968875147
 10
226.7257987618406
 20
90.03377576121449
 10
226.7349023967407
 20
89.97744616141487
 10
226.7476719497405
 20
89.92440585961446
 10
226.7641215349404
 20
89.8746526272143
 10
226.7842652663406
 20
89.82818423591449
 10
226.8081172577407
 20
89.78499845701469
 10
226.8356916231404
 20
89.74509306201474
 10
226.8670024766407
 20
89.70846582241456
 10
226.9016779027409
 20
89.67529625801487
 10
226.9394465168408
 20
89.64600952121449
 10
226.9802927193405
 20
89.62061081191434
 10
227.0242009107407
 20
89.59910533011429
 10
227.0711554912406
 20
89.5814982754144
 10
227.1211408612406
 20
89.56779484801471
 10
227.1741414210409
 20
89.55800024761467
 10
227.2301415711407
 20
89.55211967411468
 10
227.2891257116405
 20
89.55015832741446
 10
227.3380191060409
 20
89.5515687340144
 10
227.3845836952407
 20
89.55579896341463
 10
227.4288306219407
 20
89.5628475298143
 10
227.4707710286404
 20
89.57271294771476
 10
227.5104160580405
 20
89.58539373141462
 10
227.547776852641
 20
89.60088839501485
 10
227.5828645551407
 20
89.61919545311436
 10
227.6156903082406
 20
89.64031341981472
 10
227.6462652543406
 20
89.66424080951467
 10
227.6741413368407
 20
89.69079859771465
 10
227.6987585778405
 20
89.71932491331434
 10
227.7201407482409
 20
89.74981604231437
 10
227.7383116188408
 20
89.78226827031432
 10
227.7532949605403
 20
89.81667788321466
 10
227.7651145443408
 20
89.85304116681453
 10
227.7737941411404
 20
89.89135440681485
 10
227.7793575216405
 20
89.93161388911481
 10
227.7818284570404
 20
89.97381589951487
 10
227.7940296132408
 20
89.97381589951487
 10
227.8267287119406
 20
89.97381589951487
 10
227.8740691981404
 20
89.97381589951487
 10
227.9301945167405
 20
89.97381589951487
 10
227.9892481129406
 20
89.97381589951487
 10
228.0453734316409
 20
89.97381589951487
 10
228.0927139177406
 20
89.97381589951487
 10
228.1254130164403
 20
89.97381589951487
 10
228.1376141727408
 20
89.97381589951487
 10
228.1376141727408
 20
89.97381589951487
 10
228.1376141727408
 20
89.97381589951487
 10
228.1376141727408
 20
89.97381589951487
 10
228.1376141727408
 20
89.97381589951487
 10
228.1376141727408
 20
89.97381589951487
 10
228.1376141727408
 20
89.97381589951487
 10
228.1376141727408
 20
89.97381589951487
 10
228.1376141727408
 20
89.97381589951487
 10
228.1376141727408
 20
89.97381589951487
  0
LINE
  5
AD
330
70
100
AcDbEntity
  8
CK_LEVEL_1
  6
AI-Linetype-0
 62
     2
420
 16776960
370
    25
100
AcDbLine
 10
127.7054192359404
 20
167.8508382952145
 30
0.0
 11
127.7054192359404
 21
159.0233037913145
 31
0.0
  0
LINE
  5
AF
330
70
100
AcDbEntity
  8
CK_LEVEL_1
  6
AI-Linetype-1
 62
     2
420
 16776960
370
    25
100
AcDbLine
 10
127.2903934620406
 20
159.0208382952144
 30
0.0
 11
127.2903934620406
 21
167.8483727991146
 31
0.0
  0
LINE
  5
B1
330
70
100
AcDbEntity
  8
CK_LEVEL_1
  6
AI-Linetype-2
 62
     2
420
 16776960
370
    25
100
AcDbLine
 10
127.8054192359407
 20
158.9940433760146
 30
0.0
 11
127.8054192359407
 21
167.8751527551146
 31
0.0
  0
SPLINE
  5
B3
330
70
100
AcDbEntity
  8
CK_LEVEL_1
  6
AI-Linetype-3
 62
     2
420
 16776960
370
    25
100
AcDbSpline
210
0.0
220
0.0
230
1.0
 70
     8
 71
     3
 72
     8
 73
     4
 74
     0
 42
0.0000000001
 43
0.0000000001
 40
0.0
 40
0.0
 40
0.0
 40
0.0
 40
1.0
 40
1.0
 40
1.0
 40
1.0
 10
130.590613914553
 20
159.0640288419016
 30
0.0
 10
130.590855976959
 20
158.8310213299086
 30
0.0
 10
130.5939814489155
 20
158.5980257341535
 30
0.0
 10
130.5999896125482
 20
158.3650955703507
 30
0.0
  0
SPLINE
  5
B5
330
70
100
AcDbEntity
  8
CK_LEVEL_1
  6
AI-Linetype-4
 62
    18
420
        0
370
    25
100
AcDbSpline
210
0.0
220
0.0
230
1.0
 70
     8
 71
     3
 72
     8
 73
     4
 74
     0
 42
0.0000000001
 43
0.0000000001
 40
0.0
 40
0.0
 40
0.0
 40
0.0
 40
1.0
 40
1.0
 40
1.0
 40
1.0
 10
130.5906603192038
 20
159.0740253202188
 30
0.0
 10
130.590804921987
 20
158.8376856853699
 30
0.0
 10
130.5939149312517
 20
158.6013571671954
 30
0.0
 10
130.5999896126259
 20
158.3650955703235
 30
0.0
  0
LWPOLYLINE
  5
B7
330
70
100
AcDbEntity
  8
CK_LEVEL_1
  6
AI-Linetype-5
 62
     2
420
 16776960
370
    25
100
AcDbPolyline
 90
       15
 70
     0
 43
0.0
 10
131.592594892041
 20
157.6167597263147
 10
131.5941712959409
 20
157.3949534963145
 10
131.5961412198407
 20
157.1804366987145
 10
131.5981300476405
 20
156.9985816687144
 10
131.5998853976404
 20
156.8569467838146
 10
131.6012024109405
 20
156.7589108158145
 10
131.6020312749407
 20
156.7004429712145
 10
131.6022947350405
 20
156.6821237691147
 10
131.6019497695404
 20
156.7061095311144
 10
131.6010478131403
 20
156.7700842385145
 10
131.5996701439405
 20
156.8735814304146
 10
131.5978744513404
 20
157.0205144819146
 10
131.5958708796408
 20
157.2074311034145
 10
131.5939104529407
 20
157.4272376395146
 10
131.5925215468405
 20
157.6316076506144
  0
SPLINE
  5
B9
330
70
100
AcDbEntity
  8
CK_LEVEL_1
  6
AI-Linetype-6
 62
     2
420
 16776960
370
    25
100
AcDbSpline
210
0.0
220
0.0
230
1.0
 70
     8
 71
     3
 72
     8
 73
     4
 74
     0
 42
0.0000000001
 43
0.0000000001
 40
0.0
 40
0.0
 40
0.0
 40
0.0
 40
1.0
 40
1.0
 40
1.0
 40
1.0
 10
130.8141118864402
 20
156.9342559192426
 30
0.0
 10
130.7415759395298
 20
156.9373700291316
 30
0.0
 10
130.6707837737443
 20
156.9114829073951
 30
0.0
 10
130.61736768438
 20
156.8623109370096
 30
0.0
  0
SPLINE
  5
BB
330
70
100
AcDbEntity
  8
CK_LEVEL_1
  6
AI-Linetype-7
 62
     2
420
 16776960
370
    25
100
AcDbSpline
210
0.0
220
0.0
230
1.0
 70
     8
 71
     3
 72
     8
 73
     4
 74
     0
 42
0.0000000001
 43
0.0000000001
 40
0.0
 40
0.0
 40
0.0
 40
0.0
 40
1.0
 40
1.0
 40
1.0
 40
1.0
 10
130.5481355345469
 20
156.8358466108248
 30
0.0
 10
130.5737481128714
 20
156.8355162850591
 30
0.0
 10
130.5985109313638
 20
156.845026967427
 30
0.0
 10
130.6173174807155
 20
156.8624173953987
 30
0.0
  0
SPLINE
  5
BD
330
70
100
AcDbEntity
  8
CK_LEVEL_1
  6
AI-Linetype-8
 62
     2
420
 16776960
370
    25
100
AcDbSpline
210
0.0
220
0.0
230
1.0
 70
     8
 71
     3
 72
     8
 73
     4
 74
     0
 42
0.0000000001
 43
0.0000000001
 40
0.0
 40
0.0
 40
0.0
 40
0.0
 40
1.0
 40
1.0
 40
1.0
 40
1.0
 10
131.602109464202
 20
156.6831912339575
 30
0.0
 10
131.5788167603274
 20
156.8289100332233
 30
0.0
 10
131.4530084514531
 20
156.9360496453519
 30
0.0
 10
131.3054399124147
 20
156.9358379867295
 30
0.0
  0
LINE
  5
BF
330
70
100
AcDbEntity
  8
CK_LEVEL_1
  6
AI-Linetype-9
 62
     2
420
 16776960
370
    25
100
AcDbLine
 10
127.2903934620406
 20
159.0208382952144
 30
0.0
 11
127.7054192359404
 21
159.0208382952144
 31
0.0
  0
LINE
  5
C1
330
70
100
AcDbEntity
  8
CK_LEVEL_1
  6
AI-Linetype-10
 62
     2
420
 16776960
370
    25
100
AcDbLine
 10
127.7054192359404
 20
167.8508382952145
 30
0.0
 11
127.2903934620406
 21
167.8508382952145
 31
0.0
  0
SPLINE
  5
C3
330
70
100
AcDbEntity
  8
CK_LEVEL_1
  6
AI-Linetype-11
 62
     2
420
 16776960
370
    25
100
AcDbSpline
210
0.0
220
0.0
230
1.0
 70
     8
 71
     3
 72
     8
 73
     4
 74
     0
 42
0.0000000001
 43
0.0000000001
 40
0.0
 40
0.0
 40
0.0
 40
0.0
 40
1.0
 40
1.0
 40
1.0
 40
1.0
 10
127.7054192359404
 20
167.8508382952145
 30
0.0
 10
127.7405265686304
 20
167.8508382952145
 30
0.0
 10
127.7750153939723
 20
167.8600795481127
 30
0.0
 10
127.8054192359407
 20
167.8776332144577
 30
0.0
  0
SPLINE
  5
C5
330
70
100
AcDbEntity
  8
CK_LEVEL_1
  6
AI-Linetype-12
 62
     2
420
 16776960
370
    25
100
AcDbSpline
210
0.0
220
0.0
230
1.0
 70
     8
 71
     3
 72
     8
 73
     4
 74
     0
 42
0.0000000001
 43
0.0000000001
 40
0.0
 40
0.0
 40
0.0
 40
0.0
 40
1.0
 40
1.0
 40
1.0
 40
1.0
 10
127.8054192359407
 20
158.9940433759713
 30
0.0
 10
127.7750153939723
 20
159.0115970423163
 30
0.0
 10
127.7405265686304
 20
159.0208382952144
 30
0.0
 10
127.7054192359404
 20
159.0208382952144
 30
0.0
  0
SPLINE
  5
C7
330
70
100
AcDbEntity
  8
CK_LEVEL_1
  6
AI-Linetype-13
 62
     2
420
 16776960
370
    25
100
AcDbSpline
210
0.0
220
0.0
230
1.0
 70
     8
 71
     3
 72
     8
 73
     4
 74
     0
 42
0.0000000001
 43
0.0000000001
 40
0.0
 40
0.0
 40
0.0
 40
0.0
 40
1.0
 40
1.0
 40
1.0
 40
1.0
 10
127.0903934620406
 20
168.0508382952146
 30
0.0
 10
127.0903934620406
 20
167.9403813452484
 30
0.0
 10
127.1799365120745
 20
167.8508382952145
 30
0.0
 10
127.2903934620406
 20
167.8508382952145
 30
0.0
  0
SPLINE
  5
C9
330
70
100
AcDbEntity
  8
CK_LEVEL_1
  6
AI-Linetype-14
 62
     2
420
 16776960
370
    25
100
AcDbSpline
210
0.0
220
0.0
230
1.0
 70
     8
 71
     3
 72
     8
 73
     4
 74
     0
 42
0.0000000001
 43
0.0000000001
 40
0.0
 40
0.0
 40
0.0
 40
0.0
 40
1.0
 40
1.0
 40
1.0
 40
1.0
 10
127.2903934620406
 20
159.0208382952144
 30
0.0
 10
127.1799365120745
 20
159.0208382952144
 30
0.0
 10
127.0903934620406
 20
158.9312952451806
 30
0.0
 10
127.0903934620406
 20
158.8208382952145
 30
0.0
  0
LINE
  5
CB
330
70
100
AcDbEntity
  8
CK_LEVEL_1
  6
AI-Linetype-15
 62
     2
420
 16776960
370
    25
100
AcDbLine
 10
127.8054192359407
 20
158.9940433760146
 30
0.0
 11
129.3903934620404
 21
158.0789580799145
 31
0.0
  0
LINE
  5
CD
330
70
100
AcDbEntity
  8
CK_LEVEL_1
  6
AI-Linetype-16
 62
     2
420
 16776960
370
    25
100
AcDbLine
 10
129.3903934620404
 20
168.7927185106146
 30
0.0
 11
127.8054192359407
 21
167.8776332145145
 31
0.0
  0
LINE
  5
CF
330
70
100
AcDbEntity
  8
CK_LEVEL_1
  6
AI-Linetype-17
 62
     2
420
 16776960
370
    25
100
AcDbLine
 10
130.8143665395409
 20
156.9358382952144
 30
0.0
 11
131.3058343859409
 21
156.9358382952144
 31
0.0
  0
LINE
  5
D1
330
70
100
AcDbEntity
  8
CK_LEVEL_1
  6
AI-Linetype-18
 62
     2
420
 16776960
370
    25
100
AcDbLine
 10
131.2903934620408
 20
168.3358382952145
 30
0.0
 11
130.8903934620408
 21
168.3358382952145
 31
0.0
  0
SPLINE
  5
D3
330
70
100
AcDbEntity
  8
CK_LEVEL_1
  6
AI-Linetype-19
 62
     2
420
 16776960
370
    25
100
AcDbSpline
210
0.0
220
0.0
230
1.0
 70
     8
 71
     3
 72
     8
 73
     4
 74
     0
 42
0.0000000001
 43
0.0000000001
 40
0.0
 40
0.0
 40
0.0
 40
0.0
 40
1.0
 40
1.0
 40
1.0
 40
1.0
 10
130.5903934620404
 20
168.6358382952145
 30
0.0
 10
130.5903934620404
 20
168.4701528702652
 30
0.0
 10
130.7247080370911
 20
168.3358382952145
 30
0.0
 10
130.8903934620408
 20
168.3358382952145
 30
0.0
  0
SPLINE
  5
D5
330
70
100
AcDbEntity
  8
CK_LEVEL_1
  6
AI-Linetype-20
 62
     2
420
 16776960
370
    25
100
AcDbSpline
210
0.0
220
0.0
230
1.0
 70
     8
 71
     3
 72
     8
 73
     4
 74
     0
 42
0.0000000001
 43
0.0000000001
 40
0.0
 40
0.0
 40
0.0
 40
0.0
 40
1.0
 40
1.0
 40
1.0
 40
1.0
 10
131.2903934620408
 20
168.3358382952145
 30
0.0
 10
131.4560788869898
 20
168.3358382952145
 30
0.0
 10
131.5903934620405
 20
168.4701528702652
 30
0.0
 10
131.5903934620405
 20
168.6358382952145
 30
0.0
  0
SPLINE
  5
D7
330
70
100
AcDbEntity
  8
CK_LEVEL_1
  6
AI-Linetype-21
 62
     2
420
 16776960
370
    25
100
AcDbSpline
210
0.0
220
0.0
230
1.0
 70
     8
 71
     3
 72
     8
 73
     4
 74
     0
 42
0.0000000001
 43
0.0000000001
 40
0.0
 40
0.0
 40
0.0
 40
0.0
 40
1.0
 40
1.0
 40
1.0
 40
1.0
 10
129.3903934620404
 20
156.9358382952144
 30
0.0
 10
129.3903934620404
 20
156.8806098202314
 30
0.0
 10
129.4351649870573
 20
156.8358382952144
 30
0.0
 10
129.4903934620407
 20
156.8358382952144
 30
0.0
  0
SPLINE
  5
D9
330
70
100
AcDbEntity
  8
CK_LEVEL_1
  6
AI-Linetype-22
 62
     2
420
 16776960
370
    25
100
AcDbSpline
210
0.0
220
0.0
230
1.0
 70
     8
 71
     3
 72
     8
 73
     4
 74
     0
 42
0.0000000001
 43
0.0000000001
 40
0.0
 40
0.0
 40
0.0
 40
0.0
 40
1.0
 40
1.0
 40
1.0
 40
1.0
 10
129.4903934620407
 20
170.0358382952146
 30
0.0
 10
129.4351649870573
 20
170.0358382952146
 30
0.0
 10
129.3903934620404
 20
169.9910667701977
 30
0.0
 10
129.3903934620404
 20
169.9358382952146
 30
0.0
  0
SPLINE
  5
DB
330
70
100
AcDbEntity
  8
CK_LEVEL_1
  6
AI-Linetype-23
 62
     2
420
 16776960
370
    25
100
AcDbSpline
210
0.0
220
0.0
230
1.0
 70
     8
 71
     3
 72
     8
 73
     4
 74
     0
 42
0.0000000001
 43
0.0000000001
 40
0.0
 40
0.0
 40
0.0
 40
0.0
 40
1.0
 40
1.0
 40
1.0
 40
1.0
 10
130.5903934620404
 20
169.9358382952146
 30
0.0
 10
130.5903934620404
 20
169.9910667701977
 30
0.0
 10
130.5456219370235
 20
170.0358382952146
 30
0.0
 10
130.4903934620407
 20
170.0358382952146
 30
0.0
  0
LINE
  5
DD
330
70
100
AcDbEntity
  8
CK_LEVEL_1
  6
AI-Linetype-24
 62
     2
420
 16776960
370
    25
100
AcDbLine
 10
129.4903934620407
 20
156.8358382952144
 30
0.0
 11
130.5492408677403
 21
156.8358382952144
 31
0.0
  0
LINE
  5
DF
330
70
100
AcDbEntity
  8
CK_LEVEL_1
  6
AI-Linetype-25
 62
     2
420
 16776960
370
    25
100
AcDbLine
 10
130.4903934620407
 20
170.0358382952146
 30
0.0
 11
129.4903934620407
 21
170.0358382952146
 31
0.0
  0
SPLINE
  5
E1
330
70
100
AcDbEntity
  8
CK_LEVEL_1
  6
AI-Linetype-26
 62
     2
420
 16776960
370
    25
100
AcDbSpline
210
0.0
220
0.0
230
1.0
 70
     8
 71
     3
 72
     8
 73
     4
 74
     0
 42
0.0000000001
 43
0.0000000001
 40
0.0
 40
0.0
 40
0.0
 40
0.0
 40
1.0
 40
1.0
 40
1.0
 40
1.0
 10
131.6020982219987
 20
156.6832849651626
 30
0.0
 10
131.6773651099568
 20
156.1956790435024
 30
0.0
 10
132.097012636247
 20
155.8358382952144
 30
0.0
 10
132.5903934620405
 20
155.8358382952144
 30
0.0
  0
SPLINE
  5
E3
330
70
100
AcDbEntity
  8
CK_LEVEL_1
  6
AI-Linetype-27
 62
     2
420
 16776960
370
    25
100
AcDbSpline
210
0.0
220
0.0
230
1.0
 70
     8
 71
     3
 72
     8
 73
     4
 74
     0
 42
0.0000000001
 43
0.0000000001
 40
0.0
 40
0.0
 40
0.0
 40
0.0
 40
1.0
 40
1.0
 40
1.0
 40
1.0
 10
132.5903934620405
 20
171.0358382952146
 30
0.0
 10
132.0381087122096
 20
171.0358382952146
 30
0.0
 10
131.5903934620405
 20
170.5881230450452
 30
0.0
 10
131.5903934620405
 20
170.0358382952146
 30
0.0
  0
LINE
  5
E5
330
70
100
AcDbEntity
  8
CK_LEVEL_1
  6
AI-Linetype-28
 62
     2
420
 16776960
370
    25
100
AcDbLine
 10
132.5903934620405
 20
155.8358382952144
 30
0.0
 11
133.5903934620406
 21
155.8358382952144
 31
0.0
  0
LINE
  5
E7
330
70
100
AcDbEntity
  8
CK_LEVEL_1
  6
AI-Linetype-29
 62
     2
420
 16776960
370
    25
100
AcDbLine
 10
133.5903934620406
 20
171.0358382952146
 30
0.0
 11
132.5903934620405
 21
171.0358382952146
 31
0.0
  0
LINE
  5
E9
330
70
100
AcDbEntity
  8
CK_LEVEL_1
  6
AI-Linetype-30
 62
     2
420
 16776960
370
    25
100
AcDbLine
 10
134.5653934620405
 20
170.0608382952147
 30
0.0
 11
133.5903934620406
 21
171.0358382952146
 31
0.0
  0
LINE
  5
EB
330
70
100
AcDbEntity
  8
CK_LEVEL_1
  6
AI-Linetype-31
 62
     2
420
 16776960
370
    25
100
AcDbLine
 10
133.5903934620406
 20
155.8358382952144
 30
0.0
 11
134.5653934620405
 21
156.8108382952147
 31
0.0
  0
LINE
  5
ED
330
70
100
AcDbEntity
  8
CK_LEVEL_1
 62
     8
420
  8421504
370
    25
100
AcDbLine
 10
133.1192609755408
 20
159.7769450199144
 30
0.0
 11
133.1192609755408
 21
167.0947315705146
 31
0.0
  0
LWPOLYLINE
  5
EE
330
70
100
AcDbEntity
  8
CK_LEVEL_1
  6
AI-Linetype-32
 62
     2
420
 16776960
370
    25
100
AcDbPolyline
 90
       18
 70
     0
 43
0.0
 10
130.5999896126406
 20
158.3650955703145
 10
130.6079280030407
 20
157.9992790626148
 10
130.6122514685405
 20
157.7159755415146
 10
130.6147437801405
 20
157.4705669143146
 10
130.6159482222406
 20
157.2595287204145
 10
130.6162402763405
 20
157.0919701216144
 10
130.6160628555405
 20
156.9721239019147
 10
130.6157562550404
 20
156.8953361905147
 10
130.6155830674405
 20
156.8619899017145
 10
130.6156500362405
 20
156.8750456102146
 10
130.6159254384409
 20
156.9322560171144
 10
130.6161938490409
 20
157.0327994856147
 10
130.6161621161404
 20
157.1809235203145
 10
130.6154104606404
 20
157.3731024003144
 10
130.6138438283409
 20
157.5730691117144
 10
130.6110760116408
 20
157.8036222611146
 10
130.6066165297407
 20
158.0697883185145
 10
130.5999896126406
 20
158.3650955703145
  0
LINE
  5
F0
330
70
100
AcDbEntity
  8
CK_LEVEL_1
  6
AI-Linetype-33
 62
    18
420
        0
370
    25
100
AcDbLine
 10
130.5906139146409
 20
159.0640288418146
 30
0.0
 11
130.5903934620404
 21
159.1295882952147
 31
0.0
  0
LINE
  5
F2
330
70
100
AcDbEntity
  8
CK_LEVEL_1
  6
AI-Linetype-34
 62
     2
420
 16776960
370
    25
100
AcDbLine
 10
129.3903934620404
 20
169.9358382952146
 30
0.0
 11
129.3903934620404
 21
156.9358382952144
 31
0.0
  0
LINE
  5
F4
330
70
100
AcDbEntity
  8
CK_LEVEL_1
  6
AI-Linetype-35
 62
     2
420
 16776960
370
    25
100
AcDbLine
 10
130.5903934620404
 20
159.1295882952147
 30
0.0
 11
130.5903934620404
 21
169.9358382952146
 31
0.0
  0
LINE
  5
F6
330
70
100
AcDbEntity
  8
CK_LEVEL_1
  6
AI-Linetype-36
 62
     2
420
 16776960
370
    25
100
AcDbLine
 10
131.5903934620405
 20
170.0358382952146
 30
0.0
 11
131.5903934620405
 21
158.3108382952147
 31
0.0
  0
SPLINE
  5
F8
330
70
100
AcDbEntity
  8
CK_LEVEL_1
  6
AI-Linetype-37
 62
     2
420
 16776960
370
    25
100
AcDbSpline
210
0.0
220
0.0
230
1.0
 70
     8
 71
     3
 72
     8
 73
     4
 74
     0
 42
0.0000000001
 43
0.0000000001
 40
0.0
 40
0.0
 40
0.0
 40
0.0
 40
1.0
 40
1.0
 40
1.0
 40
1.0
 10
131.5903934620668
 20
158.3108382952924
 30
0.0
 10
131.590303047799
 20
158.0844262809334
 30
0.0
 10
131.5910124138173
 20
157.8580146534826
 30
0.0
 10
131.5925215468437
 20
157.6316076506349
 30
0.0
  0
LWPOLYLINE
  5
FA
330
70
100
AcDbEntity
  8
CK_LEVEL_1
  6
AI-Linetype-38
 62
    18
420
        0
370
    25
100
AcDbPolyline
 90
        3
 70
     0
 43
0.0
 10
131.5923192462407
 20
157.6613750868145
 10
131.5923945103407
 20
157.6449542302146
 10
131.592594892041
 20
157.6167597263147
  0
LINE
  5
FC
330
70
100
AcDbEntity
  8
CK_LEVEL_1
  6
AI-Linetype-39
 62
     2
420
 16776960
370
    25
100
AcDbLine
 10
132.5903934620405
 20
171.0352185585144
 30
0.0
 11
132.5903934620405
 21
155.8364580319146
 31
0.0
  0
LINE
  5
FE
330
70
100
AcDbEntity
  8
CK_LEVEL_1
  6
AI-Linetype-40
 62
     2
420
 16776960
370
    25
100
AcDbLine
 10
133.5903934620406
 20
171.0358382952146
 30
0.0
 11
133.5903934620406
 21
155.8358382952144
 31
0.0
  0
LINE
  5
100
330
70
100
AcDbEntity
  8
CK_LEVEL_1
 62
     8
420
  8421504
370
    25
100
AcDbLine
 10
138.0903934620404
 20
154.1358382952147
 30
0.0
 11
138.0903934620404
 21
172.7358382952147
 31
0.0
  0
LINE
  5
101
330
70
100
AcDbEntity
  8
CK_LEVEL_1
 62
     8
420
  8421504
370
    25
100
AcDbLine
 10
133.1192609755408
 20
157.8607677305147
 30
0.0
 11
133.1192609755408
 21
154.2018744552147
 31
0.0
  0
LINE
  5
102
330
70
100
AcDbEntity
  8
CK_LEVEL_1
 62
     8
420
  8421504
370
    25
100
AcDbLine
 10
133.0326584351405
 20
154.1878261366147
 30
0.0
 11
133.0326584351405
 21
157.9614185895146
 31
0.0
  0
LINE
  5
103
330
70
100
AcDbEntity
  8
CK_LEVEL_1
 62
     8
420
  8421504
370
    25
100
AcDbLine
 10
134.3326584351409
 20
168.9102580010145
 30
0.0
 11
134.3326584351409
 21
172.6838504538146
 31
0.0
  0
LINE
  5
104
330
70
100
AcDbEntity
  8
CK_LEVEL_1
 62
     8
420
  8421504
370
    25
100
AcDbLine
 10
134.4192609755405
 20
172.6698021352146
 30
0.0
 11
134.4192609755405
 21
169.0109088599147
 31
0.0
  0
SPLINE
  5
105
330
70
100
AcDbEntity
  8
CK_LEVEL_1
 62
    18
420
        0
370
    25
100
AcDbSpline
210
0.0
220
0.0
230
1.0
 70
     8
 71
     3
 72
     8
 73
     4
 74
     0
 42
0.0000000001
 43
0.0000000001
 40
0.0
 40
0.0
 40
0.0
 40
0.0
 40
1.0
 40
1.0
 40
1.0
 40
1.0
 10
127.8409488119511
 20
172.6838504538371
 30
0.0
 10
127.2356958270035
 20
171.4987944784601
 30
0.0
 10
127.2356958270035
 20
170.0953139763691
 30
0.0
 10
127.8409488119511
 20
168.910258000992
 30
0.0
  0
SPLINE
  5
106
330
70
100
AcDbEntity
  8
CK_LEVEL_1
 62
    18
420
        0
370
    25
100
AcDbSpline
210
0.0
220
0.0
230
1.0
 70
     8
 71
     3
 72
     8
 73
     4
 74
     0
 42
0.0000000001
 43
0.0000000001
 40
0.0
 40
0.0
 40
0.0
 40
0.0
 40
1.0
 40
1.0
 40
1.0
 40
1.0
 10
127.8409488120121
 20
157.9614185894142
 30
0.0
 10
127.2411808297836
 20
156.7750489699534
 30
0.0
 10
127.2411808297836
 20
155.3741957560758
 30
0.0
 10
127.8409488120121
 20
154.1878261366147
 30
0.0
  0
LINE
  5
107
330
70
100
AcDbEntity
  8
CK_LEVEL_1
 62
    18
420
        0
370
    25
100
AcDbLine
 10
127.0903934620406
 20
171.4358382952146
 30
0.0
 11
127.0903934620406
 21
155.4358382952147
 31
0.0
  0
SPLINE
  5
108
330
70
100
AcDbEntity
  8
CK_LEVEL_1
 62
    18
420
        0
370
    25
100
AcDbSpline
210
0.0
220
0.0
230
1.0
 70
     8
 71
     3
 72
     8
 73
     4
 74
     0
 42
0.0000000001
 43
0.0000000001
 40
0.0
 40
0.0
 40
0.0
 40
0.0
 40
1.0
 40
1.0
 40
1.0
 40
1.0
 10
127.8409488119556
 20
167.2094307480437
 30
0.0
 10
127.2356903950025
 20
164.7301071873828
 30
0.0
 10
127.2356903950025
 20
162.1415694030462
 30
0.0
 10
127.8409488119556
 20
159.6622458423857
 30
0.0
  0
LINE
  5
109
330
70
100
AcDbEntity
  8
CK_LEVEL_1
 62
     8
420
  8421504
370
    25
100
AcDbLine
 10
133.0326584351405
 20
159.6622458424145
 30
0.0
 11
133.0326584351405
 21
167.2094307480145
 31
0.0
  0
LWPOLYLINE
  5
10A
330
70
100
AcDbEntity
  8
CK_LEVEL_1
 62
    18
420
        0
370
    25
100
AcDbPolyline
 90
       19
 70
     0
 43
0.0
 10
134.4192609755405
 20
169.0109088599147
 10
134.5091579923408
 20
169.3396063642145
 10
134.5889107769404
 20
169.6563885655146
 10
134.6583583681407
 20
169.9606161170146
 10
134.7173606028408
 20
170.2516750102145
 10
134.7657983996406
 20
170.5289778143144
 10
134.8035739988405
 20
170.7919648619146
 10
134.8306111595404
 20
171.0401053784145
 10
134.8468553140409
 20
171.2728985531145
 10
134.8522736773409
 20
171.4898745504144
 10
134.8468553140409
 20
171.6905954576146
 10
134.8306111595404
 20
171.8746561689146
 10
134.8035739988405
 20
172.0416852032146
 10
134.7657983996406
 20
172.1913454533146
 10
134.7173606028408
 20
172.3233348670145
 10
134.6583583681407
 20
172.4373870560146
 10
134.5889107769404
 20
172.5332718341147
 10
134.5091579923408
 20
172.6107956814146
 10
134.4192609755405
 20
172.6698021352146
  0
LWPOLYLINE
  5
10B
330
70
100
AcDbEntity
  8
CK_LEVEL_1
 62
    18
420
        0
370
    25
100
AcDbPolyline
 90
        6
 70
     0
 43
0.0
 10
134.4192609755405
 20
169.0109088599147
 10
134.3902491144405
 20
168.9467494028147
 10
134.3755385641407
 20
168.9295413597144
 10
134.3558423899405
 20
168.9156891322147
 10
134.3415120366408
 20
168.9110404334147
 10
134.3326584351409
 20
168.9102580010145
  0
LINE
  5
10C
330
70
100
AcDbEntity
  8
CK_LEVEL_1
 62
    18
420
        0
370
    25
100
AcDbLine
 10
127.8409488119409
 20
168.9102580010145
 30
0.0
 11
134.3326584351409
 21
168.9102580010145
 31
0.0
  0
LINE
  5
10D
330
70
100
AcDbEntity
  8
CK_LEVEL_1
 62
    18
420
        0
370
    25
100
AcDbLine
 10
127.8409488119409
 20
168.9102580010145
 30
0.0
 11
127.8409488119409
 21
167.2094307480145
 31
0.0
  0
LINE
  5
10E
330
70
100
AcDbEntity
  8
CK_LEVEL_1
 62
    18
420
        0
370
    25
100
AcDbLine
 10
133.0326584351405
 20
167.2094307480145
 30
0.0
 11
127.8409488119409
 21
167.2094307480145
 31
0.0
  0
SPLINE
  5
10F
330
70
100
AcDbEntity
  8
CK_LEVEL_1
 62
    18
420
        0
370
    25
100
AcDbSpline
210
0.0
220
0.0
230
1.0
 70
     8
 71
     3
 72
     8
 73
     4
 74
     0
 42
0.0000000001
 43
0.0000000001
 40
0.0
 40
0.0
 40
0.0
 40
0.0
 40
1.0
 40
1.0
 40
1.0
 40
1.0
 10
133.1192609755684
 20
167.0947315705297
 30
0.0
 10
133.1168788906715
 20
167.147190730079
 30
0.0
 10
133.0824604751003
 20
167.1927755817511
 30
0.0
 10
133.0326584351527
 20
167.2094307481005
 30
0.0
  0
SPLINE
  5
110
330
70
100
AcDbEntity
  8
CK_LEVEL_1
 62
    18
420
        0
370
    25
100
AcDbSpline
210
0.0
220
0.0
230
1.0
 70
     8
 71
     3
 72
     8
 73
     4
 74
     0
 42
0.0000000001
 43
0.0000000001
 40
0.0
 40
0.0
 40
0.0
 40
0.0
 40
1.0
 40
1.0
 40
1.0
 40
1.0
 10
133.1192609755401
 20
159.7769450199109
 30
0.0
 10
133.6999428784739
 20
162.1816484468407
 30
0.0
 10
133.6999428784739
 20
164.6900281435883
 30
0.0
 10
133.1192609755401
 20
167.0947315705184
 30
0.0
  0
LWPOLYLINE
  5
111
330
70
100
AcDbEntity
  8
CK_LEVEL_1
 62
    18
420
        0
370
    25
100
AcDbPolyline
 90
        6
 70
     0
 43
0.0
 10
133.1192609755408
 20
159.7769450199144
 10
133.0902491144408
 20
159.7036213794145
 10
133.0755385641403
 20
159.6840807471145
 10
133.0558423899408
 20
159.6683889663145
 10
133.0415120366405
 20
159.6631305269145
 10
133.0326584351405
 20
159.6622458424145
  0
LINE
  5
112
330
70
100
AcDbEntity
  8
CK_LEVEL_1
 62
    18
420
        0
370
    25
100
AcDbLine
 10
127.8409488119409
 20
159.6622458424145
 30
0.0
 11
133.0326584351405
 21
159.6622458424145
 31
0.0
  0
LINE
  5
113
330
70
100
AcDbEntity
  8
CK_LEVEL_1
 62
    18
420
        0
370
    25
100
AcDbLine
 10
127.8409488119409
 20
159.6622458424145
 30
0.0
 11
127.8409488119409
 21
157.9614185895146
 31
0.0
  0
LINE
  5
114
330
70
100
AcDbEntity
  8
CK_LEVEL_1
 62
    18
420
        0
370
    25
100
AcDbLine
 10
133.0326584351405
 20
157.9614185895146
 30
0.0
 11
127.8409488119409
 21
157.9614185895146
 31
0.0
  0
SPLINE
  5
115
330
70
100
AcDbEntity
  8
CK_LEVEL_1
 62
    18
420
        0
370
    25
100
AcDbSpline
210
0.0
220
0.0
230
1.0
 70
     8
 71
     3
 72
     8
 73
     4
 74
     0
 42
0.0000000001
 43
0.0000000001
 40
0.0
 40
0.0
 40
0.0
 40
0.0
 40
1.0
 40
1.0
 40
1.0
 40
1.0
 10
133.1192609755176
 20
157.8607677305545
 30
0.0
 10
133.1142512582453
 20
157.9091139164099
 30
0.0
 10
133.0797159570183
 20
157.9492513964109
 30
0.0
 10
133.0326584351328
 20
157.9614185895095
 30
0.0
  0
LWPOLYLINE
  5
116
330
70
100
AcDbEntity
  8
CK_LEVEL_1
 62
    18
420
        0
370
    25
100
AcDbPolyline
 90
       19
 70
     0
 43
0.0
 10
133.1192609755408
 20
154.2018744552147
 10
133.2091579923404
 20
154.2608809090147
 10
133.2889107769406
 20
154.3384047564144
 10
133.3583583681404
 20
154.4342895345145
 10
133.4173606028404
 20
154.5483417235146
 10
133.4657983996409
 20
154.6803311371145
 10
133.5035739988408
 20
154.8299913872147
 10
133.5306111595406
 20
154.9970204215147
 10
133.5468553140406
 20
155.1810811328144
 10
133.5522736773405
 20
155.3818020400146
 10
133.5468553140406
 20
155.5987780373145
 10
133.5306111595406
 20
155.8315712121146
 10
133.5035739988408
 20
156.0797117285144
 10
133.4657983996409
 20
156.3426987761146
 10
133.4173606028404
 20
156.6200015803146
 10
133.3583583681404
 20
156.9110604734144
 10
133.2889107769406
 20
157.2152880249144
 10
133.2091579923404
 20
157.5320702262145
 10
133.1192609755408
 20
157.8607677305147
  0
SPLINE
  5
117
330
70
100
AcDbEntity
  8
CK_LEVEL_1
 62
    18
420
        0
370
    25
100
AcDbSpline
210
0.0
220
0.0
230
1.0
 70
     8
 71
     3
 72
     8
 73
     4
 74
     0
 42
0.0000000001
 43
0.0000000001
 40
0.0
 40
0.0
 40
0.0
 40
0.0
 40
1.0
 40
1.0
 40
1.0
 40
1.0
 10
133.0326584351084
 20
154.1878261366587
 30
0.0
 10
133.0621465935908
 20
154.1871089466125
 30
0.0
 10
133.0915116456393
 20
154.1918724281956
 30
0.0
 10
133.1192609754933
 20
154.2018744552343
 30
0.0
  0
LINE
  5
118
330
70
100
AcDbEntity
  8
CK_LEVEL_1
 62
    18
420
        0
370
    25
100
AcDbLine
 10
127.8409488119409
 20
154.1878261366147
 30
0.0
 11
133.0326584351405
 21
154.1878261366147
 31
0.0
  0
LINE
  5
119
330
70
100
AcDbEntity
  8
CK_LEVEL_1
 62
    18
420
        0
370
    25
100
AcDbLine
 10
127.8409488119409
 20
154.1878261366147
 30
0.0
 11
127.8409488119409
 21
154.1358382952147
 31
0.0
  0
LINE
  5
11A
330
70
100
AcDbEntity
  8
CK_LEVEL_1
 62
    18
420
        0
370
    25
100
AcDbLine
 10
127.8409488119409
 20
172.7358382952147
 30
0.0
 11
127.8409488119409
 21
172.6838504538146
 31
0.0
  0
LINE
  5
11B
330
70
100
AcDbEntity
  8
CK_LEVEL_1
 62
    18
420
        0
370
    25
100
AcDbLine
 10
134.3326584351409
 20
172.6838504538146
 30
0.0
 11
127.8409488119409
 21
172.6838504538146
 31
0.0
  0
SPLINE
  5
11C
330
70
100
AcDbEntity
  8
CK_LEVEL_1
 62
    18
420
        0
370
    25
100
AcDbSpline
210
0.0
220
0.0
230
1.0
 70
     8
 71
     3
 72
     8
 73
     4
 74
     0
 42
0.0000000001
 43
0.0000000001
 40
0.0
 40
0.0
 40
0.0
 40
0.0
 40
1.0
 40
1.0
 40
1.0
 40
1.0
 10
134.4192609754943
 20
172.6698021352287
 30
0.0
 10
134.3917037239892
 20
172.680527115721
 30
0.0
 10
134.3621929003316
 20
172.6853142437927
 30
0.0
 10
134.3326584351094
 20
172.6838504538034
 30
0.0
  0
LINE
  5
11D
330
70
100
AcDbEntity
  8
CK_LEVEL_1
 62
    18
420
        0
370
    25
100
AcDbLine
 10
138.5903934620407
 20
172.2358382952146
 30
0.0
 11
138.5903934620407
 21
154.6358382952147
 31
0.0
  0
LINE
  5
11E
330
70
100
AcDbEntity
  8
CK_LEVEL_1
 62
    18
420
        0
370
    25
100
AcDbLine
 10
127.0903934620406
 20
155.4358382952147
 30
0.0
 11
127.8409488119409
 21
154.1358382952147
 31
0.0
  0
LINE
  5
11F
330
70
100
AcDbEntity
  8
CK_LEVEL_1
 62
    18
420
        0
370
    25
100
AcDbLine
 10
127.8409488119409
 20
172.7358382952147
 30
0.0
 11
127.0903934620406
 21
171.4358382952146
 31
0.0
  0
LINE
  5
120
330
70
100
AcDbEntity
  8
CK_LEVEL_1
 62
    18
420
        0
370
    25
100
AcDbLine
 10
127.8409488119409
 20
154.1358382952147
 30
0.0
 11
138.0903934620404
 21
154.1358382952147
 31
0.0
  0
LINE
  5
121
330
70
100
AcDbEntity
  8
CK_LEVEL_1
 62
    18
420
        0
370
    25
100
AcDbLine
 10
138.0903934620404
 20
172.7358382952147
 30
0.0
 11
127.8409488119409
 21
172.7358382952147
 31
0.0
  0
SPLINE
  5
122
330
70
100
AcDbEntity
  8
CK_LEVEL_1
 62
    18
420
        0
370
    25
100
AcDbSpline
210
0.0
220
0.0
230
1.0
 70
     8
 71
     3
 72
     8
 73
     4
 74
     0
 42
0.0000000001
 43
0.0000000001
 40
0.0
 40
0.0
 40
0.0
 40
0.0
 40
1.0
 40
1.0
 40
1.0
 40
1.0
 10
138.0903934620404
 20
154.1358382952147
 30
0.0
 10
138.3665358369562
 20
154.1358382952147
 30
0.0
 10
138.5903934620407
 20
154.3596959202992
 30
0.0
 10
138.5903934620407
 20
154.6358382952147
 30
0.0
  0
SPLINE
  5
123
330
70
100
AcDbEntity
  8
CK_LEVEL_1
 62
    18
420
        0
370
    25
100
AcDbSpline
210
0.0
220
0.0
230
1.0
 70
     8
 71
     3
 72
     8
 73
     4
 74
     0
 42
0.0000000001
 43
0.0000000001
 40
0.0
 40
0.0
 40
0.0
 40
0.0
 40
1.0
 40
1.0
 40
1.0
 40
1.0
 10
138.5903934620407
 20
172.2358382952146
 30
0.0
 10
138.5903934620407
 20
172.5119806701301
 30
0.0
 10
138.3665358369562
 20
172.7358382952147
 30
0.0
 10
138.0903934620404
 20
172.7358382952147
 30
0.0
  0
SPLINE
  5
124
330
70
100
AcDbEntity
  8
CK_LEVEL_1
 62
    18
420
        0
370
    25
100
AcDbSpline
210
0.0
220
0.0
230
1.0
 70
     8
 71
     3
 72
     8
 73
     4
 74
     0
 42
0.0000000001
 43
0.0000000001
 40
0.0
 40
0.0
 40
0.0
 40
0.0
 40
1.0
 40
1.0
 40
1.0
 40
1.0
 10
72.98345361638792
 20
172.6698021352197
 30
0.0
 10
70.45974954926804
 20
172.3674414510958
 30
0.0
 10
68.16976863121245
 20
171.0453203516175
 30
0.0
 10
66.64606456409548
 20
169.0109088599195
 30
0.0
  0
SPLINE
  5
125
330
70
100
AcDbEntity
  8
CK_LEVEL_1
 62
    18
420
        0
370
    25
100
AcDbSpline
210
0.0
220
0.0
230
1.0
 70
     8
 71
     3
 72
     8
 73
     4
 74
     0
 42
0.0000000001
 43
0.0000000001
 40
0.0
 40
0.0
 40
0.0
 40
0.0
 40
1.0
 40
1.0
 40
1.0
 40
1.0
 10
81.5334536163855
 20
169.0109088599195
 30
0.0
 10
80.00974954926887
 20
171.0453203516175
 30
0.0
 10
77.71976863121325
 20
172.3674414510958
 30
0.0
 10
75.19606456409339
 20
172.6698021352197
 30
0.0
  0
SPLINE
  5
126
330
70
100
AcDbEntity
  8
CK_LEVEL_1
 62
    18
420
        0
370
    25
100
AcDbSpline
210
0.0
220
0.0
230
1.0
 70
     8
 71
     3
 72
     8
 73
     4
 74
     0
 42
0.0000000001
 43
0.0000000001
 40
0.0
 40
0.0
 40
0.0
 40
0.0
 40
1.0
 40
1.0
 40
1.0
 40
1.0
 10
66.64606456409035
 20
169.0109088599795
 30
0.0
 10
66.62106167948336
 20
168.9775256349379
 30
0.0
 10
66.59628365166139
 20
168.9439745894713
 30
0.0
 10
66.57173216256317
 20
168.9102580010328
 30
0.0
  0
SPLINE
  5
127
330
70
100
AcDbEntity
  8
CK_LEVEL_1
 62
    18
420
        0
370
    25
100
AcDbSpline
210
0.0
220
0.0
230
1.0
 70
     8
 71
     3
 72
     8
 73
     4
 74
     0
 42
0.0000000001
 43
0.0000000001
 40
0.0
 40
0.0
 40
0.0
 40
0.0
 40
1.0
 40
1.0
 40
1.0
 40
1.0
 10
73.1077860179268
 20
172.6838504537427
 30
0.0
 10
73.06631085126245
 20
172.679446534701
 30
0.0
 10
73.02486577965483
 20
172.6747636558851
 30
0.0
 10
72.98345361640588
 20
172.6698021351694
 30
0.0
  0
LINE
  5
128
330
70
100
AcDbEntity
  8
CK_LEVEL_1
 62
     8
420
  8421504
370
    25
100
AcDbLine
 10
66.64606456414073
 20
169.0109088599147
 30
0.0
 11
72.98345361634075
 21
172.6698021352146
 31
0.0
  0
SPLINE
  5
129
330
70
100
AcDbEntity
  8
CK_LEVEL_1
 62
    18
420
        0
370
    25
100
AcDbSpline
210
0.0
220
0.0
230
1.0
 70
     8
 71
     3
 72
     8
 73
     4
 74
     0
 42
0.0000000001
 43
0.0000000001
 40
0.0
 40
0.0
 40
0.0
 40
0.0
 40
1.0
 40
1.0
 40
1.0
 40
1.0
 10
81.60778601787608
 20
168.9102580009551
 30
0.0
 10
81.58323452877532
 20
168.9439745893956
 30
0.0
 10
81.55845650095109
 20
168.9775256348651
 30
0.0
 10
81.53345361634249
 20
169.0109088599099
 30
0.0
  0
SPLINE
  5
12A
330
70
100
AcDbEntity
  8
CK_LEVEL_1
 62
    18
420
        0
370
    25
100
AcDbSpline
210
0.0
220
0.0
230
1.0
 70
     8
 71
     3
 72
     8
 73
     4
 74
     0
 42
0.0000000001
 43
0.0000000001
 40
0.0
 40
0.0
 40
0.0
 40
0.0
 40
1.0
 40
1.0
 40
1.0
 40
1.0
 10
75.19606456407927
 20
172.6698021352213
 30
0.0
 10
75.15465240082615
 20
172.6747636559387
 30
0.0
 10
75.11320732921467
 20
172.6794465347552
 30
0.0
 10
75.07173216254584
 20
172.683850453796
 30
0.0
  0
LINE
  5
12B
330
70
100
AcDbEntity
  8
CK_LEVEL_1
 62
     8
420
  8421504
370
    25
100
AcDbLine
 10
75.19606456414054
 20
172.6698021352146
 30
0.0
 11
81.53345361634057
 21
169.0109088599147
 31
0.0
  0
SPLINE
  5
12C
330
70
100
AcDbEntity
  8
CK_LEVEL_1
 62
    18
420
        0
370
    25
100
AcDbSpline
210
0.0
220
0.0
230
1.0
 70
     8
 71
     3
 72
     8
 73
     4
 74
     0
 42
0.0000000001
 43
0.0000000001
 40
0.0
 40
0.0
 40
0.0
 40
0.0
 40
1.0
 40
1.0
 40
1.0
 40
1.0
 10
82.63975909023839
 20
159.7769450199144
 30
0.0
 10
83.63975909024132
 20
162.1137171957359
 30
0.0
 10
83.63975909024132
 20
164.7579593946931
 30
0.0
 10
82.63975909023839
 20
167.0947315705149
 30
0.0
  0
SPLINE
  5
12D
330
70
100
AcDbEntity
  8
CK_LEVEL_1
 62
    18
420
        0
370
    25
100
AcDbSpline
210
0.0
220
0.0
230
1.0
 70
     8
 71
     3
 72
     8
 73
     4
 74
     0
 42
0.0000000001
 43
0.0000000001
 40
0.0
 40
0.0
 40
0.0
 40
0.0
 40
1.0
 40
1.0
 40
1.0
 40
1.0
 10
75.19606456409339
 20
154.2018744552093
 30
0.0
 10
77.71976863121325
 20
154.5042351393331
 30
0.0
 10
80.00974954926887
 20
155.8263562388119
 30
0.0
 10
81.5334536163855
 20
157.8607677305095
 30
0.0
  0
SPLINE
  5
12E
330
70
100
AcDbEntity
  8
CK_LEVEL_1
 62
    18
420
        0
370
    25
100
AcDbSpline
210
0.0
220
0.0
230
1.0
 70
     8
 71
     3
 72
     8
 73
     4
 74
     0
 42
0.0000000001
 43
0.0000000001
 40
0.0
 40
0.0
 40
0.0
 40
0.0
 40
1.0
 40
1.0
 40
1.0
 40
1.0
 10
65.53975909024291
 20
167.0947315705149
 30
0.0
 10
64.53975909023999
 20
164.7579593946931
 30
0.0
 10
64.53975909023999
 20
162.1137171957359
 30
0.0
 10
65.53975909024291
 20
159.7769450199144
 30
0.0
  0
SPLINE
  5
12F
330
70
100
AcDbEntity
  8
CK_LEVEL_1
 62
    18
420
        0
370
    25
100
AcDbSpline
210
0.0
220
0.0
230
1.0
 70
     8
 71
     3
 72
     8
 73
     4
 74
     0
 42
0.0000000001
 43
0.0000000001
 40
0.0
 40
0.0
 40
0.0
 40
0.0
 40
1.0
 40
1.0
 40
1.0
 40
1.0
 10
66.64606456409548
 20
157.8607677305095
 30
0.0
 10
68.16976863121245
 20
155.8263562388119
 30
0.0
 10
70.45974954926804
 20
154.5042351393331
 30
0.0
 10
72.98345361638792
 20
154.2018744552093
 30
0.0
  0
SPLINE
  5
130
330
70
100
AcDbEntity
  8
CK_LEVEL_1
 62
    18
420
        0
370
    25
100
AcDbSpline
210
0.0
220
0.0
230
1.0
 70
     8
 71
     3
 72
     8
 73
     4
 74
     0
 42
0.0000000001
 43
0.0000000001
 40
0.0
 40
0.0
 40
0.0
 40
0.0
 40
1.0
 40
1.0
 40
1.0
 40
1.0
 10
65.53975909025126
 20
159.7769450198891
 30
0.0
 10
65.55616836889417
 20
159.7386002741299
 30
0.0
 10
65.5728354126811
 20
159.7003663498461
 30
0.0
 10
65.58975909024917
 20
159.6622458423664
 30
0.0
  0
SPLINE
  5
131
330
70
100
AcDbEntity
  8
CK_LEVEL_1
 62
    18
420
        0
370
    25
100
AcDbSpline
210
0.0
220
0.0
230
1.0
 70
     8
 71
     3
 72
     8
 73
     4
 74
     0
 42
0.0000000001
 43
0.0000000001
 40
0.0
 40
0.0
 40
0.0
 40
0.0
 40
1.0
 40
1.0
 40
1.0
 40
1.0
 10
65.58975909027356
 20
167.2094307480745
 30
0.0
 10
65.57283541270613
 20
167.1713102405938
 30
0.0
 10
65.55616836891887
 20
167.1330763163094
 30
0.0
 10
65.53975909027499
 20
167.0947315705496
 30
0.0
  0
LINE
  5
132
330
70
100
AcDbEntity
  8
CK_LEVEL_1
 62
     8
420
  8421504
370
    25
100
AcDbLine
 10
65.53975909024067
 20
159.7769450199144
 30
0.0
 11
65.53975909024067
 21
167.0947315705146
 31
0.0
  0
SPLINE
  5
133
330
70
100
AcDbEntity
  8
CK_LEVEL_1
 62
    18
420
        0
370
    25
100
AcDbSpline
210
0.0
220
0.0
230
1.0
 70
     8
 71
     3
 72
     8
 73
     4
 74
     0
 42
0.0000000001
 43
0.0000000001
 40
0.0
 40
0.0
 40
0.0
 40
0.0
 40
1.0
 40
1.0
 40
1.0
 40
1.0
 10
72.98345361641134
 20
154.2018744552125
 30
0.0
 10
73.02486577966253
 20
154.1969129344952
 30
0.0
 10
73.06631085127304
 20
154.1922300556789
 30
0.0
 10
73.10778601794028
 20
154.1878261366381
 30
0.0
  0
SPLINE
  5
134
330
70
100
AcDbEntity
  8
CK_LEVEL_1
 62
    18
420
        0
370
    25
100
AcDbSpline
210
0.0
220
0.0
230
1.0
 70
     8
 71
     3
 72
     8
 73
     4
 74
     0
 42
0.0000000001
 43
0.0000000001
 40
0.0
 40
0.0
 40
0.0
 40
0.0
 40
1.0
 40
1.0
 40
1.0
 40
1.0
 10
66.57173216254264
 20
157.9614185894905
 30
0.0
 10
66.59628365164246
 20
157.9277020010511
 30
0.0
 10
66.62106167946571
 20
157.8941509555825
 30
0.0
 10
66.64606456407367
 20
157.8607677305391
 30
0.0
  0
LINE
  5
135
330
70
100
AcDbEntity
  8
CK_LEVEL_1
 62
     8
420
  8421504
370
    25
100
AcDbLine
 10
72.98345361634075
 20
154.2018744552147
 30
0.0
 11
66.64606456414073
 21
157.8607677305147
 31
0.0
  0
SPLINE
  5
136
330
70
100
AcDbEntity
  8
CK_LEVEL_1
 62
    18
420
        0
370
    25
100
AcDbSpline
210
0.0
220
0.0
230
1.0
 70
     8
 71
     3
 72
     8
 73
     4
 74
     0
 42
0.0000000001
 43
0.0000000001
 40
0.0
 40
0.0
 40
0.0
 40
0.0
 40
1.0
 40
1.0
 40
1.0
 40
1.0
 10
82.63975909028973
 20
167.0947315705367
 30
0.0
 10
82.62334981164585
 20
167.1330763162982
 30
0.0
 10
82.60668276785795
 20
167.1713102405839
 30
0.0
 10
82.58975909028892
 20
167.2094307480655
 30
0.0
  0
SPLINE
  5
137
330
70
100
AcDbEntity
  8
CK_LEVEL_1
 62
    18
420
        0
370
    25
100
AcDbSpline
210
0.0
220
0.0
230
1.0
 70
     8
 71
     3
 72
     8
 73
     4
 74
     0
 42
0.0000000001
 43
0.0000000001
 40
0.0
 40
0.0
 40
0.0
 40
0.0
 40
1.0
 40
1.0
 40
1.0
 40
1.0
 10
82.58975909020774
 20
159.6622458423959
 30
0.0
 10
82.60668276777517
 20
159.7003663498762
 30
0.0
 10
82.62334981156243
 20
159.7386002741607
 30
0.0
 10
82.63975909020663
 20
159.7769450199202
 30
0.0
  0
LINE
  5
138
330
70
100
AcDbEntity
  8
CK_LEVEL_1
 62
     8
420
  8421504
370
    25
100
AcDbLine
 10
82.63975909024063
 20
167.0947315705146
 30
0.0
 11
82.63975909024063
 21
159.7769450199144
 31
0.0
  0
SPLINE
  5
139
330
70
100
AcDbEntity
  8
CK_LEVEL_1
 62
    18
420
        0
370
    25
100
AcDbSpline
210
0.0
220
0.0
230
1.0
 70
     8
 71
     3
 72
     8
 73
     4
 74
     0
 42
0.0000000001
 43
0.0000000001
 40
0.0
 40
0.0
 40
0.0
 40
0.0
 40
1.0
 40
1.0
 40
1.0
 40
1.0
 10
81.53345361641084
 20
157.8607677305098
 30
0.0
 10
81.55845650101751
 20
157.8941509555508
 30
0.0
 10
81.58323452883948
 20
157.9277020010171
 30
0.0
 10
81.60778601793705
 20
157.9614185894553
 30
0.0
  0
SPLINE
  5
13A
330
70
100
AcDbEntity
  8
CK_LEVEL_1
 62
    18
420
        0
370
    25
100
AcDbSpline
210
0.0
220
0.0
230
1.0
 70
     8
 71
     3
 72
     8
 73
     4
 74
     0
 42
0.0000000001
 43
0.0000000001
 40
0.0
 40
0.0
 40
0.0
 40
0.0
 40
1.0
 40
1.0
 40
1.0
 40
1.0
 10
75.07173216254327
 20
154.1878261367074
 30
0.0
 10
75.11320732921082
 20
154.1922300557489
 30
0.0
 10
75.15465240082135
 20
154.1969129345654
 30
0.0
 10
75.19606456407316
 20
154.2018744552818
 30
0.0
  0
LINE
  5
13B
330
70
100
AcDbEntity
  8
CK_LEVEL_1
 62
     8
420
  8421504
370
    25
100
AcDbLine
 10
81.53345361634057
 20
157.8607677305147
 30
0.0
 11
75.19606456414054
 21
154.2018744552147
 31
0.0
  0
CIRCLE
  5
13C
330
70
100
AcDbEntity
  8
CK_LEVEL_1
 62
    18
420
        0
370
    25
100
AcDbCircle
 10
74.08975909024057
 20
163.4358382952146
 30
0.0
 40
4.414999999999963
  0
CIRCLE
  5
13D
330
70
100
AcDbEntity
  8
CK_LEVEL_1
 62
     8
420
  8421504
370
    25
100
AcDbCircle
 10
74.08975909024057
 20
163.4358382952146
 30
0.0
 40
4.61499999999997
  0
LINE
  5
13E
330
70
100
AcDbEntity
  8
CK_LEVEL_1
 62
    18
420
        0
370
    25
100
AcDbLine
 10
75.07173216254071
 20
172.6838504538146
 30
0.0
 11
81.60778601794058
 21
168.9102580010145
 31
0.0
  0
SPLINE
  5
13F
330
70
100
AcDbEntity
  8
CK_LEVEL_1
 62
    18
420
        0
370
    25
100
AcDbSpline
210
0.0
220
0.0
230
1.0
 70
     8
 71
     3
 72
     8
 73
     4
 74
     0
 42
0.0000000001
 43
0.0000000001
 40
0.0
 40
0.0
 40
0.0
 40
0.0
 40
1.0
 40
1.0
 40
1.0
 40
1.0
 10
75.07173216256926
 20
172.6838504537934
 30
0.0
 10
74.41891834908874
 20
172.7531675756884
 30
0.0
 10
73.76059983139224
 20
172.7531675756884
 30
0.0
 10
73.10778601791205
 20
172.6838504537934
 30
0.0
  0
LINE
  5
140
330
70
100
AcDbEntity
  8
CK_LEVEL_1
 62
    18
420
        0
370
    25
100
AcDbLine
 10
66.57173216254072
 20
168.9102580010145
 30
0.0
 11
73.10778601794059
 21
172.6838504538146
 31
0.0
  0
SPLINE
  5
141
330
70
100
AcDbEntity
  8
CK_LEVEL_1
 62
    18
420
        0
370
    25
100
AcDbSpline
210
0.0
220
0.0
230
1.0
 70
     8
 71
     3
 72
     8
 73
     4
 74
     0
 42
0.0000000001
 43
0.0000000001
 40
0.0
 40
0.0
 40
0.0
 40
0.0
 40
1.0
 40
1.0
 40
1.0
 40
1.0
 10
66.57173216256833
 20
168.9102580009728
 30
0.0
 10
66.18529486734992
 20
168.3795632155048
 30
0.0
 10
65.85613560850167
 20
167.8094426553979
 30
0.0
 10
65.58975909023955
 20
167.209430748035
 30
0.0
  0
LINE
  5
142
330
70
100
AcDbEntity
  8
CK_LEVEL_1
 62
    18
420
        0
370
    25
100
AcDbLine
 10
65.5897590902405
 20
159.6622458424145
 30
0.0
 11
65.5897590902405
 21
167.2094307480145
 31
0.0
  0
SPLINE
  5
143
330
70
100
AcDbEntity
  8
CK_LEVEL_1
 62
    18
420
        0
370
    25
100
AcDbSpline
210
0.0
220
0.0
230
1.0
 70
     8
 71
     3
 72
     8
 73
     4
 74
     0
 42
0.0000000001
 43
0.0000000001
 40
0.0
 40
0.0
 40
0.0
 40
0.0
 40
1.0
 40
1.0
 40
1.0
 40
1.0
 10
65.58975909023955
 20
159.662245842394
 30
0.0
 10
65.85613560850167
 20
159.0622339350311
 30
0.0
 10
66.18529486734992
 20
158.4921133749241
 30
0.0
 10
66.57173216256833
 20
157.9614185894562
 30
0.0
  0
LINE
  5
144
330
70
100
AcDbEntity
  8
CK_LEVEL_1
 62
    18
420
        0
370
    25
100
AcDbLine
 10
73.10778601794059
 20
154.1878261366147
 30
0.0
 11
66.57173216254072
 21
157.9614185895146
 31
0.0
  0
SPLINE
  5
145
330
70
100
AcDbEntity
  8
CK_LEVEL_1
 62
    18
420
        0
370
    25
100
AcDbSpline
210
0.0
220
0.0
230
1.0
 70
     8
 71
     3
 72
     8
 73
     4
 74
     0
 42
0.0000000001
 43
0.0000000001
 40
0.0
 40
0.0
 40
0.0
 40
0.0
 40
1.0
 40
1.0
 40
1.0
 40
1.0
 10
73.10778601791205
 20
154.1878261366359
 30
0.0
 10
73.76059983139224
 20
154.1185090147409
 30
0.0
 10
74.41891834908874
 20
154.1185090147409
 30
0.0
 10
75.07173216256926
 20
154.1878261366359
 30
0.0
  0
LINE
  5
146
330
70
100
AcDbEntity
  8
CK_LEVEL_1
 62
    18
420
        0
370
    25
100
AcDbLine
 10
81.60778601794058
 20
157.9614185895146
 30
0.0
 11
75.07173216254071
 21
154.1878261366147
 31
0.0
  0
SPLINE
  5
147
330
70
100
AcDbEntity
  8
CK_LEVEL_1
 62
    18
420
        0
370
    25
100
AcDbSpline
210
0.0
220
0.0
230
1.0
 70
     8
 71
     3
 72
     8
 73
     4
 74
     0
 42
0.0000000001
 43
0.0000000001
 40
0.0
 40
0.0
 40
0.0
 40
0.0
 40
1.0
 40
1.0
 40
1.0
 40
1.0
 10
81.60778601791298
 20
157.9614185894562
 30
0.0
 10
81.99422331313138
 20
158.4921133749241
 30
0.0
 10
82.32338257197964
 20
159.0622339350311
 30
0.0
 10
82.58975909024176
 20
159.662245842394
 30
0.0
  0
LINE
  5
148
330
70
100
AcDbEntity
  8
CK_LEVEL_1
 62
    18
420
        0
370
    25
100
AcDbLine
 10
82.58975909024048
 20
167.2094307480145
 30
0.0
 11
82.58975909024048
 21
159.6622458424145
 31
0.0
  0
SPLINE
  5
149
330
70
100
AcDbEntity
  8
CK_LEVEL_1
 62
    18
420
        0
370
    25
100
AcDbSpline
210
0.0
220
0.0
230
1.0
 70
     8
 71
     3
 72
     8
 73
     4
 74
     0
 42
0.0000000001
 43
0.0000000001
 40
0.0
 40
0.0
 40
0.0
 40
0.0
 40
1.0
 40
1.0
 40
1.0
 40
1.0
 10
82.58975909024176
 20
167.209430748035
 30
0.0
 10
82.32338257197964
 20
167.8094426553979
 30
0.0
 10
81.99422331313138
 20
168.3795632155048
 30
0.0
 10
81.60778601791298
 20
168.9102580009728
 30
0.0
  0
CIRCLE
  5
14A
330
70
100
AcDbEntity
  8
CK_LEVEL_1
 62
    18
420
        0
370
    25
100
AcDbCircle
 10
74.08975909024057
 20
163.4358382952147
 30
0.0
 40
8.000000000000001
  0
LINE
  5
14B
330
70
100
AcDbEntity
  8
CK_LEVEL_1
  6
AI-Linetype-41
 62
     1
420
 16711680
370
    25
100
AcDbLine
 10
140.4591686023404
 20
163.4358382952147
 30
0.0
 11
125.489703593241
 21
163.4358382952147
 31
0.0
  0
LINE
  5
14D
330
70
100
AcDbEntity
  8
CK_LEVEL_1
  6
AI-Linetype-42
 62
     2
420
 16776960
370
    25
100
AcDbLine
 10
137.5903934620407
 20
170.0608382952147
 30
0.0
 11
134.5653934620405
 21
170.0608382952147
 31
0.0
  0
LINE
  5
14F
330
70
100
AcDbEntity
  8
CK_LEVEL_1
  6
AI-Linetype-43
 62
     2
420
 16776960
370
    25
100
AcDbLine
 10
137.5903934620407
 20
156.8108382952147
 30
0.0
 11
134.5653934620405
 21
156.8108382952147
 31
0.0
  0
LINE
  5
151
330
70
100
AcDbEntity
  8
CK_LEVEL_1
  6
AI-Linetype-44
 62
     2
420
 16776960
370
    25
100
AcDbLine
 10
138.3710182118404
 20
170.4358382952146
 30
0.0
 11
134.1903934620406
 21
170.4358382952146
 31
0.0
  0
LINE
  5
153
330
70
100
AcDbEntity
  8
CK_LEVEL_1
  6
AI-Linetype-45
 62
     2
420
 16776960
370
    25
100
AcDbLine
 10
138.3710182118404
 20
156.4358382952144
 30
0.0
 11
134.1903934620406
 21
156.4358382952144
 31
0.0
  0
SPLINE
  5
155
330
70
100
AcDbEntity
  8
CK_LEVEL_1
  6
AI-Linetype-46
 62
     2
420
 16776960
370
    25
100
AcDbSpline
210
0.0
220
0.0
230
1.0
 70
     8
 71
     3
 72
     8
 73
     4
 74
     0
 42
0.0000000001
 43
0.0000000001
 40
0.0
 40
0.0
 40
0.0
 40
0.0
 40
1.0
 40
1.0
 40
1.0
 40
1.0
 10
137.5903934620407
 20
170.0608382952147
 30
0.0
 10
138.1426782118716
 20
170.0608382952147
 30
0.0
 10
138.5903934620407
 20
170.5085535453837
 30
0.0
 10
138.5903934620407
 20
171.0608382952147
 30
0.0
  0
SPLINE
  5
157
330
70
100
AcDbEntity
  8
CK_LEVEL_1
  6
AI-Linetype-47
 62
     2
420
 16776960
370
    25
100
AcDbSpline
210
0.0
220
0.0
230
1.0
 70
     8
 71
     3
 72
     8
 73
     4
 74
     0
 42
0.0000000001
 43
0.0000000001
 40
0.0
 40
0.0
 40
0.0
 40
0.0
 40
1.0
 40
1.0
 40
1.0
 40
1.0
 10
138.5903934620407
 20
155.8108382952146
 30
0.0
 10
138.5903934620407
 20
156.3631230450453
 30
0.0
 10
138.1426782118716
 20
156.8108382952147
 30
0.0
 10
137.5903934620407
 20
156.8108382952147
 30
0.0
  0
LINE
  5
159
330
70
100
AcDbEntity
  8
CK_LEVEL_1
  6
AI-Linetype-48
 62
     2
420
 16776960
370
    25
100
AcDbLine
 10
134.5653934620405
 20
156.8108382952147
 30
0.0
 11
134.5653934620405
 21
170.0608382952147
 31
0.0
  0
LINE
  5
15B
330
70
100
AcDbEntity
  8
CK_LEVEL_1
  6
AI-Linetype-49
 62
     2
420
 16776960
370
    25
100
AcDbLine
 10
137.5903934620407
 20
156.8108382952147
 30
0.0
 11
137.5903934620407
 21
170.0608382952147
 31
0.0
  0
INSERT
  5
15E
330
70
100
AcDbEntity
  8
CK_LEVEL_1
100
AcDbBlockReference
  2
Block_0
 10
0.0
 20
0.0
 30
0.0
  0
INSERT
  5
16B
330
70
100
AcDbEntity
  8
CK_LEVEL_1
100
AcDbBlockReference
  2
Block_1
 10
0.0
 20
0.0
 30
0.0
  0
INSERT
  5
177
330
70
100
AcDbEntity
  8
CK_LEVEL_1
100
AcDbBlockReference
  2
Block_2
 10
0.0
 20
0.0
 30
0.0
  0
INSERT
  5
183
330
70
100
AcDbEntity
  8
CK_LEVEL_1
100
AcDbBlockReference
  2
Block_3
 10
0.0
 20
0.0
 30
0.0
  0
ENDSEC
  0
SECTION
  2
OBJECTS
  0
DICTIONARY
  5
C
330
0
100
AcDbDictionary
281
     1
  3
ACAD_COLOR
350
63
  3
ACAD_DETAILVIEWSTYLE
350
6A
  3
ACAD_GROUP
350
D
  3
ACAD_LAYOUT
350
62
  3
ACAD_MATERIAL
350
10
  3
ACAD_MLEADERSTYLE
350
66
  3
ACAD_MLINESTYLE
350
5F
  3
ACAD_PLOTSETTINGS
350
61
  3
ACAD_PLOTSTYLENAME
350
E
  3
ACAD_SCALELIST
350
42
  3
ACAD_SECTIONVIEWSTYLE
350
68
  3
ACAD_TABLESTYLE
350
64
  3
ACAD_VISUALSTYLE
350
29
  3
ACDB_RECOMPOSE_DATA
350
196
  3
AcDbVariableDictionary
350
18E
  0
DICTIONARY
  5
63
102
{ACAD_REACTORS
330
C
102
}
330
C
100
AcDbDictionary
281
     1
  0
DICTIONARY
  5
6A
102
{ACAD_REACTORS
330
C
102
}
330
C
100
AcDbDictionary
281
     1
  3
Imperial24
350
6B
  0
DICTIONARY
  5
D
102
{ACAD_REACTORS
330
C
102
}
330
C
100
AcDbDictionary
281
     1
  0
DICTIONARY
  5
62
102
{ACAD_REACTORS
330
C
102
}
330
C
100
AcDbDictionary
281
     1
  3
Layout1
350
6F
  3
Layout2
350
77
  3
Model
350
73
  0
DICTIONARY
  5
10
102
{ACAD_REACTORS
330
C
102
}
330
C
100
AcDbDictionary
281
     1
  3
ByBlock
350
19
  3
ByLayer
350
11
  3
Global
350
21
  0
DICTIONARY
  5
66
102
{ACAD_REACTORS
330
C
102
}
330
C
100
AcDbDictionary
281
     1
  3
Standard
350
67
  0
DICTIONARY
  5
5F
102
{ACAD_REACTORS
330
C
102
}
330
C
100
AcDbDictionary
281
     1
  3
Standard
350
60
  0
DICTIONARY
  5
61
102
{ACAD_REACTORS
330
C
102
}
330
C
100
AcDbDictionary
281
     1
  0
ACDBDICTIONARYWDFLT
  5
E
102
{ACAD_REACTORS
330
C
102
}
330
C
100
AcDbDictionary
281
     1
  3
Normal
350
F
100
AcDbDictionaryWithDefault
340
F
  0
DICTIONARY
  5
42
102
{ACAD_REACTORS
330
C
102
}
330
C
100
AcDbDictionary
281
     1
  3
A0
350
43
  3
A1
350
44
  3
A2
350
45
  3
A3
350
46
  3
A4
350
47
  3
A5
350
48
  3
A6
350
49
  3
A7
350
4A
  3
A8
350
4B
  3
A9
350
4C
  3
B0
350
4D
  3
B1
350
4E
  3
B2
350
4F
  3
B3
350
50
  3
B4
350
51
  3
B5
350
52
  3
B6
350
53
  0
DICTIONARY
  5
68
102
{ACAD_REACTORS
330
C
102
}
330
C
100
AcDbDictionary
281
     1
  3
Imperial24
350
69
  0
DICTIONARY
  5
64
102
{ACAD_REACTORS
330
C
102
}
330
C
100
AcDbDictionary
281
     1
  3
Standard
350
65
  0
DICTIONARY
  5
29
102
{ACAD_REACTORS
330
C
102
}
330
C
100
AcDbDictionary
281
     1
  3
2dWireframe
350
2F
  3
Basic
350
2E
  3
Brighten
350
35
  3
ColorChange
350
39
  3
Conceptual
350
32
  3
Dim
350
34
  3
EdgeColorOff
350
41
  3
Facepattern
350
38
  3
Flat
350
2A
  3
FlatWithEdges
350
2B
  3
Gouraud
350
2C
  3
GouraudWithEdges
350
2D
  3
Hidden
350
31
  3
JitterOff
350
3F
  3
Linepattern
350
37
  3
OverhangOff
350
40
  3
Realistic
350
33
  3
Shaded
350
3E
  3
Shaded with edges
350
3D
  3
Shades of Gray
350
3A
  3
Sketchy
350
3B
  3
Thicken
350
36
  3
Wireframe
350
30
  3
X-Ray
350
3C
  0
XRECORD
  5
196
102
{ACAD_REACTORS
330
C
102
}
330
C
100
AcDbXrecord
280
     1
 90
        1
330
65
  0
DICTIONARY
  5
18E
102
{ACAD_REACTORS
330
C
102
}
330
C
100
AcDbDictionary
281
     1
  3
CANNOSCALE
350
193
  3
CMLEADERSTYLE
350
190
  3
CTABLESTYLE
350
18F
  3
CVIEWDETAILSTYLE
350
191
  3
CVIEWSECTIONSTYLE
350
192
  0
ACDBDETAILVIEWSTYLE
  5
6B
102
{ACAD_REACTORS
330
6A
102
}
330
6A
100
AcDbModelDocViewStyle
 70
     0
  3
Imperial24
290
     1
300
Imperial24
 90
        0
100
AcDbDetailViewStyle
 70
     0
 71
     0
 90
        3
 71
     1
340
55
 62
   256
 40
0.24
340
0
 62
   256
 40
0.24
300

 40
0.36
280
     3
 71
     2
340
5D
 90
       25
 62
   256
 71
     3
340
55
 62
   256
 40
0.24
 90
        1
 40
0.75
 90
        1
300
%<\AcVar ViewType \f "%tc1">% %<\AcVar ViewDetailId>%\PSCALE %<\AcVar ViewScale \f "%sn">%
 71
     4
340
5D
 90
       25
 62
   256
340
5D
 90
       25
 62
   256
280
     0
  0
LAYOUT
  5
6F
102
{ACAD_REACTORS
330
62
102
}
330
62
100
AcDbPlotSettings
  1

  2

  4

  6

 40
0.0
 41
0.0
 42
0.0
 43
0.0
 44
0.0
 45
0.0
 46
0.0
 47
0.0
 48
0.0
 49
0.0
140
0.0
141
0.0
142
1.0
143
1.0
 70
   688
 72
     0
 73
     0
 74
     5
  7

 75
    16
147
1.0
 76
     0
 77
     2
 78
   300
148
0.0
149
0.0
100
AcDbLayout
  1
Layout1
 70
     1
 71
     1
 10
0.0
 20
0.0
 11
12.0
 21
9.0
 12
0.0
 22
0.0
 32
0.0
 14
0.0
 24
0.0
 34
0.0
 15
0.0
 25
0.0
 35
0.0
146
0.0
 13
0.0
 23
0.0
 33
0.0
 16
1.0
 26
0.0
 36
0.0
 17
0.0
 27
1.0
 37
0.0
 76
     0
330
6C
  0
LAYOUT
  5
77
102
{ACAD_REACTORS
330
62
102
}
330
62
100
AcDbPlotSettings
  1

  2

  4

  6

 40
0.0
 41
0.0
 42
0.0
 43
0.0
 44
0.0
 45
0.0
 46
0.0
 47
0.0
 48
0.0
 49
0.0
140
0.0
141
0.0
142
1.0
143
1.0
 70
   688
 72
     0
 73
     0
 74
     5
  7

 75
    16
147
1.0
 76
     0
 77
     2
 78
   300
148
0.0
149
0.0
100
AcDbLayout
  1
Layout2
 70
     1
 71
     2
 10
0.0
 20
0.0
 11
12.0
 21
9.0
 12
0.0
 22
0.0
 32
0.0
 14
0.0
 24
0.0
 34
0.0
 15
0.0
 25
0.0
 35
0.0
146
0.0
 13
0.0
 23
0.0
 33
0.0
 16
1.0
 26
0.0
 36
0.0
 17
0.0
 27
1.0
 37
0.0
 76
     0
330
74
  0
LAYOUT
  5
73
102
{ACAD_REACTORS
330
62
102
}
330
62
100
AcDbPlotSettings
  1

  2

  4

  6

 40
0.0
 41
0.0
 42
0.0
 43
0.0
 44
0.0
 45
0.0
 46
0.0
 47
0.0
 48
0.0
 49
0.0
140
0.0
141
0.0
142
1.0
143
1.0
 70
  1712
 72
     0
 73
     0
 74
     0
  7

 75
     0
147
1.0
 76
     0
 77
     2
 78
   300
148
0.0
149
0.0
100
AcDbLayout
  1
Model
 70
     1
 71
     0
 10
0.0
 20
0.0
 11
12.0
 21
9.0
 12
0.0
 22
0.0
 32
0.0
 14
0.0
 24
0.0
 34
0.0
 15
0.0
 25
0.0
 35
0.0
146
0.0
 13
0.0
 23
0.0
 33
0.0
 16
1.0
 26
0.0
 36
0.0
 17
0.0
 27
1.0
 37
0.0
 76
     0
330
70
  0
MATERIAL
  5
19
102
{ACAD_XDICTIONARY
360
1A
102
}
102
{ACAD_REACTORS
330
10
102
}
330
10
100
AcDbMaterial
  1
ByBlock
 72
     0
 43
0.0208333333333333
 43
0.0
 43
0.0
 43
0.0
 43
0.0
 43
0.0208333333333333
 43
0.0
 43
0.0
 43
0.0
 43
0.0
 43
1.0
 43
0.0
 43
0.0
 43
0.0
 43
0.0
 43
1.0
 77
     0
 47
0.0208333333333333
 47
0.0
 47
0.0
 47
0.0
 47
0.0
 47
0.0208333333333333
 47
0.0
 47
0.0
 47
0.0
 47
0.0
 47
1.0
 47
0.0
 47
0.0
 47
0.0
 47
0.0
 47
1.0
171
     0
 49
0.0208333333333333
 49
0.0
 49
0.0
 49
0.0
 49
0.0
 49
0.0208333333333333
 49
0.0
 49
0.0
 49
0.0
 49
0.0
 49
1.0
 49
0.0
 49
0.0
 49
0.0
 49
0.0
 49
1.0
175
     0
142
0.0208333333333333
142
0.0
142
0.0
142
0.0
142
0.0
142
0.0208333333333333
142
0.0
142
0.0
142
0.0
142
0.0
142
1.0
142
0.0
142
0.0
142
0.0
142
0.0
142
1.0
179
     0
144
0.0208333333333333
144
0.0
144
0.0
144
0.0
144
0.0
144
0.0208333333333333
144
0.0
144
0.0
144
0.0
144
0.0
144
1.0
144
0.0
144
0.0
144
0.0
144
0.0
144
1.0
147
0.0208333333333333
147
0.0
147
0.0
147
0.0
147
0.0
147
0.0208333333333333
147
0.0
147
0.0
147
0.0
147
0.0
147
1.0
147
0.0
147
0.0
147
0.0
147
0.0
147
1.0
  0
MATERIAL
  5
11
102
{ACAD_XDICTIONARY
360
12
102
}
102
{ACAD_REACTORS
330
10
102
}
330
10
100
AcDbMaterial
  1
ByLayer
 72
     0
 43
0.0208333333333333
 43
0.0
 43
0.0
 43
0.0
 43
0.0
 43
0.0208333333333333
 43
0.0
 43
0.0
 43
0.0
 43
0.0
 43
1.0
 43
0.0
 43
0.0
 43
0.0
 43
0.0
 43
1.0
 77
     0
 47
0.0208333333333333
 47
0.0
 47
0.0
 47
0.0
 47
0.0
 47
0.0208333333333333
 47
0.0
 47
0.0
 47
0.0
 47
0.0
 47
1.0
 47
0.0
 47
0.0
 47
0.0
 47
0.0
 47
1.0
171
     0
 49
0.0208333333333333
 49
0.0
 49
0.0
 49
0.0
 49
0.0
 49
0.0208333333333333
 49
0.0
 49
0.0
 49
0.0
 49
0.0
 49
1.0
 49
0.0
 49
0.0
 49
0.0
 49
0.0
 49
1.0
175
     0
142
0.0208333333333333
142
0.0
142
0.0
142
0.0
142
0.0
142
0.0208333333333333
142
0.0
142
0.0
142
0.0
142
0.0
142
1.0
142
0.0
142
0.0
142
0.0
142
0.0
142
1.0
179
     0
144
0.0208333333333333
144
0.0
144
0.0
144
0.0
144
0.0
144
0.0208333333333333
144
0.0
144
0.0
144
0.0
144
0.0
144
1.0
144
0.0
144
0.0
144
0.0
144
0.0
144
1.0
147
0.0208333333333333
147
0.0
147
0.0
147
0.0
147
0.0
147
0.0208333333333333
147
0.0
147
0.0
147
0.0
147
0.0
147
1.0
147
0.0
147
0.0
147
0.0
147
0.0
147
1.0
  0
MATERIAL
  5
21
102
{ACAD_XDICTIONARY
360
22
102
}
102
{ACAD_REACTORS
330
10
102
}
330
10
100
AcDbMaterial
  1
Global
 72
     0
 43
0.0208333333333333
 43
0.0
 43
0.0
 43
0.0
 43
0.0
 43
0.0208333333333333
 43
0.0
 43
0.0
 43
0.0
 43
0.0
 43
1.0
 43
0.0
 43
0.0
 43
0.0
 43
0.0
 43
1.0
 77
     0
 47
0.0208333333333333
 47
0.0
 47
0.0
 47
0.0
 47
0.0
 47
0.0208333333333333
 47
0.0
 47
0.0
 47
0.0
 47
0.0
 47
1.0
 47
0.0
 47
0.0
 47
0.0
 47
0.0
 47
1.0
171
     0
 49
0.0208333333333333
 49
0.0
 49
0.0
 49
0.0
 49
0.0
 49
0.0208333333333333
 49
0.0
 49
0.0
 49
0.0
 49
0.0
 49
1.0
 49
0.0
 49
0.0
 49
0.0
 49
0.0
 49
1.0
175
     0
142
0.0208333333333333
142
0.0
142
0.0
142
0.0
142
0.0
142
0.0208333333333333
142
0.0
142
0.0
142
0.0
142
0.0
142
1.0
142
0.0
142
0.0
142
0.0
142
0.0
142
1.0
179
     0
144
0.0208333333333333
144
0.0
144
0.0
144
0.0
144
0.0
144
0.0208333333333333
144
0.0
144
0.0
144
0.0
144
0.0
144
1.0
144
0.0
144
0.0
144
0.0
144
0.0
144
1.0
147
0.0208333333333333
147
0.0
147
0.0
147
0.0
147
0.0
147
0.0208333333333333
147
0.0
147
0.0
147
0.0
147
0.0
147
1.0
147
0.0
147
0.0
147
0.0
147
0.0
147
1.0
  0
MLEADERSTYLE
  5
67
102
{ACAD_REACTORS
330
66
102
}
330
66
100
AcDbMLeaderStyle
179
     2
170
     2
171
     1
172
     0
 90
        2
 40
0.0
 41
0.0
173
     1
 91
-1056964608
340
5B
 92
       -2
290
     1
 42
0.09
291
     1
 43
0.36
  3
Standard
 44
0.18
300

342
55
174
     1
178
     6
175
     1
176
     0
 93
-1056964608
 45
0.18
292
     0
297
     0
 46
0.18
 94
-1056964608
 47
1.0
 49
1.0
140
1.0
293
     1
141
0.0
294
     1
177
     0
142
1.0
295
     1
296
     0
143
0.125
271
     0
272
     9
273
     9
298
     1
  0
MLINESTYLE
  5
60
102
{ACAD_REACTORS
330
5F
102
}
330
5F
100
AcDbMlineStyle
  2
STANDARD
 70
     0
  3

 62
   256
 51
90.0
 52
90.0
 71
     2
 49
0.5
 62
   256
  6
BYLAYER
 49
-0.5
 62
   256
  6
BYLAYER
  0
ACDBPLACEHOLDER
  5
F
102
{ACAD_REACTORS
330
E
102
}
330
E
  0
SCALE
  5
43
102
{ACAD_REACTORS
330
42
102
}
330
42
100
AcDbScale
 70
     0
300
1:1
140
1.0
141
1.0
290
     1
  0
SCALE
  5
44
102
{ACAD_REACTORS
330
42
102
}
330
42
100
AcDbScale
 70
     0
300
1/128" = 1'-0"
140
0.0078125
141
12.0
290
     0
  0
SCALE
  5
45
102
{ACAD_REACTORS
330
42
102
}
330
42
100
AcDbScale
 70
     0
300
1/64" = 1'-0"
140
0.015625
141
12.0
290
     0
  0
SCALE
  5
46
102
{ACAD_REACTORS
330
42
102
}
330
42
100
AcDbScale
 70
     0
300
1/32" = 1'-0"
140
0.03125
141
12.0
290
     0
  0
SCALE
  5
47
102
{ACAD_REACTORS
330
42
102
}
330
42
100
AcDbScale
 70
     0
300
1/16" = 1'-0"
140
0.0625
141
12.0
290
     0
  0
SCALE
  5
48
102
{ACAD_REACTORS
330
42
102
}
330
42
100
AcDbScale
 70
     0
300
3/32" = 1'-0"
140
0.09375
141
12.0
290
     0
  0
SCALE
  5
49
102
{ACAD_REACTORS
330
42
102
}
330
42
100
AcDbScale
 70
     0
300
1/8" = 1'-0"
140
0.125
141
12.0
290
     0
  0
SCALE
  5
4A
102
{ACAD_REACTORS
330
42
102
}
330
42
100
AcDbScale
 70
     0
300
3/16" = 1'-0"
140
0.1875
141
12.0
290
     0
  0
SCALE
  5
4B
102
{ACAD_REACTORS
330
42
102
}
330
42
100
AcDbScale
 70
     0
300
1/4" = 1'-0"
140
0.25
141
12.0
290
     0
  0
SCALE
  5
4C
102
{ACAD_REACTORS
330
42
102
}
330
42
100
AcDbScale
 70
     0
300
3/8" = 1'-0"
140
0.375
141
12.0
290
     0
  0
SCALE
  5
4D
102
{ACAD_REACTORS
330
42
102
}
330
42
100
AcDbScale
 70
     0
300
1/2" = 1'-0"
140
0.5
141
12.0
290
     0
  0
SCALE
  5
4E
102
{ACAD_REACTORS
330
42
102
}
330
42
100
AcDbScale
 70
     0
300
3/4" = 1'-0"
140
0.75
141
12.0
290
     0
  0
SCALE
  5
4F
102
{ACAD_REACTORS
330
42
102
}
330
42
100
AcDbScale
 70
     0
300
1" = 1'-0"
140
1.0
141
12.0
290
     0
  0
SCALE
  5
50
102
{ACAD_REACTORS
330
42
102
}
330
42
100
AcDbScale
 70
     0
300
1-1/2" = 1'-0"
140
1.5
141
12.0
290
     0
  0
SCALE
  5
51
102
{ACAD_REACTORS
330
42
102
}
330
42
100
AcDbScale
 70
     0
300
3" = 1'-0"
140
3.0
141
12.0
290
     0
  0
SCALE
  5
52
102
{ACAD_REACTORS
330
42
102
}
330
42
100
AcDbScale
 70
     0
300
6" = 1'-0"
140
6.0
141
12.0
290
     0
  0
SCALE
  5
53
102
{ACAD_REACTORS
330
42
102
}
330
42
100
AcDbScale
 70
     0
300
1'-0" = 1'-0"
140
12.0
141
12.0
290
     0
  0
ACDBSECTIONVIEWSTYLE
  5
69
102
{ACAD_REACTORS
330
68
102
}
330
68
100
AcDbModelDocViewStyle
 70
     0
  3
Imperial24
290
     1
300
Imperial24
 90
        0
100
AcDbSectionViewStyle
 70
     0
 71
     0
 90
       78
 71
     1
340
55
 62
   256
 40
0.24
340
0
340
0
 62
   256
 40
0.24
300
I, O, Q, S, X, Z
 40
0.48
 90
        3
 40
0.18
 90
        1
 71
     2
340
5D
 90
       25
 62
   256
340
5D
 90
       50
 62
   256
 40
0.24
 40
0.0
 40
0.24
 71
     3
340
55
 62
   256
 40
0.24
 90
        1
 40
0.75
 90
        1
300
%<\AcVar ViewType \f "%tc1">% %<\AcVar ViewSectionStartId>%-%<\AcVar ViewSectionEndId>%\PSCALE %<\AcVar ViewScale \f "%sn">%
 71
     4
 62
   256
 62
   257
300
ANSI31
 40
1.0
 90
        0
290
     0
290
     0
 90
        6
 40
0.0
 40
1.570796326794896
 40
0.2617993877991494
 40
1.308996938995747
 40
-0.2617993877991494
 40
1.832595714594046
  0
TABLESTYLE
  5
65
102
{ACAD_XDICTIONARY
360
194
102
}
102
{ACAD_REACTORS
330
64
102
}
330
64
100
AcDbTableStyle
280
     0
  3
Standard
 70
     0
 71
     0
 40
0.06
 41
0.06
280
     0
281
     0
  7
Standard
140
0.18
170
     2
 62
     0
 63
     7
283
     0
 90
      512
 91
        0
  1

274
    -2
284
     1
 64
     0
275
    -2
285
     1
 65
     0
276
    -2
286
     1
 66
     0
277
    -2
287
     1
 67
     0
278
    -2
288
     1
 68
     0
279
    -2
289
     1
 69
     0
  7
Standard
140
0.25
170
     5
 62
     0
 63
     7
283
     0
 90
      512
 91
        0
  1

274
    -2
284
     1
 64
     0
275
    -2
285
     1
 65
     0
276
    -2
286
     1
 66
     0
277
    -2
287
     1
 67
     0
278
    -2
288
     1
 68
     0
279
    -2
289
     1
 69
     0
  7
Standard
140
0.18
170
     5
 62
     0
 63
     7
283
     0
 90
      512
 91
        0
  1

274
    -2
284
     1
 64
     0
275
    -2
285
     1
 65
     0
276
    -2
286
     1
 66
     0
277
    -2
287
     1
 67
     0
278
    -2
288
     1
 68
     0
279
    -2
289
     1
 69
     0
  0
VISUALSTYLE
  5
2F
102
{ACAD_REACTORS
330
29
102
}
330
29
100
AcDbVisualStyle
  2
2dWireframe
 70
     4
177
     3
291
     0
 70
    58
 90
        0
176
     1
 90
        2
176
     1
 90
        0
176
     1
 90
        0
176
     1
 40
0.6
176
     1
 40
30.0
176
     1
 62
     7
420
 16777215
176
     1
 90
        1
176
     1
 90
        4
176
     1
 62
     7
176
     1
 62
   257
176
     1
 90
        1
176
     1
 90
        1
176
     1
 40
1.0
176
     1
 90
        0
176
     1
 62
   257
176
     1
 40
1.0
176
     1
 90
        1
176
     1
 90
        6
176
     1
 90
        2
176
     1
 62
     7
176
     1
 90
        5
176
     1
 90
        0
176
     1
 90
        0
176
     1
290
     0
176
     1
 90
        1
176
     1
 40
0.0
176
     1
 90
        0
176
     1
290
     1
176
     1
290
     1
176
     1
290
     0
176
     1
290
     0
176
     1
290
     0
176
     1
290
     0
176
     1
290
     0
176
     1
290
     0
176
     1
290
     0
176
     1
 90
       50
176
     1
 40
0.0
176
     1
 40
1.0
176
     1
 90
        0
176
     1
 62
    18
420
        0
176
     1
 90
       50
176
     1
 90
        3
176
     1
 62
     5
420
      255
176
     1
290
     0
176
     1
 90
       50
176
     1
 90
       50
176
     1
 90
       50
176
     1
290
     0
176
     1
 90
       50
176
     1
 62
   256
176
     0
 40
1.0
176
     0
 90
        2
176
     1
  1
strokes_ogs.tif
176
     1
290
     0
176
     1
 40
1.0
176
     1
 40
1.0
176
     1
  0
VISUALSTYLE
  5
2E
102
{ACAD_REACTORS
330
29
102
}
330
29
100
AcDbVisualStyle
  2
Basic
 70
     7
177
     3
291
     1
 70
    58
 90
        1
176
     1
 90
        0
176
     1
 90
        1
176
     1
 90
        0
176
     1
 40
0.6
176
     1
 40
30.0
176
     1
 62
     7
420
 16777215
176
     1
 90
        0
176
     1
 90
        4
176
     1
 62
     7
176
     1
 62
   257
176
     1
 90
        1
176
     1
 90
        1
176
     1
 40
1.0
176
     1
 90
        8
176
     1
 62
     7
176
     1
 40
1.0
176
     1
 90
        1
176
     1
 90
        6
176
     1
 90
        2
176
     1
 62
     7
176
     1
 90
        5
176
     1
 90
        0
176
     1
 90
        0
176
     1
290
     0
176
     1
 90
        1
176
     1
 40
0.0
176
     1
 90
        0
176
     1
290
     0
176
     1
290
     1
176
     1
290
     1
176
     1
290
     0
176
     1
290
     0
176
     1
290
     0
176
     1
290
     0
176
     1
290
     0
176
     1
290
     0
176
     1
 90
       50
176
     1
 40
0.0
176
     1
 40
1.0
176
     1
 90
        0
176
     1
 62
    18
420
        0
176
     1
 90
       50
176
     1
 90
        3
176
     1
 62
     5
420
      255
176
     1
290
     0
176
     1
 90
       50
176
     1
 90
       50
176
     1
 90
       50
176
     1
290
     0
176
     1
 90
       50
176
     1
 62
   256
176
     0
 40
1.0
176
     0
 90
        2
176
     1
  1
strokes_ogs.tif
176
     1
290
     0
176
     1
 40
1.0
176
     1
 40
1.0
176
     1
  0
VISUALSTYLE
  5
35
102
{ACAD_REACTORS
330
29
102
}
330
29
100
AcDbVisualStyle
  2
Brighten
 70
    12
177
     3
291
     1
 70
    58
 90
        2
176
     1
 90
        2
176
     1
 90
        0
176
     1
 90
        0
176
     1
 40
0.6
176
     1
 40
30.0
176
     1
 62
     7
420
 16777215
176
     1
 90
        1
176
     1
 90
        4
176
     1
 62
     7
176
     1
 62
   257
176
     1
 90
        1
176
     1
 90
        1
176
     1
 40
1.0
176
     1
 90
        8
176
     1
 62
     7
176
     1
 40
1.0
176
     1
 90
        1
176
     1
 90
        6
176
     1
 90
        2
176
     1
 62
     7
176
     1
 90
        5
176
     1
 90
        0
176
     1
 90
        0
176
     1
290
     0
176
     1
 90
        1
176
     1
 40
50.0
176
     1
 90
        0
176
     1
290
     0
176
     1
290
     1
176
     1
290
     1
176
     1
290
     0
176
     1
290
     0
176
     1
290
     0
176
     1
290
     0
176
     1
290
     0
176
     1
290
     0
176
     1
 90
       50
176
     1
 40
0.0
176
     1
 40
1.0
176
     1
 90
        0
176
     1
 62
    18
420
        0
176
     1
 90
       50
176
     1
 90
        3
176
     1
 62
     5
420
      255
176
     1
290
     0
176
     1
 90
       50
176
     1
 90
       50
176
     1
 90
       50
176
     1
290
     0
176
     1
 90
       50
176
     1
 62
   256
176
     0
 40
1.0
176
     0
 90
        2
176
     1
  1
strokes_ogs.tif
176
     1
290
     0
176
     1
 40
1.0
176
     1
 40
1.0
176
     1
  0
VISUALSTYLE
  5
39
102
{ACAD_REACTORS
330
29
102
}
330
29
100
AcDbVisualStyle
  2
ColorChange
 70
    16
177
     3
291
     1
 70
    58
 90
        2
176
     1
 90
        2
176
     1
 90
        3
176
     1
 90
        0
176
     1
 40
0.6
176
     1
 40
30.0
176
     1
 62
     8
420
  8421504
176
     1
 90
        1
176
     1
 90
        4
176
     1
 62
     7
176
     1
 62
   257
176
     1
 90
        1
176
     1
 90
        1
176
     1
 40
1.0
176
     1
 90
        8
176
     1
 62
     8
420
  8421504
176
     1
 40
1.0
176
     1
 90
        1
176
     1
 90
        6
176
     1
 90
        2
176
     1
 62
     7
176
     1
 90
        5
176
     1
 90
        0
176
     1
 90
        0
176
     1
290
     0
176
     1
 90
        1
176
     1
 40
0.0
176
     1
 90
        0
176
     1
290
     0
176
     1
290
     1
176
     1
290
     1
176
     1
290
     0
176
     1
290
     0
176
     1
290
     0
176
     1
290
     0
176
     1
290
     0
176
     1
290
     0
176
     1
 90
       50
176
     1
 40
0.0
176
     1
 40
1.0
176
     1
 90
        0
176
     1
 62
    18
420
        0
176
     1
 90
       50
176
     1
 90
        3
176
     1
 62
     5
420
      255
176
     1
290
     0
176
     1
 90
       50
176
     1
 90
       50
176
     1
 90
       50
176
     1
290
     0
176
     1
 90
       50
176
     1
 62
   256
176
     0
 40
1.0
176
     0
 90
        2
176
     1
  1
strokes_ogs.tif
176
     1
290
     0
176
     1
 40
1.0
176
     1
 40
1.0
176
     1
  0
VISUALSTYLE
  5
32
102
{ACAD_REACTORS
330
29
102
}
330
29
100
AcDbVisualStyle
  2
Conceptual
 70
     9
177
     3
291
     0
 70
    58
 90
        3
176
     1
 90
        2
176
     1
 90
        0
176
     1
 90
        0
176
     1
 40
0.6
176
     1
 40
30.0
176
     1
 62
     7
420
 16777215
176
     1
 90
        2
176
     1
 90
        2
176
     1
 62
     7
176
     1
 62
   257
176
     1
 90
        1
176
     1
 90
        1
176
     1
 40
179.0
176
     1
 90
        8
176
     1
 62
     7
176
     1
 40
1.0
176
     1
 90
        1
176
     1
 90
        6
176
     1
 90
        2
176
     1
 62
     7
176
     1
 90
        3
176
     1
 90
        0
176
     1
 90
        0
176
     1
290
     0
176
     1
 90
        1
176
     1
 40
0.0
176
     1
 90
        0
176
     1
290
     0
176
     1
290
     1
176
     1
290
     1
176
     1
290
     0
176
     1
290
     0
176
     1
290
     0
176
     1
290
     0
176
     1
290
     0
176
     1
290
     0
176
     1
 90
       50
176
     1
 40
0.0
176
     1
 40
1.0
176
     1
 90
        0
176
     1
 62
    18
420
        0
176
     1
 90
       50
176
     1
 90
        3
176
     1
 62
     5
420
      255
176
     1
290
     0
176
     1
 90
       50
176
     1
 90
       50
176
     1
 90
       50
176
     1
290
     0
176
     1
 90
       50
176
     1
 62
   256
176
     0
 40
1.0
176
     0
 90
        2
176
     1
  1
strokes_ogs.tif
176
     1
290
     0
176
     1
 40
1.0
176
     1
 40
1.0
176
     1
  0
VISUALSTYLE
  5
34
102
{ACAD_REACTORS
330
29
102
}
330
29
100
AcDbVisualStyle
  2
Dim
 70
    11
177
     3
291
     1
 70
    58
 90
        2
176
     1
 90
        2
176
     1
 90
        0
176
     1
 90
        0
176
     1
 40
0.6
176
     1
 40
30.0
176
     1
 62
     7
420
 16777215
176
     1
 90
        1
176
     1
 90
        4
176
     1
 62
     7
176
     1
 62
   257
176
     1
 90
        1
176
     1
 90
        1
176
     1
 40
1.0
176
     1
 90
        8
176
     1
 62
     7
176
     1
 40
1.0
176
     1
 90
        1
176
     1
 90
        6
176
     1
 90
        2
176
     1
 62
     7
176
     1
 90
        5
176
     1
 90
        0
176
     1
 90
        0
176
     1
290
     0
176
     1
 90
        1
176
     1
 40
-50.0
176
     1
 90
        0
176
     1
290
     0
176
     1
290
     1
176
     1
290
     1
176
     1
290
     0
176
     1
290
     0
176
     1
290
     0
176
     1
290
     0
176
     1
290
     0
176
     1
290
     0
176
     1
 90
       50
176
     1
 40
0.0
176
     1
 40
1.0
176
     1
 90
        0
176
     1
 62
    18
420
        0
176
     1
 90
       50
176
     1
 90
        3
176
     1
 62
     5
420
      255
176
     1
290
     0
176
     1
 90
       50
176
     1
 90
       50
176
     1
 90
       50
176
     1
290
     0
176
     1
 90
       50
176
     1
 62
   256
176
     0
 40
1.0
176
     0
 90
        2
176
     1
  1
strokes_ogs.tif
176
     1
290
     0
176
     1
 40
1.0
176
     1
 40
1.0
176
     1
  0
VISUALSTYLE
  5
41
102
{ACAD_REACTORS
330
29
102
}
330
29
100
AcDbVisualStyle
  2
EdgeColorOff
 70
    22
177
     3
291
     1
 70
    58
 90
        2
176
     0
 90
        2
176
     0
 90
        0
176
     0
 90
        0
176
     0
 40
0.6
176
     0
 40
30.0
176
     0
 62
     7
420
 16777215
176
     0
 90
        1
176
     0
 90
        4
176
     0
 62
     7
176
     0
 62
   257
176
     0
 90
        1
176
     0
 90
        1
176
     0
 40
1.0
176
     0
 90
        8
176
     2
 62
     7
176
     0
 40
1.0
176
     0
 90
        1
176
     0
 90
        6
176
     0
 90
        2
176
     0
 62
     7
176
     0
 90
        5
176
     0
 90
        0
176
     0
 90
        0
176
     0
290
     0
176
     0
 90
        1
176
     0
 40
0.0
176
     0
 90
        0
176
     0
290
     0
176
     0
290
     1
176
     0
290
     1
176
     0
290
     0
176
     0
290
     0
176
     0
290
     0
176
     0
290
     0
176
     0
290
     0
176
     0
290
     0
176
     0
 90
       50
176
     0
 40
0.0
176
     0
 40
1.0
176
     0
 90
        0
176
     0
 62
    18
420
        0
176
     0
 90
       50
176
     0
 90
        3
176
     0
 62
     5
420
      255
176
     0
290
     0
176
     0
 90
       50
176
     0
 90
       50
176
     0
 90
       50
176
     0
290
     0
176
     0
 90
       50
176
     0
 62
   256
176
     0
 40
1.0
176
     0
 90
        2
176
     0
  1
strokes_ogs.tif
176
     0
290
     0
176
     0
 40
1.0
176
     0
 40
1.0
176
     0
  0
VISUALSTYLE
  5
38
102
{ACAD_REACTORS
330
29
102
}
330
29
100
AcDbVisualStyle
  2
Facepattern
 70
    15
177
     3
291
     1
 70
    58
 90
        2
176
     1
 90
        2
176
     1
 90
        0
176
     1
 90
        0
176
     1
 40
0.6
176
     1
 40
30.0
176
     1
 62
     7
420
 16777215
176
     1
 90
        1
176
     1
 90
        4
176
     1
 62
     7
176
     1
 62
   257
176
     1
 90
        1
176
     1
 90
        1
176
     1
 40
1.0
176
     1
 90
        8
176
     1
 62
     7
176
     1
 40
1.0
176
     1
 90
        1
176
     1
 90
        6
176
     1
 90
        2
176
     1
 62
     7
176
     1
 90
        5
176
     1
 90
        0
176
     1
 90
        0
176
     1
290
     0
176
     1
 90
        1
176
     1
 40
0.0
176
     1
 90
        0
176
     1
290
     0
176
     1
290
     1
176
     1
290
     1
176
     1
290
     0
176
     1
290
     0
176
     1
290
     0
176
     1
290
     0
176
     1
290
     0
176
     1
290
     0
176
     1
 90
       50
176
     1
 40
0.0
176
     1
 40
1.0
176
     1
 90
        0
176
     1
 62
    18
420
        0
176
     1
 90
       50
176
     1
 90
        3
176
     1
 62
     5
420
      255
176
     1
290
     0
176
     1
 90
       50
176
     1
 90
       50
176
     1
 90
       50
176
     1
290
     0
176
     1
 90
       50
176
     1
 62
   256
176
     0
 40
1.0
176
     0
 90
        2
176
     1
  1
strokes_ogs.tif
176
     1
290
     0
176
     1
 40
1.0
176
     1
 40
1.0
176
     1
  0
VISUALSTYLE
  5
2A
102
{ACAD_REACTORS
330
29
102
}
330
29
100
AcDbVisualStyle
  2
Flat
 70
     0
177
     3
291
     1
 70
    58
 90
        2
176
     1
 90
        1
176
     1
 90
        1
176
     1
 90
        2
176
     1
 40
0.6
176
     1
 40
30.0
176
     1
 62
     7
420
 16777215
176
     1
 90
        0
176
     1
 90
        0
176
     1
 62
     7
176
     1
 62
   257
176
     1
 90
        1
176
     1
 90
        1
176
     1
 40
1.0
176
     1
 90
        8
176
     1
 62
     7
176
     1
 40
1.0
176
     1
 90
        1
176
     1
 90
        6
176
     1
 90
        2
176
     1
 62
     7
176
     1
 90
        5
176
     1
 90
        0
176
     1
 90
        0
176
     1
290
     0
176
     1
 90
       13
176
     1
 40
0.0
176
     1
 90
        0
176
     1
290
     0
176
     1
290
     1
176
     1
290
     1
176
     1
290
     0
176
     1
290
     0
176
     1
290
     0
176
     1
290
     0
176
     1
290
     0
176
     1
290
     0
176
     1
 90
       50
176
     1
 40
0.0
176
     1
 40
1.0
176
     1
 90
        0
176
     1
 62
    18
420
        0
176
     1
 90
       50
176
     1
 90
        3
176
     1
 62
     5
420
      255
176
     1
290
     0
176
     1
 90
       50
176
     1
 90
       50
176
     1
 90
       50
176
     1
290
     0
176
     1
 90
       50
176
     1
 62
   256
176
     0
 40
1.0
176
     0
 90
        2
176
     1
  1
strokes_ogs.tif
176
     1
290
     0
176
     1
 40
1.0
176
     1
 40
1.0
176
     1
  0
VISUALSTYLE
  5
2B
102
{ACAD_REACTORS
330
29
102
}
330
29
100
AcDbVisualStyle
  2
FlatWithEdges
 70
     1
177
     3
291
     1
 70
    58
 90
        2
176
     1
 90
        1
176
     1
 90
        1
176
     1
 90
        2
176
     1
 40
0.6
176
     1
 40
30.0
176
     1
 62
     7
420
 16777215
176
     1
 90
        1
176
     1
 90
        0
176
     1
 62
     7
176
     1
 62
   257
176
     1
 90
        1
176
     1
 90
        1
176
     1
 40
1.0
176
     1
 90
        0
176
     1
 62
   257
176
     1
 40
1.0
176
     1
 90
        1
176
     1
 90
        6
176
     1
 90
        2
176
     1
 62
     7
176
     1
 90
        5
176
     1
 90
        0
176
     1
 90
        0
176
     1
290
     0
176
     1
 90
       13
176
     1
 40
0.0
176
     1
 90
        0
176
     1
290
     0
176
     1
290
     1
176
     1
290
     1
176
     1
290
     0
176
     1
290
     0
176
     1
290
     0
176
     1
290
     0
176
     1
290
     0
176
     1
290
     0
176
     1
 90
       50
176
     1
 40
0.0
176
     1
 40
1.0
176
     1
 90
        0
176
     1
 62
    18
420
        0
176
     1
 90
       50
176
     1
 90
        3
176
     1
 62
     5
420
      255
176
     1
290
     0
176
     1
 90
       50
176
     1
 90
       50
176
     1
 90
       50
176
     1
290
     0
176
     1
 90
       50
176
     1
 62
   256
176
     0
 40
1.0
176
     0
 90
        2
176
     1
  1
strokes_ogs.tif
176
     1
290
     0
176
     1
 40
1.0
176
     1
 40
1.0
176
     1
  0
VISUALSTYLE
  5
2C
102
{ACAD_REACTORS
330
29
102
}
330
29
100
AcDbVisualStyle
  2
Gouraud
 70
     2
177
     3
291
     1
 70
    58
 90
        2
176
     1
 90
        2
176
     1
 90
        1
176
     1
 90
        2
176
     1
 40
0.6
176
     1
 40
30.0
176
     1
 62
     7
420
 16777215
176
     1
 90
        0
176
     1
 90
        0
176
     1
 62
     7
176
     1
 62
   257
176
     1
 90
        1
176
     1
 90
        1
176
     1
 40
1.0
176
     1
 90
        0
176
     1
 62
     7
176
     1
 40
1.0
176
     1
 90
        1
176
     1
 90
        6
176
     1
 90
        2
176
     1
 62
     7
176
     1
 90
        5
176
     1
 90
        0
176
     1
 90
        0
176
     1
290
     0
176
     1
 90
       13
176
     1
 40
0.0
176
     1
 90
        0
176
     1
290
     0
176
     1
290
     1
176
     1
290
     1
176
     1
290
     0
176
     1
290
     0
176
     1
290
     0
176
     1
290
     0
176
     1
290
     0
176
     1
290
     0
176
     1
 90
       50
176
     1
 40
0.0
176
     1
 40
1.0
176
     1
 90
        0
176
     1
 62
    18
420
        0
176
     1
 90
       50
176
     1
 90
        3
176
     1
 62
     5
420
      255
176
     1
290
     0
176
     1
 90
       50
176
     1
 90
       50
176
     1
 90
       50
176
     1
290
     0
176
     1
 90
       50
176
     1
 62
   256
176
     0
 40
1.0
176
     0
 90
        2
176
     1
  1
strokes_ogs.tif
176
     1
290
     0
176
     1
 40
1.0
176
     1
 40
1.0
176
     1
  0
VISUALSTYLE
  5
2D
102
{ACAD_REACTORS
330
29
102
}
330
29
100
AcDbVisualStyle
  2
GouraudWithEdges
 70
     3
177
     3
291
     1
 70
    58
 90
        2
176
     1
 90
        2
176
     1
 90
        1
176
     1
 90
        2
176
     1
 40
0.6
176
     1
 40
30.0
176
     1
 62
     7
420
 16777215
176
     1
 90
        1
176
     1
 90
        0
176
     1
 62
     7
176
     1
 62
   257
176
     1
 90
        1
176
     1
 90
        1
176
     1
 40
1.0
176
     1
 90
        0
176
     1
 62
   257
176
     1
 40
1.0
176
     1
 90
        1
176
     1
 90
        6
176
     1
 90
        2
176
     1
 62
     7
176
     1
 90
        5
176
     1
 90
        0
176
     1
 90
        0
176
     1
290
     0
176
     1
 90
       13
176
     1
 40
0.0
176
     1
 90
        0
176
     1
290
     0
176
     1
290
     1
176
     1
290
     1
176
     1
290
     0
176
     1
290
     0
176
     1
290
     0
176
     1
290
     0
176
     1
290
     0
176
     1
290
     0
176
     1
 90
       50
176
     1
 40
0.0
176
     1
 40
1.0
176
     1
 90
        0
176
     1
 62
    18
420
        0
176
     1
 90
       50
176
     1
 90
        3
176
     1
 62
     5
420
      255
176
     1
290
     0
176
     1
 90
       50
176
     1
 90
       50
176
     1
 90
       50
176
     1
290
     0
176
     1
 90
       50
176
     1
 62
   256
176
     0
 40
1.0
176
     0
 90
        2
176
     1
  1
strokes_ogs.tif
176
     1
290
     0
176
     1
 40
1.0
176
     1
 40
1.0
176
     1
  0
VISUALSTYLE
  5
31
102
{ACAD_REACTORS
330
29
102
}
330
29
100
AcDbVisualStyle
  2
Hidden
 70
     6
177
     3
291
     0
 70
    58
 90
        1
176
     1
 90
        2
176
     1
 90
        2
176
     1
 90
        0
176
     1
 40
0.6
176
     1
 40
30.0
176
     1
 62
     7
420
 16777215
176
     1
 90
        2
176
     1
 90
        2
176
     1
 62
     7
176
     1
 62
   257
176
     1
 90
        2
176
     1
 90
        1
176
     1
 40
40.0
176
     1
 90
        0
176
     1
 62
   257
176
     1
 40
1.0
176
     1
 90
        1
176
     1
 90
        6
176
     1
 90
        2
176
     1
 62
     7
176
     1
 90
        3
176
     1
 90
        0
176
     1
 90
        0
176
     1
290
     0
176
     1
 90
        1
176
     1
 40
0.0
176
     1
 90
        0
176
     1
290
     0
176
     1
290
     1
176
     1
290
     1
176
     1
290
     0
176
     1
290
     0
176
     1
290
     0
176
     1
290
     0
176
     1
290
     0
176
     1
290
     0
176
     1
 90
       50
176
     1
 40
0.0
176
     1
 40
1.0
176
     1
 90
        0
176
     1
 62
    18
420
        0
176
     1
 90
       50
176
     1
 90
        3
176
     1
 62
     5
420
      255
176
     1
290
     0
176
     1
 90
       50
176
     1
 90
       50
176
     1
 90
       50
176
     1
290
     0
176
     1
 90
       50
176
     1
 62
   256
176
     0
 40
1.0
176
     0
 90
        2
176
     1
  1
strokes_ogs.tif
176
     1
290
     0
176
     1
 40
1.0
176
     1
 40
1.0
176
     1
  0
VISUALSTYLE
  5
3F
102
{ACAD_REACTORS
330
29
102
}
330
29
100
AcDbVisualStyle
  2
JitterOff
 70
    20
177
     3
291
     1
 70
    58
 90
        2
176
     0
 90
        2
176
     0
 90
        0
176
     0
 90
        0
176
     0
 40
0.6
176
     0
 40
30.0
176
     0
 62
     7
420
 16777215
176
     0
 90
        1
176
     0
 90
        4
176
     0
 62
     7
176
     0
 62
   257
176
     0
 90
        1
176
     0
 90
        1
176
     0
 40
1.0
176
     0
 90
       10
176
     2
 62
     7
176
     0
 40
1.0
176
     0
 90
        1
176
     0
 90
        6
176
     0
 90
        2
176
     0
 62
     7
176
     0
 90
        5
176
     0
 90
        0
176
     0
 90
        0
176
     0
290
     0
176
     0
 90
        1
176
     0
 40
0.0
176
     0
 90
        0
176
     0
290
     0
176
     0
290
     1
176
     0
290
     1
176
     0
290
     0
176
     0
290
     0
176
     0
290
     0
176
     0
290
     0
176
     0
290
     0
176
     0
290
     0
176
     0
 90
       50
176
     0
 40
0.0
176
     0
 40
1.0
176
     0
 90
        0
176
     0
 62
    18
420
        0
176
     0
 90
       50
176
     0
 90
        3
176
     0
 62
     5
420
      255
176
     0
290
     0
176
     0
 90
       50
176
     0
 90
       50
176
     0
 90
       50
176
     0
290
     0
176
     0
 90
       50
176
     0
 62
   256
176
     0
 40
1.0
176
     0
 90
        2
176
     0
  1
strokes_ogs.tif
176
     0
290
     0
176
     0
 40
1.0
176
     0
 40
1.0
176
     0
  0
VISUALSTYLE
  5
37
102
{ACAD_REACTORS
330
29
102
}
330
29
100
AcDbVisualStyle
  2
Linepattern
 70
    14
177
     3
291
     1
 70
    58
 90
        2
176
     1
 90
        2
176
     1
 90
        0
176
     1
 90
        0
176
     1
 40
0.6
176
     1
 40
30.0
176
     1
 62
     7
420
 16777215
176
     1
 90
        1
176
     1
 90
        4
176
     1
 62
     7
176
     1
 62
   257
176
     1
 90
        7
176
     1
 90
        7
176
     1
 40
1.0
176
     1
 90
        8
176
     1
 62
     7
176
     1
 40
1.0
176
     1
 90
        1
176
     1
 90
        6
176
     1
 90
        2
176
     1
 62
     7
176
     1
 90
        5
176
     1
 90
        0
176
     1
 90
        0
176
     1
290
     0
176
     1
 90
        1
176
     1
 40
0.0
176
     1
 90
        0
176
     1
290
     0
176
     1
290
     1
176
     1
290
     1
176
     1
290
     0
176
     1
290
     0
176
     1
290
     0
176
     1
290
     0
176
     1
290
     0
176
     1
290
     0
176
     1
 90
       50
176
     1
 40
0.0
176
     1
 40
1.0
176
     1
 90
        0
176
     1
 62
    18
420
        0
176
     1
 90
       50
176
     1
 90
        3
176
     1
 62
     5
420
      255
176
     1
290
     0
176
     1
 90
       50
176
     1
 90
       50
176
     1
 90
       50
176
     1
290
     0
176
     1
 90
       50
176
     1
 62
   256
176
     0
 40
1.0
176
     0
 90
        2
176
     1
  1
strokes_ogs.tif
176
     1
290
     0
176
     1
 40
1.0
176
     1
 40
1.0
176
     1
  0
VISUALSTYLE
  5
40
102
{ACAD_REACTORS
330
29
102
}
330
29
100
AcDbVisualStyle
  2
OverhangOff
 70
    21
177
     3
291
     1
 70
    58
 90
        2
176
     0
 90
        2
176
     0
 90
        0
176
     0
 90
        0
176
     0
 40
0.6
176
     0
 40
30.0
176
     0
 62
     7
420
 16777215
176
     0
 90
        1
176
     0
 90
        4
176
     0
 62
     7
176
     0
 62
   257
176
     0
 90
        1
176
     0
 90
        1
176
     0
 40
1.0
176
     0
 90
        9
176
     2
 62
     7
176
     0
 40
1.0
176
     0
 90
        1
176
     0
 90
        6
176
     0
 90
        2
176
     0
 62
     7
176
     0
 90
        5
176
     0
 90
        0
176
     0
 90
        0
176
     0
290
     0
176
     0
 90
        1
176
     0
 40
0.0
176
     0
 90
        0
176
     0
290
     0
176
     0
290
     1
176
     0
290
     1
176
     0
290
     0
176
     0
290
     0
176
     0
290
     0
176
     0
290
     0
176
     0
290
     0
176
     0
290
     0
176
     0
 90
       50
176
     0
 40
0.0
176
     0
 40
1.0
176
     0
 90
        0
176
     0
 62
    18
420
        0
176
     0
 90
       50
176
     0
 90
        3
176
     0
 62
     5
420
      255
176
     0
290
     0
176
     0
 90
       50
176
     0
 90
       50
176
     0
 90
       50
176
     0
290
     0
176
     0
 90
       50
176
     0
 62
   256
176
     0
 40
1.0
176
     0
 90
        2
176
     0
  1
strokes_ogs.tif
176
     0
290
     0
176
     0
 40
1.0
176
     0
 40
1.0
176
     0
  0
VISUALSTYLE
  5
33
102
{ACAD_REACTORS
330
29
102
}
330
29
100
AcDbVisualStyle
  2
Realistic
 70
     8
177
     3
291
     0
 70
    58
 90
        2
176
     1
 90
        3
176
     1
 90
        0
176
     1
 90
        2
176
     1
 40
0.6
176
     1
 40
30.0
176
     1
 62
     7
420
 16777215
176
     1
 90
        0
176
     1
 90
        0
176
     1
 62
     7
176
     1
 62
   257
176
     1
 90
        1
176
     1
 90
        1
176
     1
 40
1.0
176
     1
 90
        8
176
     1
 62
   257
176
     1
 40
1.0
176
     1
 90
        1
176
     1
 90
        6
176
     1
 90
        2
176
     1
 62
     7
176
     1
 90
        3
176
     1
 90
        0
176
     1
 90
        0
176
     1
290
     0
176
     1
 90
       13
176
     1
 40
0.0
176
     1
 90
        0
176
     1
290
     0
176
     1
290
     1
176
     1
290
     1
176
     1
290
     0
176
     1
290
     0
176
     1
290
     0
176
     1
290
     0
176
     1
290
     0
176
     1
290
     0
176
     1
 90
       50
176
     1
 40
0.0
176
     1
 40
1.0
176
     1
 90
        0
176
     1
 62
    18
420
        0
176
     1
 90
       50
176
     1
 90
        3
176
     1
 62
     5
420
      255
176
     1
290
     0
176
     1
 90
       50
176
     1
 90
       50
176
     1
 90
       50
176
     1
290
     0
176
     1
 90
       50
176
     1
 62
   256
176
     0
 40
1.0
176
     0
 90
        2
176
     1
  1
strokes_ogs.tif
176
     1
290
     0
176
     1
 40
1.0
176
     1
 40
1.0
176
     1
  0
VISUALSTYLE
  5
3E
102
{ACAD_REACTORS
330
29
102
}
330
29
100
AcDbVisualStyle
  2
Shaded
 70
    27
177
     3
291
     0
 70
    58
 90
        2
176
     1
 90
        2
176
     1
 90
        1
176
     1
 90
        2
176
     1
 40
0.6
176
     1
 40
30.0
176
     1
 62
     7
420
 16777215
176
     1
 90
        0
176
     1
 90
        4
176
     1
 62
     7
176
     1
 62
   257
176
     1
 90
        1
176
     1
 90
        1
176
     1
 40
1.0
176
     1
 90
        8
176
     1
 62
   257
176
     1
 40
1.0
176
     1
 90
        1
176
     1
 90
        6
176
     1
 90
        2
176
     1
 62
     8
420
  7895160
176
     1
 90
        3
176
     1
 90
        0
176
     1
 90
        0
176
     1
290
     0
176
     1
 90
        5
176
     1
 40
0.0
176
     1
 90
        0
176
     1
290
     0
176
     1
290
     1
176
     1
290
     1
176
     1
290
     0
176
     1
290
     0
176
     1
290
     0
176
     1
290
     0
176
     1
290
     0
176
     1
290
     0
176
     1
 90
       50
176
     1
 40
0.0
176
     1
 40
1.0
176
     1
 90
        0
176
     1
 62
    18
420
        0
176
     1
 90
       50
176
     1
 90
        3
176
     1
 62
     5
420
      255
176
     1
290
     0
176
     1
 90
       50
176
     1
 90
       50
176
     1
 90
       50
176
     1
290
     0
176
     1
 90
       50
176
     1
 62
   256
176
     0
 40
1.0
176
     0
 90
        2
176
     1
  1
strokes_ogs.tif
176
     1
290
     0
176
     1
 40
1.0
176
     1
 40
1.0
176
     1
  0
VISUALSTYLE
  5
3D
102
{ACAD_REACTORS
330
29
102
}
330
29
100
AcDbVisualStyle
  2
Shaded with edges
 70
    26
177
     3
291
     0
 70
    58
 90
        2
176
     1
 90
        2
176
     1
 90
        1
176
     1
 90
        2
176
     1
 40
0.6
176
     1
 40
30.0
176
     1
 62
     7
420
 16777215
176
     1
 90
        1
176
     1
 90
        2
176
     1
 62
     7
176
     1
 62
   257
176
     1
 90
        2
176
     1
 90
        1
176
     1
 40
1.0
176
     1
 90
        8
176
     1
 62
   257
176
     1
 40
1.0
176
     1
 90
        1
176
     1
 90
        6
176
     1
 90
        2
176
     1
 62
     7
176
     1
 90
        3
176
     1
 90
        0
176
     1
 90
        0
176
     1
290
     0
176
     1
 90
        5
176
     1
 40
0.0
176
     1
 90
        0
176
     1
290
     0
176
     1
290
     1
176
     1
290
     1
176
     1
290
     0
176
     1
290
     0
176
     1
290
     0
176
     1
290
     0
176
     1
290
     0
176
     1
290
     0
176
     1
 90
       50
176
     1
 40
0.0
176
     1
 40
1.0
176
     1
 90
        0
176
     1
 62
    18
420
        0
176
     1
 90
       50
176
     1
 90
        3
176
     1
 62
     5
420
      255
176
     1
290
     0
176
     1
 90
       50
176
     1
 90
       50
176
     1
 90
       50
176
     1
290
     0
176
     1
 90
       50
176
     1
 62
   256
176
     0
 40
1.0
176
     0
 90
        2
176
     1
  1
strokes_ogs.tif
176
     1
290
     0
176
     1
 40
1.0
176
     1
 40
1.0
176
     1
  0
VISUALSTYLE
  5
3A
102
{ACAD_REACTORS
330
29
102
}
330
29
100
AcDbVisualStyle
  2
Shades of Gray
 70
    23
177
     3
291
     0
 70
    58
 90
        2
176
     1
 90
        2
176
     1
 90
        3
176
     1
 90
        0
176
     1
 40
0.6
176
     1
 40
30.0
176
     1
 62
     7
420
 16777215
176
     1
 90
        2
176
     1
 90
        2
176
     1
 62
     7
176
     1
 62
     7
176
     1
 90
        1
176
     1
 90
        1
176
     1
 40
40.0
176
     1
 90
        8
176
     1
 62
     7
176
     1
 40
1.0
176
     1
 90
        1
176
     1
 90
        6
176
     1
 90
        2
176
     1
 62
     7
176
     1
 90
        3
176
     1
 90
        0
176
     1
 90
        0
176
     1
290
     0
176
     1
 90
        1
176
     1
 40
0.0
176
     1
 90
        0
176
     1
290
     0
176
     1
290
     1
176
     1
290
     1
176
     1
290
     0
176
     1
290
     0
176
     1
290
     0
176
     1
290
     0
176
     1
290
     0
176
     1
290
     0
176
     1
 90
       50
176
     1
 40
0.0
176
     1
 40
1.0
176
     1
 90
        0
176
     1
 62
    18
420
        0
176
     1
 90
       50
176
     1
 90
        3
176
     1
 62
     5
420
      255
176
     1
290
     0
176
     1
 90
       50
176
     1
 90
       50
176
     1
 90
       50
176
     1
290
     0
176
     1
 90
       50
176
     1
 62
   256
176
     0
 40
1.0
176
     0
 90
        2
176
     1
  1
strokes_ogs.tif
176
     1
290
     0
176
     1
 40
1.0
176
     1
 40
1.0
176
     1
  0
VISUALSTYLE
  5
3B
102
{ACAD_REACTORS
330
29
102
}
330
29
100
AcDbVisualStyle
  2
Sketchy
 70
    24
177
     3
291
     0
 70
    58
 90
        1
176
     1
 90
        2
176
     1
 90
        2
176
     1
 90
        0
176
     1
 40
0.6
176
     1
 40
30.0
176
     1
 62
     7
420
 16777215
176
     1
 90
        2
176
     1
 90
        2
176
     1
 62
     7
176
     1
 62
     7
176
     1
 90
        1
176
     1
 90
        1
176
     1
 40
40.0
176
     1
 90
       11
176
     1
 62
     7
176
     1
 40
1.0
176
     1
 90
        1
176
     1
 90
        6
176
     1
 90
        2
176
     1
 62
     7
176
     1
 90
        6
176
     1
 90
        0
176
     1
 90
        0
176
     1
290
     0
176
     1
 90
        1
176
     1
 40
0.0
176
     1
 90
        0
176
     1
290
     0
176
     1
290
     1
176
     1
290
     1
176
     1
290
     0
176
     1
290
     0
176
     1
290
     0
176
     1
290
     0
176
     1
290
     0
176
     1
290
     0
176
     1
 90
       50
176
     1
 40
0.0
176
     1
 40
1.0
176
     1
 90
        0
176
     1
 62
    18
420
        0
176
     1
 90
       50
176
     1
 90
        3
176
     1
 62
     5
420
      255
176
     1
290
     0
176
     1
 90
       50
176
     1
 90
       50
176
     1
 90
       50
176
     1
290
     0
176
     1
 90
       50
176
     1
 62
   256
176
     0
 40
1.0
176
     0
 90
        2
176
     1
  1
strokes_ogs.tif
176
     1
290
     0
176
     1
 40
1.0
176
     1
 40
1.0
176
     1
  0
VISUALSTYLE
  5
36
102
{ACAD_REACTORS
330
29
102
}
330
29
100
AcDbVisualStyle
  2
Thicken
 70
    13
177
     3
291
     1
 70
    58
 90
        2
176
     1
 90
        2
176
     1
 90
        0
176
     1
 90
        0
176
     1
 40
0.6
176
     1
 40
30.0
176
     1
 62
     7
420
 16777215
176
     1
 90
        1
176
     1
 90
        4
176
     1
 62
     7
176
     1
 62
   257
176
     1
 90
        1
176
     1
 90
        1
176
     1
 40
1.0
176
     1
 90
       12
176
     1
 62
     7
176
     1
 40
1.0
176
     1
 90
        1
176
     1
 90
        6
176
     1
 90
        2
176
     1
 62
     7
176
     1
 90
        5
176
     1
 90
        0
176
     1
 90
        0
176
     1
290
     0
176
     1
 90
        1
176
     1
 40
0.0
176
     1
 90
        0
176
     1
290
     0
176
     1
290
     1
176
     1
290
     1
176
     1
290
     0
176
     1
290
     0
176
     1
290
     0
176
     1
290
     0
176
     1
290
     0
176
     1
290
     0
176
     1
 90
       50
176
     1
 40
0.0
176
     1
 40
1.0
176
     1
 90
        0
176
     1
 62
    18
420
        0
176
     1
 90
       50
176
     1
 90
        3
176
     1
 62
     5
420
      255
176
     1
290
     0
176
     1
 90
       50
176
     1
 90
       50
176
     1
 90
       50
176
     1
290
     0
176
     1
 90
       50
176
     1
 62
   256
176
     0
 40
1.0
176
     0
 90
        2
176
     1
  1
strokes_ogs.tif
176
     1
290
     0
176
     1
 40
1.0
176
     1
 40
1.0
176
     1
  0
VISUALSTYLE
  5
30
102
{ACAD_REACTORS
330
29
102
}
330
29
100
AcDbVisualStyle
  2
Wireframe
 70
     5
177
     3
291
     0
 70
    58
 90
        0
176
     1
 90
        2
176
     1
 90
        0
176
     1
 90
        0
176
     1
 40
0.6
176
     1
 40
30.0
176
     1
 62
     7
420
 16777215
176
     1
 90
        1
176
     1
 90
        4
176
     1
 62
     7
176
     1
 62
   257
176
     1
 90
        1
176
     1
 90
        1
176
     1
 40
1.0
176
     1
 90
        0
176
     1
 62
   257
176
     1
 40
1.0
176
     1
 90
        1
176
     1
 90
        6
176
     1
 90
        2
176
     1
 62
     7
176
     1
 90
        3
176
     1
 90
        0
176
     1
 90
        0
176
     1
290
     0
176
     1
 90
        1
176
     1
 40
0.0
176
     1
 90
        0
176
     1
290
     0
176
     1
290
     1
176
     1
290
     1
176
     1
290
     0
176
     1
290
     0
176
     1
290
     0
176
     1
290
     0
176
     1
290
     0
176
     1
290
     0
176
     1
 90
       50
176
     1
 40
0.0
176
     1
 40
1.0
176
     1
 90
        0
176
     1
 62
    18
420
        0
176
     1
 90
       50
176
     1
 90
        3
176
     1
 62
     5
420
      255
176
     1
290
     0
176
     1
 90
       50
176
     1
 90
       50
176
     1
 90
       50
176
     1
290
     0
176
     1
 90
       50
176
     1
 62
   256
176
     0
 40
1.0
176
     0
 90
        2
176
     1
  1
strokes_ogs.tif
176
     1
290
     0
176
     1
 40
1.0
176
     1
 40
1.0
176
     1
  0
VISUALSTYLE
  5
3C
102
{ACAD_REACTORS
330
29
102
}
330
29
100
AcDbVisualStyle
  2
X-Ray
 70
    25
177
     3
291
     0
 70
    58
 90
        2
176
     1
 90
        2
176
     1
 90
        1
176
     1
 90
        1
176
     1
 40
0.5
176
     1
 40
30.0
176
     1
 62
     7
420
 16777215
176
     1
 90
        1
176
     1
 90
        0
176
     1
 62
     7
176
     1
 62
   257
176
     1
 90
        1
176
     1
 90
        1
176
     1
 40
1.0
176
     1
 90
        8
176
     1
 62
     7
176
     1
 40
1.0
176
     1
 90
        1
176
     1
 90
        6
176
     1
 90
        2
176
     1
 62
     7
176
     1
 90
        3
176
     1
 90
        0
176
     1
 90
        0
176
     1
290
     0
176
     1
 90
       13
176
     1
 40
0.0
176
     1
 90
        0
176
     1
290
     0
176
     1
290
     1
176
     1
290
     1
176
     1
290
     0
176
     1
290
     0
176
     1
290
     0
176
     1
290
     0
176
     1
290
     0
176
     1
290
     0
176
     1
 90
       50
176
     1
 40
0.0
176
     1
 40
1.0
176
     1
 90
        0
176
     1
 62
    18
420
        0
176
     1
 90
       50
176
     1
 90
        3
176
     1
 62
     5
420
      255
176
     1
290
     0
176
     1
 90
       50
176
     1
 90
       50
176
     1
 90
       50
176
     1
290
     0
176
     1
 90
       50
176
     1
 62
   256
176
     0
 40
1.0
176
     0
 90
        2
176
     1
  1
strokes_ogs.tif
176
     1
290
     0
176
     1
 40
1.0
176
     1
 40
1.0
176
     1
  0
DICTIONARYVAR
  5
193
102
{ACAD_REACTORS
330
18E
102
}
330
18E
100
DictionaryVariables
280
     0
  1
1:1
  0
DICTIONARYVAR
  5
190
102
{ACAD_REACTORS
330
18E
102
}
330
18E
100
DictionaryVariables
280
     0
  1
STANDARD
  0
DICTIONARYVAR
  5
18F
102
{ACAD_REACTORS
330
18E
102
}
330
18E
100
DictionaryVariables
280
     0
  1
STANDARD
  0
DICTIONARYVAR
  5
191
102
{ACAD_REACTORS
330
18E
102
}
330
18E
100
DictionaryVariables
280
     0
  1
Imperial24
  0
DICTIONARYVAR
  5
192
102
{ACAD_REACTORS
330
18E
102
}
330
18E
100
DictionaryVariables
280
     0
  1
Imperial24
  0
DICTIONARY
  5
1A
330
19
100
AcDbDictionary
280
     1
281
     1
  3
BUMPTILE
360
1C
  3
DIFFUSETILE
360
1B
  3
OPACITYTILE
360
1F
  3
REFLECTIONTILE
360
1E
  3
REFRACTIONTILE
360
20
  3
SPECULARTILE
360
1D
  0
DICTIONARY
  5
12
330
11
100
AcDbDictionary
280
     1
281
     1
  3
BUMPTILE
360
14
  3
DIFFUSETILE
360
13
  3
OPACITYTILE
360
17
  3
REFLECTIONTILE
360
16
  3
REFRACTIONTILE
360
18
  3
SPECULARTILE
360
15
  0
DICTIONARY
  5
22
330
21
100
AcDbDictionary
280
     1
281
     1
  3
BUMPTILE
360
24
  3
DIFFUSETILE
360
23
  3
OPACITYTILE
360
27
  3
REFLECTIONTILE
360
26
  3
REFRACTIONTILE
360
28
  3
SPECULARTILE
360
25
  0
DICTIONARY
  5
194
330
65
100
AcDbDictionary
280
     1
281
     1
  3
ACAD_ROUNDTRIP_2008_TABLESTYLE_CELLSTYLEMAP
360
195
  0
XRECORD
  5
1C
102
{ACAD_REACTORS
330
1A
102
}
330
1A
100
AcDbXrecord
280
     1
270
     1
271
     1
  0
XRECORD
  5
1B
102
{ACAD_REACTORS
330
1A
102
}
330
1A
100
AcDbXrecord
280
     1
270
     1
271
     1
  0
XRECORD
  5
1F
102
{ACAD_REACTORS
330
1A
102
}
330
1A
100
AcDbXrecord
280
     1
270
     1
271
     1
  0
XRECORD
  5
1E
102
{ACAD_REACTORS
330
1A
102
}
330
1A
100
AcDbXrecord
280
     1
270
     1
271
     1
  0
XRECORD
  5
20
102
{ACAD_REACTORS
330
1A
102
}
330
1A
100
AcDbXrecord
280
     1
270
     1
271
     1
  0
XRECORD
  5
1D
102
{ACAD_REACTORS
330
1A
102
}
330
1A
100
AcDbXrecord
280
     1
270
     1
271
     1
  0
XRECORD
  5
14
102
{ACAD_REACTORS
330
12
102
}
330
12
100
AcDbXrecord
280
     1
270
     1
271
     1
  0
XRECORD
  5
13
102
{ACAD_REACTORS
330
12
102
}
330
12
100
AcDbXrecord
280
     1
270
     1
271
     1
  0
XRECORD
  5
17
102
{ACAD_REACTORS
330
12
102
}
330
12
100
AcDbXrecord
280
     1
270
     1
271
     1
  0
XRECORD
  5
16
102
{ACAD_REACTORS
330
12
102
}
330
12
100
AcDbXrecord
280
     1
270
     1
271
     1
  0
XRECORD
  5
18
102
{ACAD_REACTORS
330
12
102
}
330
12
100
AcDbXrecord
280
     1
270
     1
271
     1
  0
XRECORD
  5
15
102
{ACAD_REACTORS
330
12
102
}
330
12
100
AcDbXrecord
280
     1
270
     1
271
     1
  0
XRECORD
  5
24
102
{ACAD_REACTORS
330
22
102
}
330
22
100
AcDbXrecord
280
     1
270
     1
271
     1
  0
XRECORD
  5
23
102
{ACAD_REACTORS
330
22
102
}
330
22
100
AcDbXrecord
280
     1
270
     1
271
     1
  0
XRECORD
  5
27
102
{ACAD_REACTORS
330
22
102
}
330
22
100
AcDbXrecord
280
     1
270
     1
271
     1
  0
XRECORD
  5
26
102
{ACAD_REACTORS
330
22
102
}
330
22
100
AcDbXrecord
280
     1
270
     1
271
     1
  0
XRECORD
  5
28
102
{ACAD_REACTORS
330
22
102
}
330
22
100
AcDbXrecord
280
     1
270
     1
271
     1
  0
XRECORD
  5
25
102
{ACAD_REACTORS
330
22
102
}
330
22
100
AcDbXrecord
280
     1
270
     1
271
     1
  0
CELLSTYLEMAP
  5
195
102
{ACAD_REACTORS
330
194
102
}
330
194
100
AcDbCellStyleMap
 90
        3
300
CELLSTYLE
  1
TABLEFORMAT_BEGIN
 90
        5
170
     1
 91
        0
 92
    32768
 62
   257
 93
        1
300
CONTENTFORMAT
  1
CONTENTFORMAT_BEGIN
 90
        0
 91
        0
 92
      512
 93
        0
300

 40
0.0
140
1.0
 94
        5
 62
     0
340
55
144
0.25
309
CONTENTFORMAT_END
171
     0
 94
        0
309
TABLEFORMAT_END
  1
CELLSTYLE_BEGIN
 90
        1
 91
        1
300
_TITLE
309
CELLSTYLE_END
300
CELLSTYLE
  1
TABLEFORMAT_BEGIN
 90
        5
170
     1
 91
        0
 92
        0
 62
   257
 93
        1
300
CONTENTFORMAT
  1
CONTENTFORMAT_BEGIN
 90
        0
 91
        0
 92
      512
 93
        0
300

 40
0.0
140
1.0
 94
        5
 62
     0
340
55
144
0.18
309
CONTENTFORMAT_END
171
     0
 94
        0
309
TABLEFORMAT_END
  1
CELLSTYLE_BEGIN
 90
        2
 91
        1
300
_HEADER
309
CELLSTYLE_END
300
CELLSTYLE
  1
TABLEFORMAT_BEGIN
 90
        5
170
     1
 91
        0
 92
        0
 62
   257
 93
        1
300
CONTENTFORMAT
  1
CONTENTFORMAT_BEGIN
 90
        0
 91
        0
 92
      512
 93
        0
300

 40
0.0
140
1.0
 94
        2
 62
     0
340
55
144
0.18
309
CONTENTFORMAT_END
171
     0
 94
        0
309
TABLEFORMAT_END
  1
CELLSTYLE_BEGIN
 90
        3
 91
        2
300
_DATA
309
CELLSTYLE_END
  0
ENDSEC
  0
EOF
